ISO-10303-21;
HEADER;
FILE_DESCRIPTION (( 'STEP AP203' ),
    '1' );
FILE_NAME ('49684.STEP',
    '2024-02-29T01:32:31',
    ( '' ),
    ( '' ),
    'SwSTEP 2.0',
    'SolidWorks 2023',
    '' );
FILE_SCHEMA (( 'CONFIG_CONTROL_DESIGN' ));
ENDSEC;

DATA;
#1 = COORDINATED_UNIVERSAL_TIME_OFFSET ( 5, 0, .BEHIND. ) ;
#2 = CARTESIAN_POINT ( 'NONE',  ( -0.3937000000000000499, -8.886660975684131482E-15, -4.094500000000000028 ) ) ;
#3 = APPROVAL_ROLE ( '' ) ;
#4 = DATE_AND_TIME ( #339, #330 ) ;
#5 = PLANE ( 'NONE',  #248 ) ;
#6 = AXIS2_PLACEMENT_3D ( 'NONE', #93, #232, #259 ) ;
#7 = CC_DESIGN_SECURITY_CLASSIFICATION ( #283, ( #351 ) ) ;
#8 = DIRECTION ( 'NONE',  ( -1.000000000000000000, 6.982962677686265922E-15, -4.876176775795935793E-29 ) ) ;
#9 = CARTESIAN_POINT ( 'NONE',  ( -0.3937000000000000499, -1.771894877456511079E-15, -2.597400000000001263 ) ) ;
#10 = CARTESIAN_POINT ( 'NONE',  ( 6.354306145991459756E-29, -9.072265110850031044E-15, -2.598400000000000265 ) ) ;
#11 = EDGE_CURVE ( 'NONE', #20, #185, #150, .T. ) ;
#12 = CC_DESIGN_APPROVAL ( #193, ( #351 ) ) ;
#13 = DIRECTION ( 'NONE',  ( -2.445468806185136597E-29, 3.491481338843145583E-15, 1.000000000000000000 ) ) ;
#14 = CARTESIAN_POINT ( 'NONE',  ( 6.354306145991459756E-29, -9.072265110850031044E-15, -2.598400000000000265 ) ) ;
#15 = DIRECTION ( 'NONE',  ( -2.445468806185136597E-29, 3.491481338843145583E-15, 1.000000000000000000 ) ) ;
#16 = AXIS2_PLACEMENT_3D ( 'NONE', #266, #18, #128 ) ;
#17 = EDGE_CURVE ( 'NONE', #20, #72, #60, .T. ) ;
#18 = DIRECTION ( 'NONE',  ( 0.000000000000000000, 0.000000000000000000, 1.000000000000000000 ) ) ;
#19 = CARTESIAN_POINT ( 'NONE',  ( 0.3937000000000000499, -1.181796603571627441E-14, -2.597400000000001263 ) ) ;
#20 = VERTEX_POINT ( 'NONE', #340 ) ;
#21 = DIRECTION ( 'NONE',  ( -2.445468806185136597E-29, 3.491481338843145583E-15, 1.000000000000000000 ) ) ;
#22 = ORIENTED_EDGE ( 'NONE', *, *, #170, .T. ) ;
#23 = EDGE_CURVE ( 'NONE', #277, #72, #224, .T. ) ;
#24 = CONICAL_SURFACE ( 'NONE', #346, 0.3926999999999999935, 0.7853981633978239785 ) ;
#25 = DIRECTION ( 'NONE',  ( -2.445468806185136597E-29, 3.491481338843145583E-15, 1.000000000000000000 ) ) ;
#26 = ORIENTED_EDGE ( 'NONE', *, *, #305, .T. ) ;
#27 = EDGE_LOOP ( 'NONE', ( #106, #132, #183, #125 ) ) ;
#28 = CALENDAR_DATE ( 2024, 28, 2 ) ;
#29 = LOCAL_TIME ( 20, 32, 31.00000000000000000, #1 ) ;
#30 = CARTESIAN_POINT ( 'NONE',  ( -1.043851414335219820E-46, 1.490343170380447200E-32, 4.268512490100411279E-18 ) ) ;
#31 = DIRECTION ( 'NONE',  ( 1.000000000000000000, -6.982962677686267499E-15, 0.000000000000000000 ) ) ;
#32 = PERSON_AND_ORGANIZATION ( #364, #318 ) ;
#33 = DIRECTION ( 'NONE',  ( 1.000000000000000000, -6.982962677686266711E-15, 4.876212485538980163E-29 ) ) ;
#34 = EDGE_CURVE ( 'NONE', #42, #70, #197, .T. ) ;
#35 = DIRECTION ( 'NONE',  ( -1.000000000000000000, 6.982962677686266711E-15, 0.000000000000000000 ) ) ;
#36 = DIRECTION ( 'NONE',  ( 1.000000000000000000, -6.982962677686267499E-15, 0.000000000000000000 ) ) ;
#37 = DIRECTION ( 'NONE',  ( 2.445468806185136597E-29, -3.491481338843145583E-15, -1.000000000000000000 ) ) ;
#38 = CLOSED_SHELL ( 'NONE', ( #214, #173, #235, #254, #280, #299, #278, #58 ) ) ;
#39 = CIRCLE ( 'NONE', #294, 0.3937000000000000499 ) ;
#40 = CARTESIAN_POINT ( 'NONE',  ( 0.3937000000000000499, -1.704506274809834471E-14, -4.094500000000000028 ) ) ;
#41 = CARTESIAN_POINT ( 'NONE',  ( 0.3926999999999999935, -1.181447455437742825E-14, -2.598400000000000265 ) ) ;
#42 = VERTEX_POINT ( 'NONE', #2 ) ;
#43 = AXIS2_PLACEMENT_3D ( 'NONE', #168, #111, #31 ) ;
#44 = VECTOR ( 'NONE', #179, 39.37007874015748854 ) ;
#45 = DIRECTION ( 'NONE',  ( -2.445468806185136597E-29, 3.491481338843145583E-15, 1.000000000000000000 ) ) ;
#46 = EDGE_LOOP ( 'NONE', ( #210, #221, #161, #79 ) ) ;
#47 = LINE ( 'NONE', #155, #275 ) ;
#48 = EDGE_CURVE ( 'NONE', #70, #216, #199, .T. ) ;
#49 = ORIENTED_EDGE ( 'NONE', *, *, #226, .F. ) ;
#50 =( NAMED_UNIT ( * ) PLANE_ANGLE_UNIT ( ) SI_UNIT ( $, .RADIAN. ) );
#51 = EDGE_LOOP ( 'NONE', ( #302, #268 ) ) ;
#52 = LOCAL_TIME ( 20, 32, 31.00000000000000000, #110 ) ;
#53 = PERSON_AND_ORGANIZATION_ROLE ( 'design_owner' ) ;
#54 = MANIFOLD_SOLID_BREP ( 'Body-Move/Copy2[2]', #38 ) ;
#55 = EDGE_LOOP ( 'NONE', ( #22, #217, #213, #190 ) ) ;
#56 = DATE_AND_TIME ( #107, #135 ) ;
#57 = APPROVAL_ROLE ( '' ) ;
#58 = ADVANCED_FACE ( 'NONE', ( #223 ), #5, .F. ) ;
#59 = CALENDAR_DATE ( 2024, 28, 2 ) ;
#60 = LINE ( 'NONE', #338, #366 ) ;
#61 = PRODUCT_DEFINITION_SHAPE ( 'NONE', 'NONE',  #202 ) ;
#62 = CARTESIAN_POINT ( 'NONE',  ( 0.000000000000000000, 0.000000000000000000, 0.000000000000000000 ) ) ;
#63 = AXIS2_PLACEMENT_3D ( 'NONE', #324, #348, #260 ) ;
#64 = DIRECTION ( 'NONE',  ( 0.7071067811865469066, -7.319954787623254468E-15, -0.7071067811865482389 ) ) ;
#65 = CYLINDRICAL_SURFACE ( 'NONE', #289, 0.3937000000000000499 ) ;
#66 = PLANE ( 'NONE',  #337 ) ;
#67 = AXIS2_PLACEMENT_3D ( 'NONE', #300, #15, #189 ) ;
#68 = APPROVAL ( #192, 'UNSPECIFIED' ) ;
#69 = DIRECTION ( 'NONE',  ( 2.438088387897960049E-29, -3.491481338843145188E-15, -1.000000000000000000 ) ) ;
#70 = VERTEX_POINT ( 'NONE', #228 ) ;
#71 = CARTESIAN_POINT ( 'NONE',  ( 4.890937612370296805E-31, -6.982962677686323656E-17, -0.02000000000000009409 ) ) ;
#72 = VERTEX_POINT ( 'NONE', #347 ) ;
#73 = AXIS2_PLACEMENT_3D ( 'NONE', #30, #316, #33 ) ;
#74 = CC_DESIGN_PERSON_AND_ORGANIZATION_ASSIGNMENT ( #32, #312, ( #202 ) ) ;
#75 = CIRCLE ( 'NONE', #361, 0.3936999999999996613 ) ;
#76 = EDGE_CURVE ( 'NONE', #101, #331, #87, .T. ) ;
#77 = ORIENTED_EDGE ( 'NONE', *, *, #270, .T. ) ;
#78 = ADVANCED_BREP_SHAPE_REPRESENTATION ( '49684', ( #301, #54, #16 ), #236 ) ;
#79 = ORIENTED_EDGE ( 'NONE', *, *, #296, .T. ) ;
#80 = FACE_OUTER_BOUND ( 'NONE', #365, .T. ) ;
#81 = EDGE_LOOP ( 'NONE', ( #154, #133, #360, #115 ) ) ;
#82 = DIRECTION ( 'NONE',  ( -0.7071067811865469066, 2.468850131082249961E-15, -0.7071067811865482389 ) ) ;
#83 = PERSON_AND_ORGANIZATION ( #364, #318 ) ;
#84 = CARTESIAN_POINT ( 'NONE',  ( -0.3936999999999998279, 2.797406750687513209E-15, -1.936584745033355614E-29 ) ) ;
#85 = PERSON_AND_ORGANIZATION_ROLE ( 'classification_officer' ) ;
#86 = CARTESIAN_POINT ( 'NONE',  ( -0.3937000000000000499, 2.797406750687514786E-15, -1.936584745033356735E-29 ) ) ;
#87 = CIRCLE ( 'NONE', #345, 0.3926999999999999935 ) ;
#88 = COORDINATED_UNIVERSAL_TIME_OFFSET ( 5, 0, .BEHIND. ) ;
#89 = LOCAL_TIME ( 20, 32, 31.00000000000000000, #88 ) ;
#90 = DIRECTION ( 'NONE',  ( 1.000000000000000000, -6.982962677686266711E-15, 4.876212485538980163E-29 ) ) ;
#91 = CARTESIAN_POINT ( 'NONE',  ( -1.043851414335219820E-46, 1.490343170380447200E-32, 4.268512490100411279E-18 ) ) ;
#92 = DIRECTION ( 'NONE',  ( -2.445468806185136597E-29, 3.491481338843145583E-15, 1.000000000000000000 ) ) ;
#93 = CARTESIAN_POINT ( 'NONE',  ( 4.890937612370296805E-31, -6.982962677686323656E-17, -0.02000000000000009409 ) ) ;
#94 = FACE_OUTER_BOUND ( 'NONE', #282, .T. ) ;
#95 = VECTOR ( 'NONE', #344, 39.37007874015748143 ) ;
#96 = VECTOR ( 'NONE', #64, 39.37007874015748143 ) ;
#97 = DIRECTION ( 'NONE',  ( 1.000000000000000000, -6.982962677686265922E-15, 4.876176775795935793E-29 ) ) ;
#98 = EDGE_LOOP ( 'NONE', ( #152, #208, #329, #309 ) ) ;
#99 = DIRECTION ( 'NONE',  ( 1.000000000000000000, -6.982962677686267499E-15, 0.000000000000000000 ) ) ;
#100 = EDGE_CURVE ( 'NONE', #216, #70, #118, .T. ) ;
#101 = VERTEX_POINT ( 'NONE', #204 ) ;
#102 = AXIS2_PLACEMENT_3D ( 'NONE', #238, #21, #99 ) ;
#103 = DIRECTION ( 'NONE',  ( 1.000000000000000000, -6.982962677686267499E-15, 0.000000000000000000 ) ) ;
#104 = ORIENTED_EDGE ( 'NONE', *, *, #100, .F. ) ;
#105 = LINE ( 'NONE', #240, #212 ) ;
#106 = ORIENTED_EDGE ( 'NONE', *, *, #326, .T. ) ;
#107 = CALENDAR_DATE ( 2024, 28, 2 ) ;
#108 = CONICAL_SURFACE ( 'NONE', #67, 0.3926999999999999935, 0.7853981633978239785 ) ;
#109 = APPLICATION_CONTEXT ( 'configuration controlled 3d designs of mechanical parts and assemblies' ) ;
#110 = COORDINATED_UNIVERSAL_TIME_OFFSET ( 5, 0, .BEHIND. ) ;
#111 = DIRECTION ( 'NONE',  ( -2.445468806185136597E-29, 3.491481338843145583E-15, 1.000000000000000000 ) ) ;
#112 = ADVANCED_FACE ( 'NONE', ( #117 ), #257, .F. ) ;
#113 = VECTOR ( 'NONE', #163, 39.37007874015748143 ) ;
#114 = DATE_TIME_ROLE ( 'classification_date' ) ;
#115 = ORIENTED_EDGE ( 'NONE', *, *, #296, .F. ) ;
#116 = CYLINDRICAL_SURFACE ( 'NONE', #308, 0.3936999999999998279 ) ;
#117 = FACE_OUTER_BOUND ( 'NONE', #285, .T. ) ;
#118 = CIRCLE ( 'NONE', #164, 0.3937000000000000499 ) ;
#119 = DIRECTION ( 'NONE',  ( -2.445468806185136597E-29, 3.491481338843145583E-15, 1.000000000000000000 ) ) ;
#120 = CARTESIAN_POINT ( 'NONE',  ( 0.3936999999999996613, -2.770807688499512973E-15, -0.02000000000000009409 ) ) ;
#121 = DIRECTION ( 'NONE',  ( 1.000000000000000000, -6.982962677686266711E-15, 4.876176775795935793E-29 ) ) ;
#122 = DIRECTION ( 'NONE',  ( 1.000000000000000000, -6.982962677686266711E-15, 0.000000000000000000 ) ) ;
#123 = APPROVAL_PERSON_ORGANIZATION ( #218, #258, #3 ) ;
#124 = CYLINDRICAL_SURFACE ( 'NONE', #151, 0.3936999999999998279 ) ;
#125 = ORIENTED_EDGE ( 'NONE', *, *, #363, .F. ) ;
#126 = CC_DESIGN_PERSON_AND_ORGANIZATION_ASSIGNMENT ( #247, #85, ( #283 ) ) ;
#127 = DIRECTION ( 'NONE',  ( -2.445468806185136877E-29, 3.491481338843145188E-15, 1.000000000000000000 ) ) ;
#128 = DIRECTION ( 'NONE',  ( 1.000000000000000000, 0.000000000000000000, 0.000000000000000000 ) ) ;
#129 = ORIENTED_EDGE ( 'NONE', *, *, #17, .F. ) ;
#130 = AXIS2_PLACEMENT_3D ( 'NONE', #262, #317, #230 ) ;
#131 = APPLICATION_PROTOCOL_DEFINITION ( 'international standard', 'config_control_design', 1994, #149 ) ;
#132 = ORIENTED_EDGE ( 'NONE', *, *, #23, .T. ) ;
#133 = ORIENTED_EDGE ( 'NONE', *, *, #341, .T. ) ;
#134 = APPROVAL_STATUS ( 'not_yet_approved' ) ;
#135 = LOCAL_TIME ( 20, 32, 31.00000000000000000, #227 ) ;
#136 = DATE_AND_TIME ( #167, #89 ) ;
#137 = ADVANCED_FACE ( 'NONE', ( #94 ), #175, .T. ) ;
#138 = EDGE_LOOP ( 'NONE', ( #327, #304 ) ) ;
#139 = PERSON_AND_ORGANIZATION ( #364, #318 ) ;
#140 = CIRCLE ( 'NONE', #63, 0.3937000000000000499 ) ;
#141 = FACE_OUTER_BOUND ( 'NONE', #333, .T. ) ;
#142 = PLANE ( 'NONE',  #256 ) ;
#143 = DIRECTION ( 'NONE',  ( 1.000000000000000000, -6.982962677686265133E-15, 0.000000000000000000 ) ) ;
#144 = CIRCLE ( 'NONE', #265, 0.3926999999999999935 ) ;
#145 = DIRECTION ( 'NONE',  ( -1.000000000000000000, 6.982962677686265922E-15, -4.876176775795935793E-29 ) ) ;
#146 = AXIS2_PLACEMENT_3D ( 'NONE', #207, #25, #237 ) ;
#147 = UNCERTAINTY_MEASURE_WITH_UNIT (LENGTH_MEASURE( 1.000000000000000082E-05 ), #306, 'distance_accuracy_value', 'NONE');
#148 = CARTESIAN_POINT ( 'NONE',  ( 0.3936999999999996613, -2.770807688499512973E-15, -0.02000000000000009409 ) ) ;
#149 = APPLICATION_CONTEXT ( 'configuration controlled 3d designs of mechanical parts and assemblies' ) ;
#150 = CIRCLE ( 'NONE', #73, 0.3736999999999996436 ) ;
#151 = AXIS2_PLACEMENT_3D ( 'NONE', #181, #328, #244 ) ;
#152 = ORIENTED_EDGE ( 'NONE', *, *, #34, .F. ) ;
#153 = DIRECTION ( 'NONE',  ( -2.445468806185136597E-29, 3.491481338843145583E-15, 1.000000000000000000 ) ) ;
#154 = ORIENTED_EDGE ( 'NONE', *, *, #23, .F. ) ;
#155 = CARTESIAN_POINT ( 'NONE',  ( 0.3937000000000000499, -2.749192406205083217E-15, 1.919750796630860172E-29 ) ) ;
#156 = VERTEX_POINT ( 'NONE', #148 ) ;
#157 = DIRECTION ( 'NONE',  ( 1.000000000000000000, -6.982962677686266711E-15, 0.000000000000000000 ) ) ;
#158 = ORIENTED_EDGE ( 'NONE', *, *, #310, .F. ) ;
#159 = AXIS2_PLACEMENT_3D ( 'NONE', #91, #320, #90 ) ;
#160 = APPROVAL_ROLE ( '' ) ;
#161 = ORIENTED_EDGE ( 'NONE', *, *, #17, .T. ) ;
#162 = DATE_AND_TIME ( #59, #29 ) ;
#163 = DIRECTION ( 'NONE',  ( -2.445468806185136877E-29, 3.491481338843145188E-15, 1.000000000000000000 ) ) ;
#164 = AXIS2_PLACEMENT_3D ( 'NONE', #322, #234, #36 ) ;
#165 = CIRCLE ( 'NONE', #102, 0.3937000000000000499 ) ;
#166 = SHAPE_DEFINITION_REPRESENTATION ( #61, #78 ) ;
#167 = CALENDAR_DATE ( 2024, 28, 2 ) ;
#168 = CARTESIAN_POINT ( 'NONE',  ( 6.354306145991459756E-29, -9.072265110850031044E-15, -2.598400000000000265 ) ) ;
#169 = PRODUCT_RELATED_PRODUCT_CATEGORY ( 'detail', '', ( #229 ) ) ;
#170 = EDGE_CURVE ( 'NONE', #331, #101, #144, .T. ) ;
#171 = DIRECTION ( 'NONE',  ( -2.445468806185136597E-29, 3.491481338843145583E-15, 1.000000000000000000 ) ) ;
#172 = FACE_OUTER_BOUND ( 'NONE', #138, .T. ) ;
#173 = ADVANCED_FACE ( 'NONE', ( #291 ), #116, .T. ) ;
#174 = DIRECTION ( 'NONE',  ( 1.000000000000000000, -6.982962677686265922E-15, 4.876176775795935793E-29 ) ) ;
#175 = CYLINDRICAL_SURFACE ( 'NONE', #130, 0.3937000000000000499 ) ;
#176 = CIRCLE ( 'NONE', #159, 0.3736999999999996436 ) ;
#177 = CARTESIAN_POINT ( 'NONE',  ( 6.354306145991459756E-29, -9.072265110850031044E-15, -2.598400000000000265 ) ) ;
#178 = CC_DESIGN_PERSON_AND_ORGANIZATION_ASSIGNMENT ( #255, #53, ( #229 ) ) ;
#179 = DIRECTION ( 'NONE',  ( 0.7071067811868130271, -2.468850131085038979E-15, 0.7071067811862817853 ) ) ;
#180 = ORIENTED_EDGE ( 'NONE', *, *, #321, .F. ) ;
#181 = CARTESIAN_POINT ( 'NONE',  ( 0.000000000000000000, 0.000000000000000000, 0.000000000000000000 ) ) ;
#182 = CONICAL_SURFACE ( 'NONE', #6, 0.3936999999999996613, 0.7853981633974473908 ) ;
#183 = ORIENTED_EDGE ( 'NONE', *, *, #314, .F. ) ;
#184 = CC_DESIGN_APPROVAL ( #68, ( #283 ) ) ;
#185 = VERTEX_POINT ( 'NONE', #206 ) ;
#186 =( LENGTH_UNIT ( ) NAMED_UNIT ( * ) SI_UNIT ( $, .METRE. ) );
#187 = ADVANCED_FACE ( 'NONE', ( #231 ), #142, .T. ) ;
#188 = CC_DESIGN_PERSON_AND_ORGANIZATION_ASSIGNMENT ( #286, #220, ( #351 ) ) ;
#189 = DIRECTION ( 'NONE',  ( 1.000000000000000000, -6.982962677686265133E-15, 0.000000000000000000 ) ) ;
#190 = ORIENTED_EDGE ( 'NONE', *, *, #305, .F. ) ;
#191 = AXIS2_PLACEMENT_3D ( 'NONE', #292, #37, #35 ) ;
#192 = APPROVAL_STATUS ( 'not_yet_approved' ) ;
#193 = APPROVAL ( #134, 'UNSPECIFIED' ) ;
#194 = CARTESIAN_POINT ( 'NONE',  ( 2.609533152651354648E-15, 0.3736999999999996436, -1.302632320080632041E-15 ) ) ;
#195 = APPROVAL_PERSON_ORGANIZATION ( #251, #193, #160 ) ;
#196 = CC_DESIGN_PERSON_AND_ORGANIZATION_ASSIGNMENT ( #139, #315, ( #351 ) ) ;
#197 = LINE ( 'NONE', #86, #113 ) ;
#198 = FACE_OUTER_BOUND ( 'NONE', #98, .T. ) ;
#199 = CIRCLE ( 'NONE', #43, 0.3937000000000000499 ) ;
#200 = CONICAL_SURFACE ( 'NONE', #191, 0.3936999999999996613, 0.7853981633974473908 ) ;
#201 = LINE ( 'NONE', #120, #96 ) ;
#202 = PRODUCT_DEFINITION ( 'UNKNOWN', '', #351, #241 ) ;
#203 = EDGE_CURVE ( 'NONE', #42, #245, #140, .T. ) ;
#204 = CARTESIAN_POINT ( 'NONE',  ( -0.3926999999999999935, -6.276665333171897231E-15, -2.598400000000000265 ) ) ;
#205 = DIRECTION ( 'NONE',  ( 1.000000000000000000, -6.982962677686265133E-15, 0.000000000000000000 ) ) ;
#206 = CARTESIAN_POINT ( 'NONE',  ( 0.3736999999999996436, -2.667287895133365992E-15, 4.268512490118863228E-18 ) ) ;
#207 = CARTESIAN_POINT ( 'NONE',  ( 1.001297202692504215E-28, -1.429587034189326149E-14, -4.094500000000000028 ) ) ;
#208 = ORIENTED_EDGE ( 'NONE', *, *, #203, .T. ) ;
#209 = CARTESIAN_POINT ( 'NONE',  ( 0.3926999999999999935, -1.181447455437742825E-14, -2.598400000000000265 ) ) ;
#210 = ORIENTED_EDGE ( 'NONE', *, *, #270, .F. ) ;
#211 = LENGTH_MEASURE_WITH_UNIT ( LENGTH_MEASURE( 0.02539999999999999897 ), #186 );
#212 = VECTOR ( 'NONE', #127, 39.37007874015748143 ) ;
#213 = ORIENTED_EDGE ( 'NONE', *, *, #326, .F. ) ;
#214 = ADVANCED_FACE ( 'NONE', ( #233 ), #24, .T. ) ;
#215 = CARTESIAN_POINT ( 'NONE',  ( 6.351860677185276395E-29, -9.068773629511191193E-15, -2.597400000000001263 ) ) ;
#216 = VERTEX_POINT ( 'NONE', #319 ) ;
#217 = ORIENTED_EDGE ( 'NONE', *, *, #354, .T. ) ;
#218 = PERSON_AND_ORGANIZATION ( #364, #318 ) ;
#219 = CC_DESIGN_APPROVAL ( #258, ( #202 ) ) ;
#220 = PERSON_AND_ORGANIZATION_ROLE ( 'creator' ) ;
#221 = ORIENTED_EDGE ( 'NONE', *, *, #11, .F. ) ;
#222 = DATE_AND_TIME ( #28, #52 ) ;
#223 = FACE_OUTER_BOUND ( 'NONE', #51, .T. ) ;
#224 = LINE ( 'NONE', #84, #95 ) ;
#225 = CIRCLE ( 'NONE', #261, 0.3936999999999996613 ) ;
#226 = EDGE_CURVE ( 'NONE', #185, #20, #176, .T. ) ;
#227 = COORDINATED_UNIVERSAL_TIME_OFFSET ( 5, 0, .BEHIND. ) ;
#228 = CARTESIAN_POINT ( 'NONE',  ( -0.3937000000000000499, -8.886660975684131482E-15, -2.598400000000000265 ) ) ;
#229 = PRODUCT ( '49684', '49684', '', ( #252 ) ) ;
#230 = DIRECTION ( 'NONE',  ( 1.000000000000000000, -6.982962677686265922E-15, 4.876176775795935793E-29 ) ) ;
#231 = FACE_OUTER_BOUND ( 'NONE', #358, .T. ) ;
#232 = DIRECTION ( 'NONE',  ( 2.445468806185136597E-29, -3.491481338843145583E-15, -1.000000000000000000 ) ) ;
#233 = FACE_OUTER_BOUND ( 'NONE', #55, .T. ) ;
#234 = DIRECTION ( 'NONE',  ( -2.445468806185136597E-29, 3.491481338843145583E-15, 1.000000000000000000 ) ) ;
#235 = ADVANCED_FACE ( 'NONE', ( #141 ), #182, .T. ) ;
#236 =( GEOMETRIC_REPRESENTATION_CONTEXT ( 3 ) GLOBAL_UNCERTAINTY_ASSIGNED_CONTEXT ( ( #147 ) ) GLOBAL_UNIT_ASSIGNED_CONTEXT ( ( #306, #50, #264 ) ) REPRESENTATION_CONTEXT ( 'NONE', 'WORKASPACE' ) );
#237 = DIRECTION ( 'NONE',  ( 1.000000000000000000, -6.982962677686267499E-15, 0.000000000000000000 ) ) ;
#238 = CARTESIAN_POINT ( 'NONE',  ( 6.351860677185276395E-29, -9.068773629511191193E-15, -2.597400000000001263 ) ) ;
#239 = ORIENTED_EDGE ( 'NONE', *, *, #34, .T. ) ;
#240 = CARTESIAN_POINT ( 'NONE',  ( 0.3936999999999998279, -2.749192406205082033E-15, 1.919750796630859051E-29 ) ) ;
#241 = DESIGN_CONTEXT ( 'detailed design', #109, 'design' ) ;
#242 = LINE ( 'NONE', #209, #44 ) ;
#243 = ORIENTED_EDGE ( 'NONE', *, *, #100, .T. ) ;
#244 = DIRECTION ( 'NONE',  ( 1.000000000000000000, -6.982962677686266711E-15, 4.876176775795935793E-29 ) ) ;
#245 = VERTEX_POINT ( 'NONE', #40 ) ;
#246 = ADVANCED_FACE ( 'NONE', ( #198 ), #65, .T. ) ;
#247 = PERSON_AND_ORGANIZATION ( #364, #318 ) ;
#248 = AXIS2_PLACEMENT_3D ( 'NONE', #194, #288, #253 ) ;
#249 = VECTOR ( 'NONE', #325, 39.37007874015748854 ) ;
#250 = APPROVAL_PERSON_ORGANIZATION ( #83, #68, #57 ) ;
#251 = PERSON_AND_ORGANIZATION ( #364, #318 ) ;
#252 = MECHANICAL_CONTEXT ( 'NONE', #149, 'mechanical' ) ;
#253 = DIRECTION ( 'NONE',  ( -1.000000000000000000, 6.982962677686265922E-15, -4.876176775795935793E-29 ) ) ;
#254 = ADVANCED_FACE ( 'NONE', ( #290 ), #200, .T. ) ;
#255 = PERSON_AND_ORGANIZATION ( #364, #318 ) ;
#256 = AXIS2_PLACEMENT_3D ( 'NONE', #349, #355, #145 ) ;
#257 = PLANE ( 'NONE',  #293 ) ;
#258 = APPROVAL ( #343, 'UNSPECIFIED' ) ;
#259 = DIRECTION ( 'NONE',  ( -1.000000000000000000, 6.982962677686266711E-15, 0.000000000000000000 ) ) ;
#260 = DIRECTION ( 'NONE',  ( 1.000000000000000000, -6.982962677686267499E-15, 0.000000000000000000 ) ) ;
#261 = AXIS2_PLACEMENT_3D ( 'NONE', #303, #332, #157 ) ;
#262 = CARTESIAN_POINT ( 'NONE',  ( 0.000000000000000000, 0.000000000000000000, 0.000000000000000000 ) ) ;
#263 = CARTESIAN_POINT ( 'NONE',  ( 2.749192406205146325E-15, 0.3936999999999909461, -2.598400000000002041 ) ) ;
#264 =( NAMED_UNIT ( * ) SI_UNIT ( $, .STERADIAN. ) SOLID_ANGLE_UNIT ( ) );
#265 = AXIS2_PLACEMENT_3D ( 'NONE', #10, #352, #143 ) ;
#266 = CARTESIAN_POINT ( 'NONE',  ( 0.000000000000000000, 0.000000000000000000, 0.000000000000000000 ) ) ;
#267 = DIMENSIONAL_EXPONENTS ( 1.000000000000000000, 0.000000000000000000, 0.000000000000000000, 0.000000000000000000, 0.000000000000000000, 0.000000000000000000, 0.000000000000000000 ) ;
#268 = ORIENTED_EDGE ( 'NONE', *, *, #226, .T. ) ;
#269 = LINE ( 'NONE', #357, #249 ) ;
#270 = EDGE_CURVE ( 'NONE', #185, #156, #201, .T. ) ;
#271 = ORIENTED_EDGE ( 'NONE', *, *, #48, .T. ) ;
#272 = CC_DESIGN_DATE_AND_TIME_ASSIGNMENT ( #4, #114, ( #283 ) ) ;
#273 = DIRECTION ( 'NONE',  ( -2.445468806185136877E-29, 3.491481338843145188E-15, 1.000000000000000000 ) ) ;
#274 = ORIENTED_EDGE ( 'NONE', *, *, #354, .F. ) ;
#275 = VECTOR ( 'NONE', #273, 39.37007874015748143 ) ;
#276 = ORIENTED_EDGE ( 'NONE', *, *, #203, .F. ) ;
#277 = VERTEX_POINT ( 'NONE', #9 ) ;
#278 = ADVANCED_FACE ( 'NONE', ( #172 ), #66, .F. ) ;
#279 = APPROVAL_DATE_TIME ( #162, #193 ) ;
#280 = ADVANCED_FACE ( 'NONE', ( #359 ), #124, .T. ) ;
#281 = SECURITY_CLASSIFICATION_LEVEL ( 'unclassified' ) ;
#282 = EDGE_LOOP ( 'NONE', ( #313, #239, #104, #180 ) ) ;
#283 = SECURITY_CLASSIFICATION ( '', '', #281 ) ;
#284 = DATE_TIME_ROLE ( 'creation_date' ) ;
#285 = EDGE_LOOP ( 'NONE', ( #243, #271 ) ) ;
#286 = PERSON_AND_ORGANIZATION ( #364, #318 ) ;
#287 = ORIENTED_EDGE ( 'NONE', *, *, #76, .T. ) ;
#288 = DIRECTION ( 'NONE',  ( 2.438088387897960049E-29, -3.491481338843145188E-15, -1.000000000000000000 ) ) ;
#289 = AXIS2_PLACEMENT_3D ( 'NONE', #62, #171, #174 ) ;
#290 = FACE_OUTER_BOUND ( 'NONE', #46, .T. ) ;
#291 = FACE_OUTER_BOUND ( 'NONE', #27, .T. ) ;
#292 = CARTESIAN_POINT ( 'NONE',  ( 4.890937612370296805E-31, -6.982962677686323656E-17, -0.02000000000000009409 ) ) ;
#293 = AXIS2_PLACEMENT_3D ( 'NONE', #263, #69, #8 ) ;
#294 = AXIS2_PLACEMENT_3D ( 'NONE', #215, #153, #103 ) ;
#295 = CARTESIAN_POINT ( 'NONE',  ( 6.354306145991459756E-29, -9.072265110850031044E-15, -2.598400000000000265 ) ) ;
#296 = EDGE_CURVE ( 'NONE', #72, #156, #225, .T. ) ;
#297 = DIRECTION ( 'NONE',  ( 1.000000000000000000, -6.982962677686265133E-15, 0.000000000000000000 ) ) ;
#298 = ORIENTED_EDGE ( 'NONE', *, *, #314, .T. ) ;
#299 = ADVANCED_FACE ( 'NONE', ( #80 ), #108, .T. ) ;
#300 = CARTESIAN_POINT ( 'NONE',  ( 6.354306145991459756E-29, -9.072265110850031044E-15, -2.598400000000000265 ) ) ;
#301 = MANIFOLD_SOLID_BREP ( 'Body-Move/Copy2[1]', #350 ) ;
#302 = ORIENTED_EDGE ( 'NONE', *, *, #11, .T. ) ;
#303 = CARTESIAN_POINT ( 'NONE',  ( 4.890937612370296805E-31, -6.982962677686323656E-17, -0.02000000000000009409 ) ) ;
#304 = ORIENTED_EDGE ( 'NONE', *, *, #76, .F. ) ;
#305 = EDGE_CURVE ( 'NONE', #331, #335, #242, .T. ) ;
#306 =( CONVERSION_BASED_UNIT ( 'INCH', #211 ) LENGTH_UNIT ( ) NAMED_UNIT ( #267 ) );
#307 = APPLICATION_PROTOCOL_DEFINITION ( 'international standard', 'config_control_design', 1994, #109 ) ;
#308 = AXIS2_PLACEMENT_3D ( 'NONE', #356, #92, #121 ) ;
#309 = ORIENTED_EDGE ( 'NONE', *, *, #48, .F. ) ;
#310 = EDGE_CURVE ( 'NONE', #245, #42, #323, .T. ) ;
#311 = APPROVAL_DATE_TIME ( #136, #258 ) ;
#312 = PERSON_AND_ORGANIZATION_ROLE ( 'creator' ) ;
#313 = ORIENTED_EDGE ( 'NONE', *, *, #310, .T. ) ;
#314 = EDGE_CURVE ( 'NONE', #156, #72, #75, .T. ) ;
#315 = PERSON_AND_ORGANIZATION_ROLE ( 'design_supplier' ) ;
#316 = DIRECTION ( 'NONE',  ( -2.445468806185136597E-29, 3.491481338843145583E-15, 1.000000000000000000 ) ) ;
#317 = DIRECTION ( 'NONE',  ( -2.445468806185136597E-29, 3.491481338843145583E-15, 1.000000000000000000 ) ) ;
#318 = ORGANIZATION ( 'UNSPECIFIED', 'UNSPECIFIED', '' ) ;
#319 = CARTESIAN_POINT ( 'NONE',  ( 0.3937000000000000499, -1.182145751705511584E-14, -2.598400000000000265 ) ) ;
#320 = DIRECTION ( 'NONE',  ( -2.445468806185136597E-29, 3.491481338843145583E-15, 1.000000000000000000 ) ) ;
#321 = EDGE_CURVE ( 'NONE', #245, #216, #47, .T. ) ;
#322 = CARTESIAN_POINT ( 'NONE',  ( 6.354306145991459756E-29, -9.072265110850031044E-15, -2.598400000000000265 ) ) ;
#323 = CIRCLE ( 'NONE', #146, 0.3937000000000000499 ) ;
#324 = CARTESIAN_POINT ( 'NONE',  ( 1.001297202692504215E-28, -1.429587034189326149E-14, -4.094500000000000028 ) ) ;
#325 = DIRECTION ( 'NONE',  ( -0.7071067811868130271, 7.493145998871311837E-15, 0.7071067811862817853 ) ) ;
#326 = EDGE_CURVE ( 'NONE', #335, #277, #165, .T. ) ;
#327 = ORIENTED_EDGE ( 'NONE', *, *, #170, .F. ) ;
#328 = DIRECTION ( 'NONE',  ( -2.445468806185136597E-29, 3.491481338843145583E-15, 1.000000000000000000 ) ) ;
#329 = ORIENTED_EDGE ( 'NONE', *, *, #321, .T. ) ;
#330 = LOCAL_TIME ( 20, 32, 31.00000000000000000, #336 ) ;
#331 = VERTEX_POINT ( 'NONE', #41 ) ;
#332 = DIRECTION ( 'NONE',  ( -2.445468806185136597E-29, 3.491481338843145583E-15, 1.000000000000000000 ) ) ;
#333 = EDGE_LOOP ( 'NONE', ( #49, #77, #298, #129 ) ) ;
#334 = DIRECTION ( 'NONE',  ( -2.438088387897960049E-29, 3.491481338843145188E-15, 1.000000000000000000 ) ) ;
#335 = VERTEX_POINT ( 'NONE', #19 ) ;
#336 = COORDINATED_UNIVERSAL_TIME_OFFSET ( 5, 0, .BEHIND. ) ;
#337 = AXIS2_PLACEMENT_3D ( 'NONE', #295, #334, #97 ) ;
#338 = CARTESIAN_POINT ( 'NONE',  ( -0.3936999999999996613, 2.679362779428217552E-15, -0.02000000000000009409 ) ) ;
#339 = CALENDAR_DATE ( 2024, 28, 2 ) ;
#340 = CARTESIAN_POINT ( 'NONE',  ( -0.3736999999999996436, 2.644447966039786297E-15, 4.268512490082039448E-18 ) ) ;
#341 = EDGE_CURVE ( 'NONE', #277, #335, #39, .T. ) ;
#342 = APPROVAL_DATE_TIME ( #222, #68 ) ;
#343 = APPROVAL_STATUS ( 'not_yet_approved' ) ;
#344 = DIRECTION ( 'NONE',  ( -2.445468806185136877E-29, 3.491481338843145188E-15, 1.000000000000000000 ) ) ;
#345 = AXIS2_PLACEMENT_3D ( 'NONE', #14, #13, #205 ) ;
#346 = AXIS2_PLACEMENT_3D ( 'NONE', #177, #119, #297 ) ;
#347 = CARTESIAN_POINT ( 'NONE',  ( -0.3936999999999996613, 2.679362779428217552E-15, -0.02000000000000009409 ) ) ;
#348 = DIRECTION ( 'NONE',  ( -2.445468806185136597E-29, 3.491481338843145583E-15, 1.000000000000000000 ) ) ;
#349 = CARTESIAN_POINT ( 'NONE',  ( 2.749192406205183007E-15, 0.3936999999999857280, -4.094500000000001805 ) ) ;
#350 = CLOSED_SHELL ( 'NONE', ( #137, #187, #112, #246 ) ) ;
#351 = PRODUCT_DEFINITION_FORMATION_WITH_SPECIFIED_SOURCE ( 'ANY', '', #229, .NOT_KNOWN. ) ;
#352 = DIRECTION ( 'NONE',  ( -2.445468806185136597E-29, 3.491481338843145583E-15, 1.000000000000000000 ) ) ;
#353 = CC_DESIGN_DATE_AND_TIME_ASSIGNMENT ( #56, #284, ( #202 ) ) ;
#354 = EDGE_CURVE ( 'NONE', #101, #277, #269, .T. ) ;
#355 = DIRECTION ( 'NONE',  ( 2.438088387897960049E-29, -3.491481338843145188E-15, -1.000000000000000000 ) ) ;
#356 = CARTESIAN_POINT ( 'NONE',  ( 0.000000000000000000, 0.000000000000000000, 0.000000000000000000 ) ) ;
#357 = CARTESIAN_POINT ( 'NONE',  ( -0.3926999999999999935, -6.281963787520118055E-15, -2.598400000000000265 ) ) ;
#358 = EDGE_LOOP ( 'NONE', ( #158, #276 ) ) ;
#359 = FACE_OUTER_BOUND ( 'NONE', #81, .T. ) ;
#360 = ORIENTED_EDGE ( 'NONE', *, *, #363, .T. ) ;
#361 = AXIS2_PLACEMENT_3D ( 'NONE', #71, #45, #122 ) ;
#362 = ORIENTED_EDGE ( 'NONE', *, *, #341, .F. ) ;
#363 = EDGE_CURVE ( 'NONE', #335, #156, #105, .T. ) ;
#364 = PERSON ( 'UNSPECIFIED', 'UNSPECIFIED', 'UNSPECIFIED', ('UNSPECIFIED'), ('UNSPECIFIED'), ('UNSPECIFIED') ) ;
#365 = EDGE_LOOP ( 'NONE', ( #274, #287, #26, #362 ) ) ;
#366 = VECTOR ( 'NONE', #82, 39.37007874015748143 ) ;
ENDSEC;
END-ISO-10303-21;
