ISO-10303-21;
HEADER;
FILE_DESCRIPTION (( 'STEP AP203' ),
    '1' );
FILE_NAME ('49838.STEP',
    '2024-02-29T01:53:43',
    ( '' ),
    ( '' ),
    'SwSTEP 2.0',
    'SolidWorks 2023',
    '' );
FILE_SCHEMA (( 'CONFIG_CONTROL_DESIGN' ));
ENDSEC;

DATA;
#1 =( CONVERSION_BASED_UNIT ( 'INCH', #52 ) LENGTH_UNIT ( ) NAMED_UNIT ( #188 ) );
#2 = ORIENTED_EDGE ( 'NONE', *, *, #337, .T. ) ;
#3 = DIRECTION ( 'NONE',  ( -2.445468806185136597E-29, 3.491481338843145583E-15, 1.000000000000000000 ) ) ;
#4 = EDGE_LOOP ( 'NONE', ( #58, #204, #87, #191 ) ) ;
#5 = DIRECTION ( 'NONE',  ( -1.000000000000000000, 6.982962677686265922E-15, -4.876176775795935793E-29 ) ) ;
#6 = FACE_OUTER_BOUND ( 'NONE', #13, .T. ) ;
#7 = AXIS2_PLACEMENT_3D ( 'NONE', #64, #246, #88 ) ;
#8 = CARTESIAN_POINT ( 'NONE',  ( -0.2755999999999997341, 1.854674887193470472E-15, -0.02000000000000006287 ) ) ;
#9 = FACE_OUTER_BOUND ( 'NONE', #120, .T. ) ;
#10 = VECTOR ( 'NONE', #249, 39.37007874015748143 ) ;
#11 = CARTESIAN_POINT ( 'NONE',  ( 5.873037884934225470E-29, -8.385141583365698841E-15, -2.401600000000000623 ) ) ;
#12 = EDGE_CURVE ( 'NONE', #320, #75, #257, .T. ) ;
#13 = EDGE_LOOP ( 'NONE', ( #343, #336, #70, #279 ) ) ;
#14 = SHAPE_DEFINITION_REPRESENTATION ( #107, #122 ) ;
#15 = DATE_AND_TIME ( #144, #363 ) ;
#16 = DIRECTION ( 'NONE',  ( 2.438088387897960049E-29, -3.491481338843145188E-15, -1.000000000000000000 ) ) ;
#17 = EDGE_CURVE ( 'NONE', #197, #341, #322, .T. ) ;
#18 = VERTEX_POINT ( 'NONE', #255 ) ;
#19 = VECTOR ( 'NONE', #24, 39.37007874015748143 ) ;
#20 = COORDINATED_UNIVERSAL_TIME_OFFSET ( 5, 0, .BEHIND. ) ;
#21 = CARTESIAN_POINT ( 'NONE',  ( 0.2746000000000000107, -1.030266313465834936E-14, -2.401600000000000623 ) ) ;
#22 = PERSON_AND_ORGANIZATION_ROLE ( 'creator' ) ;
#23 = EDGE_CURVE ( 'NONE', #197, #80, #179, .T. ) ;
#24 = DIRECTION ( 'NONE',  ( 0.7071067811865595631, -2.468850131082382884E-15, 0.7071067811865354713 ) ) ;
#25 = DIRECTION ( 'NONE',  ( 0.7071067811865467956, -7.319954787623254468E-15, -0.7071067811865482389 ) ) ;
#26 = CIRCLE ( 'NONE', #239, 0.2756000000000000116 ) ;
#27 = EDGE_LOOP ( 'NONE', ( #30, #2, #264, #230 ) ) ;
#28 = VERTEX_POINT ( 'NONE', #252 ) ;
#29 = DIRECTION ( 'NONE',  ( 1.000000000000000000, -6.982962677686267499E-15, 4.876176775795935793E-29 ) ) ;
#30 = ORIENTED_EDGE ( 'NONE', *, *, #312, .F. ) ;
#31 = PRODUCT_DEFINITION ( 'UNKNOWN', '', #94, #348 ) ;
#32 = ORIENTED_EDGE ( 'NONE', *, *, #354, .T. ) ;
#33 = LOCAL_TIME ( 20, 53, 43.00000000000000000, #137 ) ;
#34 = ADVANCED_FACE ( 'NONE', ( #6 ), #86, .T. ) ;
#35 = CARTESIAN_POINT ( 'NONE',  ( 0.2756000000000000116, -1.030964609733603537E-14, -2.401600000000000623 ) ) ;
#36 = CIRCLE ( 'NONE', #241, 0.2756000000000000116 ) ;
#37 = PLANE ( 'NONE',  #303 ) ;
#38 = APPROVAL ( #198, 'UNSPECIFIED' ) ;
#39 = APPLICATION_CONTEXT ( 'configuration controlled 3d designs of mechanical parts and assemblies' ) ;
#40 = CARTESIAN_POINT ( 'NONE',  ( -0.2755999999999999006, 1.958255779754835406E-15, -1.355658510874251446E-29 ) ) ;
#41 = DIRECTION ( 'NONE',  ( 1.000000000000000000, -6.982962677686264344E-15, 0.000000000000000000 ) ) ;
#42 = VECTOR ( 'NONE', #297, 39.37007874015748143 ) ;
#43 = APPLICATION_PROTOCOL_DEFINITION ( 'international standard', 'config_control_design', 1994, #238 ) ;
#44 = DIRECTION ( 'NONE',  ( -2.445468806185136597E-29, 3.491481338843145583E-15, 1.000000000000000000 ) ) ;
#45 = ORIENTED_EDGE ( 'NONE', *, *, #17, .F. ) ;
#46 = APPROVAL_DATE_TIME ( #219, #158 ) ;
#47 = PERSON_AND_ORGANIZATION ( #231, #150 ) ;
#48 = DIRECTION ( 'NONE',  ( -2.445468806185136597E-29, 3.491481338843145583E-15, 1.000000000000000000 ) ) ;
#49 = CARTESIAN_POINT ( 'NONE',  ( -0.2756000000000000116, 1.958255779754836195E-15, -1.355658510874252007E-29 ) ) ;
#50 = VECTOR ( 'NONE', #278, 39.37007874015748143 ) ;
#51 = COORDINATED_UNIVERSAL_TIME_OFFSET ( 5, 0, .BEHIND. ) ;
#52 = LENGTH_MEASURE_WITH_UNIT ( LENGTH_MEASURE( 0.02539999999999999897 ), #234 );
#53 = LOCAL_TIME ( 20, 53, 43.00000000000000000, #51 ) ;
#54 = DATE_TIME_ROLE ( 'creation_date' ) ;
#55 =( NAMED_UNIT ( * ) PLANE_ANGLE_UNIT ( ) SI_UNIT ( $, .RADIAN. ) );
#56 = ORIENTED_EDGE ( 'NONE', *, *, #321, .T. ) ;
#57 = FACE_OUTER_BOUND ( 'NONE', #151, .T. ) ;
#58 = ORIENTED_EDGE ( 'NONE', *, *, #321, .F. ) ;
#59 = EDGE_LOOP ( 'NONE', ( #244, #291 ) ) ;
#60 = CARTESIAN_POINT ( 'NONE',  ( -0.2746000000000000107, -6.428692776620241646E-15, -2.401600000000000623 ) ) ;
#61 = ADVANCED_FACE ( 'NONE', ( #347 ), #185, .T. ) ;
#62 = DIRECTION ( 'NONE',  ( 1.000000000000000000, -6.982962677686269866E-15, 0.000000000000000000 ) ) ;
#63 = EDGE_LOOP ( 'NONE', ( #205, #153, #284, #366 ) ) ;
#64 = CARTESIAN_POINT ( 'NONE',  ( 5.873037884934225470E-29, -8.385141583365698841E-15, -2.401600000000000623 ) ) ;
#65 = AXIS2_PLACEMENT_3D ( 'NONE', #311, #82, #339 ) ;
#66 = DIRECTION ( 'NONE',  ( -2.445468806185136597E-29, 3.491481338843145583E-15, 1.000000000000000000 ) ) ;
#67 = CARTESIAN_POINT ( 'NONE',  ( -0.2555999999999997163, 1.819760073805039218E-15, 4.268512490087807223E-18 ) ) ;
#68 = DATE_AND_TIME ( #330, #169 ) ;
#69 = CARTESIAN_POINT ( 'NONE',  ( 0.2756000000000000116, -1.333361808490808139E-14, -3.267700000000000049 ) ) ;
#70 = ORIENTED_EDGE ( 'NONE', *, *, #182, .F. ) ;
#71 = VECTOR ( 'NONE', #93, 39.37007874015748143 ) ;
#72 = FACE_OUTER_BOUND ( 'NONE', #164, .T. ) ;
#73 = PERSON_AND_ORGANIZATION ( #231, #150 ) ;
#74 = DIRECTION ( 'NONE',  ( 1.000000000000000000, -6.982962677686265922E-15, 0.000000000000000000 ) ) ;
#75 = VERTEX_POINT ( 'NONE', #102 ) ;
#76 = DATE_AND_TIME ( #334, #53 ) ;
#77 = LINE ( 'NONE', #309, #10 ) ;
#78 = PERSON_AND_ORGANIZATION ( #231, #150 ) ;
#79 = DIRECTION ( 'NONE',  ( -2.445468806185136597E-29, 3.491481338843145583E-15, 1.000000000000000000 ) ) ;
#80 = VERTEX_POINT ( 'NONE', #326 ) ;
#81 = CIRCLE ( 'NONE', #97, 0.2755999999999997341 ) ;
#82 = DIRECTION ( 'NONE',  ( -2.445468806185136597E-29, 3.491481338843145583E-15, 1.000000000000000000 ) ) ;
#83 = CIRCLE ( 'NONE', #295, 0.2755999999999997341 ) ;
#84 = MANIFOLD_SOLID_BREP ( 'Body-Move/Copy2[2]', #141 ) ;
#85 = DIRECTION ( 'NONE',  ( -2.445468806185136597E-29, 3.491481338843145583E-15, 1.000000000000000000 ) ) ;
#86 = CYLINDRICAL_SURFACE ( 'NONE', #331, 0.2756000000000000116 ) ;
#87 = ORIENTED_EDGE ( 'NONE', *, *, #293, .T. ) ;
#88 = DIRECTION ( 'NONE',  ( 1.000000000000000000, -6.982962677686265922E-15, 4.876176775795935793E-29 ) ) ;
#89 = ADVANCED_FACE ( 'NONE', ( #100 ), #128, .T. ) ;
#90 = DIRECTION ( 'NONE',  ( 1.000000000000000000, -6.982962677686269866E-15, 0.000000000000000000 ) ) ;
#91 = CC_DESIGN_DATE_AND_TIME_ASSIGNMENT ( #15, #54, ( #31 ) ) ;
#92 = CIRCLE ( 'NONE', #253, 0.2756000000000000671 ) ;
#93 = DIRECTION ( 'NONE',  ( -0.7071067811865467956, 2.468850131082249172E-15, -0.7071067811865482389 ) ) ;
#94 = PRODUCT_DEFINITION_FORMATION_WITH_SPECIFIED_SOURCE ( 'ANY', '', #285, .NOT_KNOWN. ) ;
#95 = CARTESIAN_POINT ( 'NONE',  ( 4.890937612370288923E-31, -6.982962677686312563E-17, -0.02000000000000006287 ) ) ;
#96 = ORIENTED_EDGE ( 'NONE', *, *, #258, .F. ) ;
#97 = AXIS2_PLACEMENT_3D ( 'NONE', #359, #306, #243 ) ;
#98 = CC_DESIGN_PERSON_AND_ORGANIZATION_ASSIGNMENT ( #305, #22, ( #31 ) ) ;
#99 = CYLINDRICAL_SURFACE ( 'NONE', #365, 0.2756000000000000116 ) ;
#100 = FACE_OUTER_BOUND ( 'NONE', #63, .T. ) ;
#101 = EDGE_CURVE ( 'NONE', #28, #121, #103, .T. ) ;
#102 = CARTESIAN_POINT ( 'NONE',  ( -0.2755999999999997341, 1.854674887193470472E-15, -0.02000000000000006287 ) ) ;
#103 = CIRCLE ( 'NONE', #268, 0.2756000000000000116 ) ;
#104 = CC_DESIGN_APPROVAL ( #260, ( #31 ) ) ;
#105 = LINE ( 'NONE', #215, #227 ) ;
#106 = DATE_TIME_ROLE ( 'classification_date' ) ;
#107 = PRODUCT_DEFINITION_SHAPE ( 'NONE', 'NONE',  #31 ) ;
#108 = ADVANCED_FACE ( 'NONE', ( #9 ), #99, .T. ) ;
#109 = CALENDAR_DATE ( 2024, 28, 2 ) ;
#110 = CARTESIAN_POINT ( 'NONE',  ( 7.991058417971171713E-29, -1.140911357093774644E-14, -3.267700000000000049 ) ) ;
#111 = APPROVAL_STATUS ( 'not_yet_approved' ) ;
#112 = DIRECTION ( 'NONE',  ( -2.445468806185136597E-29, 3.491481338843145583E-15, 1.000000000000000000 ) ) ;
#113 =( GEOMETRIC_REPRESENTATION_CONTEXT ( 3 ) GLOBAL_UNCERTAINTY_ASSIGNED_CONTEXT ( ( #184 ) ) GLOBAL_UNIT_ASSIGNED_CONTEXT ( ( #1, #55, #251 ) ) REPRESENTATION_CONTEXT ( 'NONE', 'WORKASPACE' ) );
#114 = ORIENTED_EDGE ( 'NONE', *, *, #265, .F. ) ;
#115 = COORDINATED_UNIVERSAL_TIME_OFFSET ( 5, 0, .BEHIND. ) ;
#116 = CARTESIAN_POINT ( 'NONE',  ( 5.870592416128039867E-29, -8.381650102026857411E-15, -2.400600000000000289 ) ) ;
#117 = CARTESIAN_POINT ( 'NONE',  ( 1.784845260416607569E-15, 0.2555999999999997163, -8.902883739632567265E-16 ) ) ;
#118 = DIRECTION ( 'NONE',  ( -2.445468806185136597E-29, 3.491481338843145583E-15, 1.000000000000000000 ) ) ;
#119 = CC_DESIGN_DATE_AND_TIME_ASSIGNMENT ( #357, #106, ( #136 ) ) ;
#120 = EDGE_LOOP ( 'NONE', ( #314, #237, #307, #228 ) ) ;
#121 = VERTEX_POINT ( 'NONE', #35 ) ;
#122 = ADVANCED_BREP_SHAPE_REPRESENTATION ( '49838', ( #329, #84, #263 ), #113 ) ;
#123 = CC_DESIGN_APPROVAL ( #38, ( #136 ) ) ;
#124 = DIRECTION ( 'NONE',  ( 1.000000000000000000, -6.982962677686267499E-15, 4.876176775795935793E-29 ) ) ;
#125 = ORIENTED_EDGE ( 'NONE', *, *, #265, .T. ) ;
#126 = EDGE_CURVE ( 'NONE', #80, #176, #209, .T. ) ;
#127 = ORIENTED_EDGE ( 'NONE', *, *, #126, .T. ) ;
#128 = CONICAL_SURFACE ( 'NONE', #325, 0.2755999999999997341, 0.7853981633974472798 ) ;
#129 = DIRECTION ( 'NONE',  ( -2.445468806185136597E-29, 3.491481338843145583E-15, 1.000000000000000000 ) ) ;
#130 = EDGE_LOOP ( 'NONE', ( #206, #208, #262, #193 ) ) ;
#131 = APPROVAL_PERSON_ORGANIZATION ( #73, #260, #275 ) ;
#132 = PRODUCT_RELATED_PRODUCT_CATEGORY ( 'detail', '', ( #285 ) ) ;
#133 = DIRECTION ( 'NONE',  ( 1.000000000000000000, -6.982962677686269866E-15, 0.000000000000000000 ) ) ;
#134 = AXIS2_PLACEMENT_3D ( 'NONE', #110, #332, #74 ) ;
#135 = ADVANCED_FACE ( 'NONE', ( #259 ), #213, .F. ) ;
#136 = SECURITY_CLASSIFICATION ( '', '', #338 ) ;
#137 = COORDINATED_UNIVERSAL_TIME_OFFSET ( 5, 0, .BEHIND. ) ;
#138 = DIRECTION ( 'NONE',  ( 1.000000000000000000, -6.982962677686264344E-15, 0.000000000000000000 ) ) ;
#139 = DIRECTION ( 'NONE',  ( 1.000000000000000000, 0.000000000000000000, 0.000000000000000000 ) ) ;
#140 = DIRECTION ( 'NONE',  ( -1.000000000000000000, 6.982962677686265922E-15, -4.876176775795935793E-29 ) ) ;
#141 = CLOSED_SHELL ( 'NONE', ( #298, #328, #61, #89, #362, #301, #147, #135 ) ) ;
#142 = PERSON_AND_ORGANIZATION_ROLE ( 'design_supplier' ) ;
#143 = DIRECTION ( 'NONE',  ( 1.000000000000000000, -6.982962677686267499E-15, 4.876201967404967742E-29 ) ) ;
#144 = CALENDAR_DATE ( 2024, 28, 2 ) ;
#145 = ORIENTED_EDGE ( 'NONE', *, *, #12, .F. ) ;
#146 = DIRECTION ( 'NONE',  ( 1.000000000000000000, -6.982962677686267499E-15, 0.000000000000000000 ) ) ;
#147 = ADVANCED_FACE ( 'NONE', ( #72 ), #316, .F. ) ;
#148 = ORIENTED_EDGE ( 'NONE', *, *, #337, .F. ) ;
#149 = CC_DESIGN_PERSON_AND_ORGANIZATION_ASSIGNMENT ( #47, #142, ( #94 ) ) ;
#150 = ORGANIZATION ( 'UNSPECIFIED', 'UNSPECIFIED', '' ) ;
#151 = EDGE_LOOP ( 'NONE', ( #345, #96 ) ) ;
#152 = CARTESIAN_POINT ( 'NONE',  ( 0.000000000000000000, 0.000000000000000000, 0.000000000000000000 ) ) ;
#153 = ORIENTED_EDGE ( 'NONE', *, *, #354, .F. ) ;
#154 = EDGE_LOOP ( 'NONE', ( #32, #125 ) ) ;
#155 = CIRCLE ( 'NONE', #235, 0.2746000000000000107 ) ;
#156 = LINE ( 'NONE', #49, #42 ) ;
#157 = EDGE_CURVE ( 'NONE', #224, #28, #156, .T. ) ;
#158 = APPROVAL ( #111, 'UNSPECIFIED' ) ;
#159 = CC_DESIGN_APPROVAL ( #158, ( #94 ) ) ;
#160 = CARTESIAN_POINT ( 'NONE',  ( -0.2756000000000000116, -7.938871797396886840E-15, -3.267700000000000049 ) ) ;
#161 = CARTESIAN_POINT ( 'NONE',  ( 0.000000000000000000, 0.000000000000000000, 0.000000000000000000 ) ) ;
#162 = DIRECTION ( 'NONE',  ( -2.445468806185136877E-29, 3.491481338843145188E-15, 1.000000000000000000 ) ) ;
#163 = AXIS2_PLACEMENT_3D ( 'NONE', #95, #174, #186 ) ;
#164 = EDGE_LOOP ( 'NONE', ( #45, #148 ) ) ;
#165 = PERSON_AND_ORGANIZATION_ROLE ( 'creator' ) ;
#166 = DIRECTION ( 'NONE',  ( -2.445468806185136597E-29, 3.491481338843145583E-15, 1.000000000000000000 ) ) ;
#167 = EDGE_CURVE ( 'NONE', #181, #121, #335, .T. ) ;
#168 = AXIS2_PLACEMENT_3D ( 'NONE', #117, #266, #183 ) ;
#169 = LOCAL_TIME ( 20, 53, 43.00000000000000000, #310 ) ;
#170 = PERSON_AND_ORGANIZATION ( #231, #150 ) ;
#171 = DIRECTION ( 'NONE',  ( -2.445468806185136597E-29, 3.491481338843145583E-15, 1.000000000000000000 ) ) ;
#172 = CARTESIAN_POINT ( 'NONE',  ( 5.873037884934225470E-29, -8.385141583365698841E-15, -2.401600000000000623 ) ) ;
#173 = CC_DESIGN_PERSON_AND_ORGANIZATION_ASSIGNMENT ( #302, #273, ( #136 ) ) ;
#174 = DIRECTION ( 'NONE',  ( 2.445468806185136597E-29, -3.491481338843145583E-15, -1.000000000000000000 ) ) ;
#175 = CYLINDRICAL_SURFACE ( 'NONE', #177, 0.2755999999999999006 ) ;
#176 = VERTEX_POINT ( 'NONE', #274 ) ;
#177 = AXIS2_PLACEMENT_3D ( 'NONE', #203, #3, #124 ) ;
#178 = CARTESIAN_POINT ( 'NONE',  ( 4.890937612370288923E-31, -6.982962677686312563E-17, -0.02000000000000006287 ) ) ;
#179 = LINE ( 'NONE', #207, #19 ) ;
#180 = DIRECTION ( 'NONE',  ( 1.000000000000000000, -6.982962677686267499E-15, 4.876176775795935793E-29 ) ) ;
#181 = VERTEX_POINT ( 'NONE', #69 ) ;
#182 = EDGE_CURVE ( 'NONE', #121, #28, #36, .T. ) ;
#183 = DIRECTION ( 'NONE',  ( -1.000000000000000000, 6.982962677686265922E-15, -4.876176775795935793E-29 ) ) ;
#184 = UNCERTAINTY_MEASURE_WITH_UNIT (LENGTH_MEASURE( 1.000000000000000082E-05 ), #1, 'distance_accuracy_value', 'NONE');
#185 = CONICAL_SURFACE ( 'NONE', #163, 0.2755999999999997341, 0.7853981633974472798 ) ;
#186 = DIRECTION ( 'NONE',  ( -1.000000000000000000, 6.982962677686267499E-15, 0.000000000000000000 ) ) ;
#187 = LINE ( 'NONE', #40, #269 ) ;
#188 = DIMENSIONAL_EXPONENTS ( 1.000000000000000000, 0.000000000000000000, 0.000000000000000000, 0.000000000000000000, 0.000000000000000000, 0.000000000000000000, 0.000000000000000000 ) ;
#189 = APPROVAL_DATE_TIME ( #68, #38 ) ;
#190 = AXIS2_PLACEMENT_3D ( 'NONE', #192, #166, #143 ) ;
#191 = ORIENTED_EDGE ( 'NONE', *, *, #342, .F. ) ;
#192 = CARTESIAN_POINT ( 'NONE',  ( -1.043851414335219820E-46, 1.490343170380447200E-32, 4.268512490100411279E-18 ) ) ;
#193 = ORIENTED_EDGE ( 'NONE', *, *, #23, .F. ) ;
#194 = CC_DESIGN_PERSON_AND_ORGANIZATION_ASSIGNMENT ( #277, #221, ( #285 ) ) ;
#195 = FACE_OUTER_BOUND ( 'NONE', #59, .T. ) ;
#196 = CC_DESIGN_PERSON_AND_ORGANIZATION_ASSIGNMENT ( #308, #165, ( #94 ) ) ;
#197 = VERTEX_POINT ( 'NONE', #21 ) ;
#198 = APPROVAL_STATUS ( 'not_yet_approved' ) ;
#199 = DIRECTION ( 'NONE',  ( 1.000000000000000000, -6.982962677686269866E-15, 0.000000000000000000 ) ) ;
#200 = APPROVAL_STATUS ( 'not_yet_approved' ) ;
#201 = CC_DESIGN_SECURITY_CLASSIFICATION ( #136, ( #94 ) ) ;
#202 = EDGE_CURVE ( 'NONE', #176, #80, #92, .T. ) ;
#203 = CARTESIAN_POINT ( 'NONE',  ( 0.000000000000000000, 0.000000000000000000, 0.000000000000000000 ) ) ;
#204 = ORIENTED_EDGE ( 'NONE', *, *, #202, .T. ) ;
#205 = ORIENTED_EDGE ( 'NONE', *, *, #324, .F. ) ;
#206 = ORIENTED_EDGE ( 'NONE', *, *, #17, .T. ) ;
#207 = CARTESIAN_POINT ( 'NONE',  ( 0.2746000000000000107, -1.030266313465834936E-14, -2.401600000000000623 ) ) ;
#208 = ORIENTED_EDGE ( 'NONE', *, *, #312, .T. ) ;
#209 = CIRCLE ( 'NONE', #318, 0.2756000000000000671 ) ;
#210 = VECTOR ( 'NONE', #25, 39.37007874015748143 ) ;
#211 = DIRECTION ( 'NONE',  ( -1.000000000000000000, 6.982962677686267499E-15, 0.000000000000000000 ) ) ;
#212 = CARTESIAN_POINT ( 'NONE',  ( 4.890937612370288923E-31, -6.982962677686312563E-17, -0.02000000000000006287 ) ) ;
#213 = PLANE ( 'NONE',  #168 ) ;
#214 = AXIS2_PLACEMENT_3D ( 'NONE', #225, #226, #5 ) ;
#215 = CARTESIAN_POINT ( 'NONE',  ( -0.2746000000000000107, -6.433991230968464837E-15, -2.401600000000000623 ) ) ;
#216 = APPROVAL_ROLE ( '' ) ;
#217 = CARTESIAN_POINT ( 'NONE',  ( 1.924504513970393724E-15, 0.2755999999999916295, -2.401600000000001511 ) ) ;
#218 = CARTESIAN_POINT ( 'NONE',  ( 5.870592416128039867E-29, -8.381650102026857411E-15, -2.400600000000000289 ) ) ;
#219 = DATE_AND_TIME ( #109, #313 ) ;
#220 = EDGE_CURVE ( 'NONE', #18, #75, #81, .T. ) ;
#221 = PERSON_AND_ORGANIZATION_ROLE ( 'design_owner' ) ;
#222 = CARTESIAN_POINT ( 'NONE',  ( 0.2555999999999997163, -1.857063081596548453E-15, 4.268512490113146298E-18 ) ) ;
#223 = CARTESIAN_POINT ( 'NONE',  ( 5.873037884934225470E-29, -8.385141583365698841E-15, -2.401600000000000623 ) ) ;
#224 = VERTEX_POINT ( 'NONE', #160 ) ;
#225 = CARTESIAN_POINT ( 'NONE',  ( 1.924504513970415023E-15, 0.2755999999999886318, -3.267700000000001381 ) ) ;
#226 = DIRECTION ( 'NONE',  ( 2.438088387897960049E-29, -3.491481338843145188E-15, -1.000000000000000000 ) ) ;
#227 = VECTOR ( 'NONE', #327, 39.37007874015748143 ) ;
#228 = ORIENTED_EDGE ( 'NONE', *, *, #101, .F. ) ;
#229 = CYLINDRICAL_SURFACE ( 'NONE', #356, 0.2755999999999999006 ) ;
#230 = ORIENTED_EDGE ( 'NONE', *, *, #202, .F. ) ;
#231 = PERSON ( 'UNSPECIFIED', 'UNSPECIFIED', 'UNSPECIFIED', ('UNSPECIFIED'), ('UNSPECIFIED'), ('UNSPECIFIED') ) ;
#232 = ORIENTED_EDGE ( 'NONE', *, *, #220, .F. ) ;
#233 = ADVANCED_FACE ( 'NONE', ( #195 ), #37, .F. ) ;
#234 =( LENGTH_UNIT ( ) NAMED_UNIT ( * ) SI_UNIT ( $, .METRE. ) );
#235 = AXIS2_PLACEMENT_3D ( 'NONE', #344, #118, #90 ) ;
#236 = DIRECTION ( 'NONE',  ( 1.000000000000000000, -6.982962677686267499E-15, 4.876176775795935793E-29 ) ) ;
#237 = ORIENTED_EDGE ( 'NONE', *, *, #258, .T. ) ;
#238 = APPLICATION_CONTEXT ( 'configuration controlled 3d designs of mechanical parts and assemblies' ) ;
#239 = AXIS2_PLACEMENT_3D ( 'NONE', #361, #112, #240 ) ;
#240 = DIRECTION ( 'NONE',  ( 1.000000000000000000, -6.982962677686265922E-15, 0.000000000000000000 ) ) ;
#241 = AXIS2_PLACEMENT_3D ( 'NONE', #276, #44, #245 ) ;
#242 = CALENDAR_DATE ( 2024, 28, 2 ) ;
#243 = DIRECTION ( 'NONE',  ( 1.000000000000000000, -6.982962677686267499E-15, 0.000000000000000000 ) ) ;
#244 = ORIENTED_EDGE ( 'NONE', *, *, #182, .T. ) ;
#245 = DIRECTION ( 'NONE',  ( 1.000000000000000000, -6.982962677686265922E-15, 0.000000000000000000 ) ) ;
#246 = DIRECTION ( 'NONE',  ( -2.438088387897960049E-29, 3.491481338843145188E-15, 1.000000000000000000 ) ) ;
#247 = MECHANICAL_CONTEXT ( 'NONE', #39, 'mechanical' ) ;
#248 = AXIS2_PLACEMENT_3D ( 'NONE', #223, #79, #199 ) ;
#249 = DIRECTION ( 'NONE',  ( -2.445468806185136877E-29, 3.491481338843145188E-15, 1.000000000000000000 ) ) ;
#250 = APPROVAL_DATE_TIME ( #76, #260 ) ;
#251 =( NAMED_UNIT ( * ) SI_UNIT ( $, .STERADIAN. ) SOLID_ANGLE_UNIT ( ) );
#252 = CARTESIAN_POINT ( 'NONE',  ( -0.2756000000000000116, -7.938871797396886840E-15, -2.401600000000000623 ) ) ;
#253 = AXIS2_PLACEMENT_3D ( 'NONE', #116, #48, #138 ) ;
#254 = FACE_OUTER_BOUND ( 'NONE', #4, .T. ) ;
#255 = CARTESIAN_POINT ( 'NONE',  ( 0.2755999999999997341, -1.960582874962695433E-15, -0.02000000000000006287 ) ) ;
#256 = FACE_OUTER_BOUND ( 'NONE', #349, .T. ) ;
#257 = LINE ( 'NONE', #8, #71 ) ;
#258 = EDGE_CURVE ( 'NONE', #224, #181, #294, .T. ) ;
#259 = FACE_OUTER_BOUND ( 'NONE', #154, .T. ) ;
#260 = APPROVAL ( #200, 'UNSPECIFIED' ) ;
#261 = CARTESIAN_POINT ( 'NONE',  ( 0.2755999999999997341, -1.960582874962695433E-15, -0.02000000000000006287 ) ) ;
#262 = ORIENTED_EDGE ( 'NONE', *, *, #126, .F. ) ;
#263 = AXIS2_PLACEMENT_3D ( 'NONE', #358, #364, #139 ) ;
#264 = ORIENTED_EDGE ( 'NONE', *, *, #23, .T. ) ;
#265 = EDGE_CURVE ( 'NONE', #289, #320, #351, .T. ) ;
#266 = DIRECTION ( 'NONE',  ( 2.438088387897960049E-29, -3.491481338843145188E-15, -1.000000000000000000 ) ) ;
#267 = CARTESIAN_POINT ( 'NONE',  ( 5.873037884934225470E-29, -8.385141583365698841E-15, -2.401600000000000623 ) ) ;
#268 = AXIS2_PLACEMENT_3D ( 'NONE', #267, #66, #350 ) ;
#269 = VECTOR ( 'NONE', #162, 39.37007874015748143 ) ;
#270 = FACE_OUTER_BOUND ( 'NONE', #27, .T. ) ;
#271 = CARTESIAN_POINT ( 'NONE',  ( 0.2756000000000000116, -1.924504513970335348E-15, 1.343874319409359987E-29 ) ) ;
#272 = APPROVAL_PERSON_ORGANIZATION ( #170, #158, #360 ) ;
#273 = PERSON_AND_ORGANIZATION_ROLE ( 'classification_officer' ) ;
#274 = CARTESIAN_POINT ( 'NONE',  ( -0.2756000000000000671, -2.267484084647020610E-15, -2.400600000000000289 ) ) ;
#275 = APPROVAL_ROLE ( '' ) ;
#276 = CARTESIAN_POINT ( 'NONE',  ( 5.873037884934225470E-29, -8.385141583365698841E-15, -2.401600000000000623 ) ) ;
#277 = PERSON_AND_ORGANIZATION ( #231, #150 ) ;
#278 = DIRECTION ( 'NONE',  ( -2.445468806185136877E-29, 3.491481338843145188E-15, 1.000000000000000000 ) ) ;
#279 = ORIENTED_EDGE ( 'NONE', *, *, #167, .F. ) ;
#280 = CONICAL_SURFACE ( 'NONE', #340, 0.2746000000000000107, 0.7853981633974653764 ) ;
#281 = APPLICATION_PROTOCOL_DEFINITION ( 'international standard', 'config_control_design', 1994, #39 ) ;
#282 = DIRECTION ( 'NONE',  ( -2.445468806185136597E-29, 3.491481338843145583E-15, 1.000000000000000000 ) ) ;
#283 = DIRECTION ( 'NONE',  ( -2.445468806185136597E-29, 3.491481338843145583E-15, 1.000000000000000000 ) ) ;
#284 = ORIENTED_EDGE ( 'NONE', *, *, #12, .T. ) ;
#285 = PRODUCT ( '49838', '49838', '', ( #247 ) ) ;
#286 = LINE ( 'NONE', #261, #210 ) ;
#287 = EDGE_CURVE ( 'NONE', #181, #224, #26, .T. ) ;
#288 = CIRCLE ( 'NONE', #65, 0.2555999999999997163 ) ;
#289 = VERTEX_POINT ( 'NONE', #222 ) ;
#290 = PLANE ( 'NONE',  #214 ) ;
#291 = ORIENTED_EDGE ( 'NONE', *, *, #101, .T. ) ;
#292 = ORIENTED_EDGE ( 'NONE', *, *, #324, .T. ) ;
#293 = EDGE_CURVE ( 'NONE', #80, #18, #77, .T. ) ;
#294 = CIRCLE ( 'NONE', #134, 0.2756000000000000116 ) ;
#295 = AXIS2_PLACEMENT_3D ( 'NONE', #178, #171, #146 ) ;
#296 = DIRECTION ( 'NONE',  ( 2.445468806185136597E-29, -3.491481338843145583E-15, -1.000000000000000000 ) ) ;
#297 = DIRECTION ( 'NONE',  ( -2.445468806185136877E-29, 3.491481338843145188E-15, 1.000000000000000000 ) ) ;
#298 = ADVANCED_FACE ( 'NONE', ( #300 ), #333, .T. ) ;
#299 = DIRECTION ( 'NONE',  ( -2.445468806185136597E-29, 3.491481338843145583E-15, 1.000000000000000000 ) ) ;
#300 = FACE_OUTER_BOUND ( 'NONE', #130, .T. ) ;
#301 = ADVANCED_FACE ( 'NONE', ( #270 ), #280, .T. ) ;
#302 = PERSON_AND_ORGANIZATION ( #231, #150 ) ;
#303 = AXIS2_PLACEMENT_3D ( 'NONE', #217, #16, #140 ) ;
#304 = ORIENTED_EDGE ( 'NONE', *, *, #220, .T. ) ;
#305 = PERSON_AND_ORGANIZATION ( #231, #150 ) ;
#306 = DIRECTION ( 'NONE',  ( -2.445468806185136597E-29, 3.491481338843145583E-15, 1.000000000000000000 ) ) ;
#307 = ORIENTED_EDGE ( 'NONE', *, *, #167, .T. ) ;
#308 = PERSON_AND_ORGANIZATION ( #231, #150 ) ;
#309 = CARTESIAN_POINT ( 'NONE',  ( 0.2755999999999999006, -1.924504513970334560E-15, 1.343874319409359427E-29 ) ) ;
#310 = COORDINATED_UNIVERSAL_TIME_OFFSET ( 5, 0, .BEHIND. ) ;
#311 = CARTESIAN_POINT ( 'NONE',  ( -1.043851414335219820E-46, 1.490343170380447200E-32, 4.268512490100411279E-18 ) ) ;
#312 = EDGE_CURVE ( 'NONE', #341, #176, #105, .T. ) ;
#313 = LOCAL_TIME ( 20, 53, 43.00000000000000000, #115 ) ;
#314 = ORIENTED_EDGE ( 'NONE', *, *, #157, .F. ) ;
#315 = CARTESIAN_POINT ( 'NONE',  ( 0.000000000000000000, 0.000000000000000000, 0.000000000000000000 ) ) ;
#316 = PLANE ( 'NONE',  #7 ) ;
#317 = ORIENTED_EDGE ( 'NONE', *, *, #293, .F. ) ;
#318 = AXIS2_PLACEMENT_3D ( 'NONE', #218, #299, #41 ) ;
#319 = EDGE_LOOP ( 'NONE', ( #114, #292, #304, #145 ) ) ;
#320 = VERTEX_POINT ( 'NONE', #67 ) ;
#321 = EDGE_CURVE ( 'NONE', #176, #75, #187, .T. ) ;
#322 = CIRCLE ( 'NONE', #346, 0.2746000000000000107 ) ;
#323 = APPROVAL_PERSON_ORGANIZATION ( #78, #38, #216 ) ;
#324 = EDGE_CURVE ( 'NONE', #289, #18, #286, .T. ) ;
#325 = AXIS2_PLACEMENT_3D ( 'NONE', #212, #296, #211 ) ;
#326 = CARTESIAN_POINT ( 'NONE',  ( 0.2756000000000000671, -1.030615461599719237E-14, -2.400600000000000289 ) ) ;
#327 = DIRECTION ( 'NONE',  ( -0.7071067811865595631, 7.493145998870398336E-15, 0.7071067811865354713 ) ) ;
#328 = ADVANCED_FACE ( 'NONE', ( #256 ), #175, .T. ) ;
#329 = MANIFOLD_SOLID_BREP ( 'Body-Move/Copy2[1]', #353 ) ;
#330 = CALENDAR_DATE ( 2024, 28, 2 ) ;
#331 = AXIS2_PLACEMENT_3D ( 'NONE', #315, #129, #236 ) ;
#332 = DIRECTION ( 'NONE',  ( -2.445468806185136597E-29, 3.491481338843145583E-15, 1.000000000000000000 ) ) ;
#333 = CONICAL_SURFACE ( 'NONE', #248, 0.2746000000000000107, 0.7853981633974653764 ) ;
#334 = CALENDAR_DATE ( 2024, 28, 2 ) ;
#335 = LINE ( 'NONE', #271, #50 ) ;
#336 = ORIENTED_EDGE ( 'NONE', *, *, #157, .T. ) ;
#337 = EDGE_CURVE ( 'NONE', #341, #197, #155, .T. ) ;
#338 = SECURITY_CLASSIFICATION_LEVEL ( 'unclassified' ) ;
#339 = DIRECTION ( 'NONE',  ( 1.000000000000000000, -6.982962677686267499E-15, 4.876201967404967742E-29 ) ) ;
#340 = AXIS2_PLACEMENT_3D ( 'NONE', #11, #355, #133 ) ;
#341 = VERTEX_POINT ( 'NONE', #60 ) ;
#342 = EDGE_CURVE ( 'NONE', #75, #18, #83, .T. ) ;
#343 = ORIENTED_EDGE ( 'NONE', *, *, #287, .T. ) ;
#344 = CARTESIAN_POINT ( 'NONE',  ( 5.873037884934225470E-29, -8.385141583365698841E-15, -2.401600000000000623 ) ) ;
#345 = ORIENTED_EDGE ( 'NONE', *, *, #287, .F. ) ;
#346 = AXIS2_PLACEMENT_3D ( 'NONE', #172, #283, #62 ) ;
#347 = FACE_OUTER_BOUND ( 'NONE', #319, .T. ) ;
#348 = DESIGN_CONTEXT ( 'detailed design', #238, 'design' ) ;
#349 = EDGE_LOOP ( 'NONE', ( #127, #56, #232, #317 ) ) ;
#350 = DIRECTION ( 'NONE',  ( 1.000000000000000000, -6.982962677686265922E-15, 0.000000000000000000 ) ) ;
#351 = CIRCLE ( 'NONE', #190, 0.2555999999999997163 ) ;
#352 = ADVANCED_FACE ( 'NONE', ( #57 ), #290, .T. ) ;
#353 = CLOSED_SHELL ( 'NONE', ( #34, #352, #233, #108 ) ) ;
#354 = EDGE_CURVE ( 'NONE', #320, #289, #288, .T. ) ;
#355 = DIRECTION ( 'NONE',  ( -2.445468806185136597E-29, 3.491481338843145583E-15, 1.000000000000000000 ) ) ;
#356 = AXIS2_PLACEMENT_3D ( 'NONE', #152, #85, #29 ) ;
#357 = DATE_AND_TIME ( #242, #33 ) ;
#358 = CARTESIAN_POINT ( 'NONE',  ( 0.000000000000000000, 0.000000000000000000, 0.000000000000000000 ) ) ;
#359 = CARTESIAN_POINT ( 'NONE',  ( 4.890937612370288923E-31, -6.982962677686312563E-17, -0.02000000000000006287 ) ) ;
#360 = APPROVAL_ROLE ( '' ) ;
#361 = CARTESIAN_POINT ( 'NONE',  ( 7.991058417971171713E-29, -1.140911357093774644E-14, -3.267700000000000049 ) ) ;
#362 = ADVANCED_FACE ( 'NONE', ( #254 ), #229, .T. ) ;
#363 = LOCAL_TIME ( 20, 53, 43.00000000000000000, #20 ) ;
#364 = DIRECTION ( 'NONE',  ( 0.000000000000000000, 0.000000000000000000, 1.000000000000000000 ) ) ;
#365 = AXIS2_PLACEMENT_3D ( 'NONE', #161, #282, #180 ) ;
#366 = ORIENTED_EDGE ( 'NONE', *, *, #342, .T. ) ;
ENDSEC;
END-ISO-10303-21;
