ISO-10303-21;
HEADER;
FILE_DESCRIPTION (( 'STEP AP203' ),
    '1' );
FILE_NAME ('51107.STEP',
    '2024-04-22T18:27:31',
    ( '' ),
    ( '' ),
    'SwSTEP 2.0',
    'SolidWorks 2023',
    '' );
FILE_SCHEMA (( 'CONFIG_CONTROL_DESIGN' ));
ENDSEC;

DATA;
#1 = EDGE_CURVE ( 'NONE', #86, #254, #110, .T. ) ;
#2 = PRODUCT_DEFINITION_FORMATION_WITH_SPECIFIED_SOURCE ( 'ANY', '', #39, .NOT_KNOWN. ) ;
#3 = DIRECTION ( 'NONE',  ( -2.445496141887576326E-29, 3.491442192561400387E-15, 1.000000000000000000 ) ) ;
#4 = DIRECTION ( 'NONE',  ( -2.445468806185136597E-29, 3.491481338843145583E-15, 1.000000000000000000 ) ) ;
#5 = SHAPE_DEFINITION_REPRESENTATION ( #76, #20 ) ;
#6 = CYLINDRICAL_SURFACE ( 'NONE', #333, 0.05470000000000006801 ) ;
#7 = APPLICATION_CONTEXT ( 'configuration controlled 3d designs of mechanical parts and assemblies' ) ;
#8 = EDGE_CURVE ( 'NONE', #99, #123, #98, .T. ) ;
#9 = APPROVAL_DATE_TIME ( #64, #38 ) ;
#10 = APPLICATION_PROTOCOL_DEFINITION ( 'international standard', 'config_control_design', 1994, #7 ) ;
#11 = PLANE ( 'NONE',  #122 ) ;
#12 = VECTOR ( 'NONE', #125, 39.37007874015748143 ) ;
#13 = APPROVAL_PERSON_ORGANIZATION ( #154, #38, #275 ) ;
#14 = LINE ( 'NONE', #352, #320 ) ;
#15 = DIRECTION ( 'NONE',  ( 1.000000000000000000, -6.982962677686265922E-15, 4.876176775795935793E-29 ) ) ;
#16 = APPROVAL_DATE_TIME ( #117, #245 ) ;
#17 = EDGE_CURVE ( 'NONE', #54, #220, #29, .T. ) ;
#18 = DIRECTION ( 'NONE',  ( 1.000000000000000000, -6.982962677686269866E-15, 0.000000000000000000 ) ) ;
#19 = ORIENTED_EDGE ( 'NONE', *, *, #237, .T. ) ;
#20 = ADVANCED_BREP_SHAPE_REPRESENTATION ( '51107', ( #56, #180, #354 ), #215 ) ;
#21 = CARTESIAN_POINT ( 'NONE',  ( -0.05470000000000006801, 3.886668764607752849E-16, -2.690657494369436511E-30 ) ) ;
#22 = CIRCLE ( 'NONE', #241, 0.02344999999999999862 ) ;
#23 = ORIENTED_EDGE ( 'NONE', *, *, #370, .T. ) ;
#24 = CARTESIAN_POINT ( 'NONE',  ( 2.713003093581790328E-29, -3.873449397312585157E-15, -1.109399999999999942 ) ) ;
#25 = CARTESIAN_POINT ( 'NONE',  ( 2.711780359178697526E-29, -3.871703656643163654E-15, -1.108899999999999775 ) ) ;
#26 = ORIENTED_EDGE ( 'NONE', *, *, #366, .T. ) ;
#27 = CLOSED_SHELL ( 'NONE', ( #141, #213, #304, #258, #268, #186, #335, #152 ) ) ;
#28 = CIRCLE ( 'NONE', #362, 0.05470000000000000556 ) ;
#29 = LINE ( 'NONE', #151, #12 ) ;
#30 = UNCERTAINTY_MEASURE_WITH_UNIT (LENGTH_MEASURE( 1.000000000000000082E-05 ), #83, 'distance_accuracy_value', 'NONE');
#31 = PERSON_AND_ORGANIZATION ( #359, #332 ) ;
#32 = ORIENTED_EDGE ( 'NONE', *, *, #348, .F. ) ;
#33 = CIRCLE ( 'NONE', #287, 0.05469999999999999862 ) ;
#34 = APPROVAL_STATUS ( 'not_yet_approved' ) ;
#35 = CC_DESIGN_APPROVAL ( #127, ( #134 ) ) ;
#36 = DIRECTION ( 'NONE',  ( -2.445496141887576326E-29, 3.491442192561400387E-15, 1.000000000000000000 ) ) ;
#37 = ORIENTED_EDGE ( 'NONE', *, *, #8, .F. ) ;
#38 = APPROVAL ( #68, 'UNSPECIFIED' ) ;
#39 = PRODUCT ( '51107', '51107', '', ( #176 ) ) ;
#40 = DIRECTION ( 'NONE',  ( -6.982962677686265922E-15, -1.000000000000000000, 2.497118824190368439E-15 ) ) ;
#41 = ORIENTED_EDGE ( 'NONE', *, *, #370, .F. ) ;
#42 = CARTESIAN_POINT ( 'NONE',  ( 7.642090019328601786E-31, -1.091087918388490144E-16, -0.03125000000000020123 ) ) ;
#43 = EDGE_CURVE ( 'NONE', #197, #54, #271, .T. ) ;
#44 = VECTOR ( 'NONE', #159, 39.37007874015748143 ) ;
#45 = DIRECTION ( 'NONE',  ( -0.7071067811863784858, 7.493145998869743582E-15, 0.7071067811867165487 ) ) ;
#46 = PERSON_AND_ORGANIZATION ( #359, #332 ) ;
#47 = CARTESIAN_POINT ( 'NONE',  ( -9.077703967184644939E-28, 1.296025656757022889E-13, 37.12007874015748143 ) ) ;
#48 =( NAMED_UNIT ( * ) PLANE_ANGLE_UNIT ( ) SI_UNIT ( $, .RADIAN. ) );
#49 = EDGE_LOOP ( 'NONE', ( #190, #26, #344, #209 ) ) ;
#50 = DIRECTION ( 'NONE',  ( 2.445468806185136597E-29, -3.491481338843145583E-15, -1.000000000000000000 ) ) ;
#51 = DIMENSIONAL_EXPONENTS ( 1.000000000000000000, 0.000000000000000000, 0.000000000000000000, 0.000000000000000000, 0.000000000000000000, 0.000000000000000000, 0.000000000000000000 ) ;
#52 = EDGE_CURVE ( 'NONE', #118, #220, #390, .T. ) ;
#53 = APPLICATION_CONTEXT ( 'configuration controlled 3d designs of mechanical parts and assemblies' ) ;
#54 = VERTEX_POINT ( 'NONE', #194 ) ;
#55 = CONICAL_SURFACE ( 'NONE', #266, 0.05470000000000013740, 0.7853981633972092480 ) ;
#56 = MANIFOLD_SOLID_BREP ( 'Body-Move/Copy2[1]', #312 ) ;
#57 = ORIENTED_EDGE ( 'NONE', *, *, #60, .F. ) ;
#58 = ORIENTED_EDGE ( 'NONE', *, *, #366, .F. ) ;
#59 = LOCAL_TIME ( 14, 27, 31.00000000000000000, #65 ) ;
#60 = EDGE_CURVE ( 'NONE', #197, #328, #231, .T. ) ;
#61 = CARTESIAN_POINT ( 'NONE',  ( -0.05470000000000013740, -3.483036780182387481E-15, -1.108899999999999775 ) ) ;
#62 = CARTESIAN_POINT ( 'NONE',  ( -0.02344999999999999862, 2.183048707111663922E-16, 9.552245033335997570E-19 ) ) ;
#63 = APPROVAL_PERSON_ORGANIZATION ( #46, #245, #253 ) ;
#64 = DATE_AND_TIME ( #169, #144 ) ;
#65 = COORDINATED_UNIVERSAL_TIME_OFFSET ( 5, 0, .BEHIND. ) ;
#66 = DIRECTION ( 'NONE',  ( -2.445468806185136597E-29, 3.491481338843145583E-15, 1.000000000000000000 ) ) ;
#67 = CC_DESIGN_PERSON_AND_ORGANIZATION_ASSIGNMENT ( #133, #200, ( #39 ) ) ;
#68 = APPROVAL_STATUS ( 'not_yet_approved' ) ;
#69 = AXIS2_PLACEMENT_3D ( 'NONE', #139, #66, #310 ) ;
#70 = CARTESIAN_POINT ( 'NONE',  ( -3.819680584694116195E-16, -0.05470000000000387747, -1.109399999999999720 ) ) ;
#71 = EDGE_LOOP ( 'NONE', ( #136, #232 ) ) ;
#72 = CARTESIAN_POINT ( 'NONE',  ( 5.502366319247045822E-29, -7.855744933263151562E-15, -2.250000000000000000 ) ) ;
#73 = CARTESIAN_POINT ( 'NONE',  ( 0.000000000000000000, 0.000000000000000000, 0.000000000000000000 ) ) ;
#74 = ORIENTED_EDGE ( 'NONE', *, *, #1, .T. ) ;
#75 = EDGE_LOOP ( 'NONE', ( #23, #299, #225, #243 ) ) ;
#76 = PRODUCT_DEFINITION_SHAPE ( 'NONE', 'NONE',  #234 ) ;
#77 = ADVANCED_FACE ( 'NONE', ( #161 ), #249, .F. ) ;
#78 = CALENDAR_DATE ( 2024, 22, 4 ) ;
#79 = ORIENTED_EDGE ( 'NONE', *, *, #322, .T. ) ;
#80 = DIRECTION ( 'NONE',  ( 1.000000000000000000, -6.982962677686266711E-15, 4.876176775795936353E-29 ) ) ;
#81 = VERTEX_POINT ( 'NONE', #358 ) ;
#82 = CARTESIAN_POINT ( 'NONE',  ( -1.167985862904637270E-47, 1.667574263899819573E-33, 4.776122516674677910E-19 ) ) ;
#83 =( CONVERSION_BASED_UNIT ( 'INCH', #113 ) LENGTH_UNIT ( ) NAMED_UNIT ( #51 ) );
#84 = ORIENTED_EDGE ( 'NONE', *, *, #341, .F. ) ;
#85 = CARTESIAN_POINT ( 'NONE',  ( -0.05470000000000000556, 2.728592666305898332E-16, -0.03125000000000020123 ) ) ;
#86 = VERTEX_POINT ( 'NONE', #355 ) ;
#87 = EDGE_CURVE ( 'NONE', #254, #123, #33, .T. ) ;
#88 = DIRECTION ( 'NONE',  ( -1.000000000000000000, 6.982962677686266711E-15, 0.000000000000000000 ) ) ;
#89 = EDGE_LOOP ( 'NONE', ( #57, #337 ) ) ;
#90 = ADVANCED_FACE ( 'NONE', ( #223 ), #177, .T. ) ;
#91 = AXIS2_PLACEMENT_3D ( 'NONE', #24, #210, #230 ) ;
#92 = CC_DESIGN_SECURITY_CLASSIFICATION ( #134, ( #2 ) ) ;
#93 = DIRECTION ( 'NONE',  ( 0.7071067811863784858, -2.468850131080486462E-15, 0.7071067811867165487 ) ) ;
#94 = CARTESIAN_POINT ( 'NONE',  ( 7.642090019328601786E-31, -1.091087918388490144E-16, -0.03125000000000020123 ) ) ;
#95 = AXIS2_PLACEMENT_3D ( 'NONE', #347, #242, #369 ) ;
#96 = CIRCLE ( 'NONE', #130, 0.05469999999999999862 ) ;
#97 = CARTESIAN_POINT ( 'NONE',  ( 2.713003093581790328E-29, -3.873449397312585157E-15, -1.109399999999999942 ) ) ;
#98 = LINE ( 'NONE', #219, #360 ) ;
#99 = VERTEX_POINT ( 'NONE', #248 ) ;
#100 = CALENDAR_DATE ( 2024, 22, 4 ) ;
#101 = FACE_OUTER_BOUND ( 'NONE', #286, .T. ) ;
#102 = DIRECTION ( 'NONE',  ( 0.7071067811865453523, -7.319954787623248157E-15, -0.7071067811865496822 ) ) ;
#103 = AXIS2_PLACEMENT_3D ( 'NONE', #292, #50, #88 ) ;
#104 = PERSON_AND_ORGANIZATION ( #359, #332 ) ;
#105 = CIRCLE ( 'NONE', #221, 0.05469999999999999862 ) ;
#106 = DIRECTION ( 'NONE',  ( 1.000000000000000000, -6.982962677686266711E-15, 4.876176775795936353E-29 ) ) ;
#107 = VERTEX_POINT ( 'NONE', #72 ) ;
#108 = DATE_TIME_ROLE ( 'creation_date' ) ;
#109 = FACE_OUTER_BOUND ( 'NONE', #114, .T. ) ;
#110 = LINE ( 'NONE', #70, #44 ) ;
#111 = ORIENTED_EDGE ( 'NONE', *, *, #380, .T. ) ;
#112 = FACE_OUTER_BOUND ( 'NONE', #168, .T. ) ;
#113 = LENGTH_MEASURE_WITH_UNIT ( LENGTH_MEASURE( 0.02539999999999999897 ), #163 );
#114 = EDGE_LOOP ( 'NONE', ( #281, #79, #346, #381 ) ) ;
#115 = DIRECTION ( 'NONE',  ( -2.445496141887576326E-29, 3.491442192561400387E-15, 1.000000000000000000 ) ) ;
#116 = AXIS2_PLACEMENT_3D ( 'NONE', #263, #121, #178 ) ;
#117 = DATE_AND_TIME ( #78, #183 ) ;
#118 = VERTEX_POINT ( 'NONE', #313 ) ;
#119 = DIRECTION ( 'NONE',  ( 1.000000000000000000, -6.982962677686266711E-15, 4.876421767504995250E-29 ) ) ;
#120 = CC_DESIGN_DATE_AND_TIME_ASSIGNMENT ( #323, #108, ( #234 ) ) ;
#121 = DIRECTION ( 'NONE',  ( -2.445468806185136597E-29, 3.491481338843145583E-15, 1.000000000000000000 ) ) ;
#122 = AXIS2_PLACEMENT_3D ( 'NONE', #345, #195, #15 ) ;
#123 = VERTEX_POINT ( 'NONE', #217 ) ;
#124 = ADVANCED_FACE ( 'NONE', ( #244 ), #164, .T. ) ;
#125 = DIRECTION ( 'NONE',  ( -2.445468806185136877E-29, 3.491481338843145188E-15, 1.000000000000000000 ) ) ;
#126 = CONICAL_SURFACE ( 'NONE', #361, 65.52281426576847423, 1.029744258676654756 ) ;
#127 = APPROVAL ( #34, 'UNSPECIFIED' ) ;
#128 = DIRECTION ( 'NONE',  ( 1.000000000000000000, -6.982962677686269077E-15, 0.000000000000000000 ) ) ;
#129 = AXIS2_PLACEMENT_3D ( 'NONE', #202, #261, #119 ) ;
#130 = AXIS2_PLACEMENT_3D ( 'NONE', #383, #173, #285 ) ;
#131 = PERSON_AND_ORGANIZATION_ROLE ( 'classification_officer' ) ;
#132 = EDGE_LOOP ( 'NONE', ( #201, #19 ) ) ;
#133 = PERSON_AND_ORGANIZATION ( #359, #332 ) ;
#134 = SECURITY_CLASSIFICATION ( '', '', #280 ) ;
#135 = CARTESIAN_POINT ( 'NONE',  ( 0.000000000000000000, 0.000000000000000000, 0.000000000000000000 ) ) ;
#136 = ORIENTED_EDGE ( 'NONE', *, *, #341, .T. ) ;
#137 = EDGE_LOOP ( 'NONE', ( #283, #316, #41 ) ) ;
#138 = CARTESIAN_POINT ( 'NONE',  ( 2.713003093581790328E-29, -3.873449397312585157E-15, -1.109399999999999942 ) ) ;
#139 = CARTESIAN_POINT ( 'NONE',  ( 2.711780359178697526E-29, -3.871703656643163654E-15, -1.108899999999999775 ) ) ;
#140 = PERSON_AND_ORGANIZATION ( #359, #332 ) ;
#141 = ADVANCED_FACE ( 'NONE', ( #174 ), #198, .T. ) ;
#142 = DIRECTION ( 'NONE',  ( -2.445468806185136597E-29, 3.491481338843145583E-15, 1.000000000000000000 ) ) ;
#143 = EDGE_CURVE ( 'NONE', #107, #99, #14, .T. ) ;
#144 = LOCAL_TIME ( 14, 27, 31.00000000000000000, #336 ) ;
#145 = CARTESIAN_POINT ( 'NONE',  ( -0.05420000000000033819, -3.485686007356498288E-15, -1.109399999999999942 ) ) ;
#146 = ORIENTED_EDGE ( 'NONE', *, *, #380, .F. ) ;
#147 = ORIENTED_EDGE ( 'NONE', *, *, #43, .T. ) ;
#148 = AXIS2_PLACEMENT_3D ( 'NONE', #138, #142, #18 ) ;
#149 = CIRCLE ( 'NONE', #170, 0.05469999999999999862 ) ;
#150 = DIRECTION ( 'NONE',  ( -5.985567269335943646E-15, -0.8571673007021107793, 0.5150380749100569311 ) ) ;
#151 = CARTESIAN_POINT ( 'NONE',  ( 0.05470000000000006801, -3.819680584694392790E-16, 2.667268696360380458E-30 ) ) ;
#152 = ADVANCED_FACE ( 'NONE', ( #255 ), #385, .F. ) ;
#153 = VECTOR ( 'NONE', #326, 39.37007874015748143 ) ;
#154 = PERSON_AND_ORGANIZATION ( #359, #332 ) ;
#155 = AXIS2_PLACEMENT_3D ( 'NONE', #97, #274, #293 ) ;
#156 = AXIS2_PLACEMENT_3D ( 'NONE', #135, #192, #106 ) ;
#157 = APPROVAL_ROLE ( '' ) ;
#158 = DIRECTION ( 'NONE',  ( -6.982962677686265922E-15, -1.000000000000000000, 4.994237648380736877E-15 ) ) ;
#159 = DIRECTION ( 'NONE',  ( -2.445496141887576606E-29, 3.491442192561400387E-15, 1.000000000000000000 ) ) ;
#160 = EDGE_CURVE ( 'NONE', #328, #197, #327, .T. ) ;
#161 = FACE_OUTER_BOUND ( 'NONE', #132, .T. ) ;
#162 = DIRECTION ( 'NONE',  ( -6.982962677686265922E-15, -1.000000000000000000, 3.468864327941591848E-15 ) ) ;
#163 =( LENGTH_UNIT ( ) NAMED_UNIT ( * ) SI_UNIT ( $, .METRE. ) );
#164 = CYLINDRICAL_SURFACE ( 'NONE', #91, 0.05469999999999999862 ) ;
#165 = EDGE_CURVE ( 'NONE', #118, #356, #240, .T. ) ;
#166 = DATE_TIME_ROLE ( 'classification_date' ) ;
#167 = CARTESIAN_POINT ( 'NONE',  ( -2.335971725809274539E-47, 3.335148527799639146E-33, 9.552245033349355820E-19 ) ) ;
#168 = EDGE_LOOP ( 'NONE', ( #204, #111, #387, #32 ) ) ;
#169 = CALENDAR_DATE ( 2024, 22, 4 ) ;
#170 = AXIS2_PLACEMENT_3D ( 'NONE', #256, #36, #158 ) ;
#171 = FACE_OUTER_BOUND ( 'NONE', #137, .T. ) ;
#172 = EDGE_CURVE ( 'NONE', #356, #81, #357, .T. ) ;
#173 = DIRECTION ( 'NONE',  ( -2.445496141887576326E-29, 3.491442192561400387E-15, 1.000000000000000000 ) ) ;
#174 = FACE_OUTER_BOUND ( 'NONE', #300, .T. ) ;
#175 = CARTESIAN_POINT ( 'NONE',  ( 2.711780359178697526E-29, -3.871703656643163654E-15, -1.108899999999999775 ) ) ;
#176 = MECHANICAL_CONTEXT ( 'NONE', #7, 'mechanical' ) ;
#177 = CONICAL_SURFACE ( 'NONE', #95, 65.52281426576847423, 1.029744258676654756 ) ;
#178 = DIRECTION ( 'NONE',  ( 1.000000000000000000, -6.982962677686266711E-15, 0.000000000000000000 ) ) ;
#179 = ADVANCED_FACE ( 'NONE', ( #171 ), #126, .T. ) ;
#180 = MANIFOLD_SOLID_BREP ( 'Body-Move/Copy2[2]', #27 ) ;
#181 = EDGE_LOOP ( 'NONE', ( #206, #188, #290 ) ) ;
#182 = LOCAL_TIME ( 14, 27, 31.00000000000000000, #378 ) ;
#183 = LOCAL_TIME ( 14, 27, 31.00000000000000000, #318 ) ;
#184 = CC_DESIGN_PERSON_AND_ORGANIZATION_ASSIGNMENT ( #140, #257, ( #234 ) ) ;
#185 = CIRCLE ( 'NONE', #235, 0.05470000000000013740 ) ;
#186 = ADVANCED_FACE ( 'NONE', ( #112 ), #250, .T. ) ;
#187 = DATE_AND_TIME ( #100, #59 ) ;
#188 = ORIENTED_EDGE ( 'NONE', *, *, #305, .T. ) ;
#189 = CARTESIAN_POINT ( 'NONE',  ( 0.000000000000000000, 0.000000000000000000, 0.000000000000000000 ) ) ;
#190 = ORIENTED_EDGE ( 'NONE', *, *, #60, .T. ) ;
#191 = CC_DESIGN_DATE_AND_TIME_ASSIGNMENT ( #187, #166, ( #134 ) ) ;
#192 = DIRECTION ( 'NONE',  ( -2.445468806185136597E-29, 3.491481338843145583E-15, 1.000000000000000000 ) ) ;
#193 = DIRECTION ( 'NONE',  ( 1.000000000000000000, 0.000000000000000000, 0.000000000000000000 ) ) ;
#194 = CARTESIAN_POINT ( 'NONE',  ( 0.05470000000000013740, -4.253671715112603623E-15, -1.108899999999999775 ) ) ;
#195 = DIRECTION ( 'NONE',  ( -2.438088387897960049E-29, 3.491481338843145188E-15, 1.000000000000000000 ) ) ;
#196 = LINE ( 'NONE', #61, #227 ) ;
#197 = VERTEX_POINT ( 'NONE', #222 ) ;
#198 = CONICAL_SURFACE ( 'NONE', #103, 0.05470000000000000556, 0.7853981633974452814 ) ;
#199 = AXIS2_PLACEMENT_3D ( 'NONE', #175, #224, #315 ) ;
#200 = PERSON_AND_ORGANIZATION_ROLE ( 'design_owner' ) ;
#201 = ORIENTED_EDGE ( 'NONE', *, *, #87, .T. ) ;
#202 = CARTESIAN_POINT ( 'NONE',  ( -2.335971725809274539E-47, 3.335148527799639146E-33, 9.552245033349355820E-19 ) ) ;
#203 = DIRECTION ( 'NONE',  ( 1.000000000000000000, -6.982962677686269077E-15, 0.000000000000000000 ) ) ;
#204 = ORIENTED_EDGE ( 'NONE', *, *, #322, .F. ) ;
#205 = DIRECTION ( 'NONE',  ( -0.7071067811865453523, 2.468850131082234184E-15, -0.7071067811865496822 ) ) ;
#206 = ORIENTED_EDGE ( 'NONE', *, *, #143, .F. ) ;
#207 = DIRECTION ( 'NONE',  ( 2.438088387897960049E-29, -3.491481338843145188E-15, -1.000000000000000000 ) ) ;
#208 = CONICAL_SURFACE ( 'NONE', #262, 0.05470000000000000556, 0.7853981633974452814 ) ;
#209 = ORIENTED_EDGE ( 'NONE', *, *, #43, .F. ) ;
#210 = DIRECTION ( 'NONE',  ( -2.445496141887576326E-29, 3.491442192561400387E-15, 1.000000000000000000 ) ) ;
#211 = LOCAL_TIME ( 14, 27, 31.00000000000000000, #343 ) ;
#212 = LINE ( 'NONE', #21, #153 ) ;
#213 = ADVANCED_FACE ( 'NONE', ( #109 ), #6, .T. ) ;
#214 = DIRECTION ( 'NONE',  ( -1.000000000000000000, 6.982962677686266711E-15, 0.000000000000000000 ) ) ;
#215 =( GEOMETRIC_REPRESENTATION_CONTEXT ( 3 ) GLOBAL_UNCERTAINTY_ASSIGNED_CONTEXT ( ( #30 ) ) GLOBAL_UNIT_ASSIGNED_CONTEXT ( ( #83, #48, #319 ) ) REPRESENTATION_CONTEXT ( 'NONE', 'WORKASPACE' ) );
#216 = CARTESIAN_POINT ( 'NONE',  ( 2.713003093581790328E-29, -3.873449397312585157E-15, -1.109399999999999942 ) ) ;
#217 = CARTESIAN_POINT ( 'NONE',  ( 3.886668764608291740E-16, 0.05469999999999612672, -1.109400000000000164 ) ) ;
#218 = PERSON_AND_ORGANIZATION_ROLE ( 'creator' ) ;
#219 = CARTESIAN_POINT ( 'NONE',  ( 3.886668764608018597E-16, 0.05469999999999612672, -1.109400000000000164 ) ) ;
#220 = VERTEX_POINT ( 'NONE', #321 ) ;
#221 = AXIS2_PLACEMENT_3D ( 'NONE', #259, #115, #40 ) ;
#222 = CARTESIAN_POINT ( 'NONE',  ( 0.05420000000000033819, -4.251925974443183697E-15, -1.109399999999999942 ) ) ;
#223 = FACE_OUTER_BOUND ( 'NONE', #181, .T. ) ;
#224 = DIRECTION ( 'NONE',  ( -2.445468806185136597E-29, 3.491481338843145583E-15, 1.000000000000000000 ) ) ;
#225 = ORIENTED_EDGE ( 'NONE', *, *, #87, .F. ) ;
#226 = APPROVAL_STATUS ( 'not_yet_approved' ) ;
#227 = VECTOR ( 'NONE', #45, 39.37007874015748143 ) ;
#228 = FACE_OUTER_BOUND ( 'NONE', #296, .T. ) ;
#229 = ORIENTED_EDGE ( 'NONE', *, *, #52, .T. ) ;
#230 = DIRECTION ( 'NONE',  ( -6.982962677686265922E-15, -1.000000000000000000, 2.497118824190368439E-15 ) ) ;
#231 = CIRCLE ( 'NONE', #351, 0.05420000000000033819 ) ;
#232 = ORIENTED_EDGE ( 'NONE', *, *, #165, .T. ) ;
#233 = EDGE_CURVE ( 'NONE', #54, #386, #342, .T. ) ;
#234 = PRODUCT_DEFINITION ( 'UNKNOWN', '', #2, #331 ) ;
#235 = AXIS2_PLACEMENT_3D ( 'NONE', #373, #375, #203 ) ;
#236 = CARTESIAN_POINT ( 'NONE',  ( 0.05470000000000000556, -4.843780323169518806E-16, -0.03125000000000020123 ) ) ;
#237 = EDGE_CURVE ( 'NONE', #123, #254, #105, .T. ) ;
#238 = CARTESIAN_POINT ( 'NONE',  ( 5.502305666790472796E-29, -7.855831791033086098E-15, -2.250000000000000000 ) ) ;
#239 = CC_DESIGN_PERSON_AND_ORGANIZATION_ASSIGNMENT ( #31, #251, ( #2 ) ) ;
#240 = CIRCLE ( 'NONE', #129, 0.02344999999999999862 ) ;
#241 = AXIS2_PLACEMENT_3D ( 'NONE', #167, #284, #252 ) ;
#242 = DIRECTION ( 'NONE',  ( -2.445496141887576326E-29, 3.491442192561400387E-15, 1.000000000000000000 ) ) ;
#243 = ORIENTED_EDGE ( 'NONE', *, *, #1, .F. ) ;
#244 = FACE_OUTER_BOUND ( 'NONE', #75, .T. ) ;
#245 = APPROVAL ( #226, 'UNSPECIFIED' ) ;
#246 = CARTESIAN_POINT ( 'NONE',  ( -3.819680584694116195E-16, -0.05470000000000387747, -1.109399999999999720 ) ) ;
#247 = CARTESIAN_POINT ( 'NONE',  ( -0.05470000000000013740, -3.483036780182387481E-15, -1.108899999999999775 ) ) ;
#248 = CARTESIAN_POINT ( 'NONE',  ( 3.886668764608290754E-16, 0.05469999999999227563, -2.217132924139192607 ) ) ;
#249 = PLANE ( 'NONE',  #155 ) ;
#250 = CYLINDRICAL_SURFACE ( 'NONE', #156, 0.05470000000000006801 ) ;
#251 = PERSON_AND_ORGANIZATION_ROLE ( 'design_supplier' ) ;
#252 = DIRECTION ( 'NONE',  ( 1.000000000000000000, -6.982962677686266711E-15, 4.876421767504995250E-29 ) ) ;
#253 = APPROVAL_ROLE ( '' ) ;
#254 = VERTEX_POINT ( 'NONE', #246 ) ;
#255 = FACE_OUTER_BOUND ( 'NONE', #71, .T. ) ;
#256 = CARTESIAN_POINT ( 'NONE',  ( 5.421959685806028674E-29, -7.741034866741578670E-15, -2.217132924139192607 ) ) ;
#257 = PERSON_AND_ORGANIZATION_ROLE ( 'creator' ) ;
#258 = ADVANCED_FACE ( 'NONE', ( #289 ), #11, .F. ) ;
#259 = CARTESIAN_POINT ( 'NONE',  ( 2.713003093581790328E-29, -3.873449397312585157E-15, -1.109399999999999942 ) ) ;
#260 = ORIENTED_EDGE ( 'NONE', *, *, #272, .T. ) ;
#261 = DIRECTION ( 'NONE',  ( -2.445468806185136597E-29, 3.491481338843145583E-15, 1.000000000000000000 ) ) ;
#262 = AXIS2_PLACEMENT_3D ( 'NONE', #42, #365, #214 ) ;
#263 = CARTESIAN_POINT ( 'NONE',  ( 7.642090019328601786E-31, -1.091087918388490144E-16, -0.03125000000000020123 ) ) ;
#264 = ORIENTED_EDGE ( 'NONE', *, *, #237, .F. ) ;
#265 = FACE_OUTER_BOUND ( 'NONE', #49, .T. ) ;
#266 = AXIS2_PLACEMENT_3D ( 'NONE', #25, #306, #128 ) ;
#267 = EDGE_LOOP ( 'NONE', ( #384, #84, #311, #368 ) ) ;
#268 = ADVANCED_FACE ( 'NONE', ( #228 ), #389, .T. ) ;
#269 = VECTOR ( 'NONE', #102, 39.37007874015748143 ) ;
#270 = VECTOR ( 'NONE', #150, 39.37007874015748143 ) ;
#271 = LINE ( 'NONE', #363, #276 ) ;
#272 = EDGE_CURVE ( 'NONE', #99, #86, #149, .T. ) ;
#273 = LINE ( 'NONE', #238, #270 ) ;
#274 = DIRECTION ( 'NONE',  ( 2.445496141887576046E-29, -3.491442192561400387E-15, -1.000000000000000000 ) ) ;
#275 = APPROVAL_ROLE ( '' ) ;
#276 = VECTOR ( 'NONE', #93, 39.37007874015748143 ) ;
#277 = APPROVAL_DATE_TIME ( #282, #127 ) ;
#278 = CYLINDRICAL_SURFACE ( 'NONE', #298, 0.05469999999999999862 ) ;
#279 = DIRECTION ( 'NONE',  ( -6.982962677686265922E-15, -1.000000000000000000, 2.497118824190368439E-15 ) ) ;
#280 = SECURITY_CLASSIFICATION_LEVEL ( 'unclassified' ) ;
#281 = ORIENTED_EDGE ( 'NONE', *, *, #233, .T. ) ;
#282 = DATE_AND_TIME ( #314, #211 ) ;
#283 = ORIENTED_EDGE ( 'NONE', *, *, #305, .F. ) ;
#284 = DIRECTION ( 'NONE',  ( -2.445468806185136597E-29, 3.491481338843145583E-15, 1.000000000000000000 ) ) ;
#285 = DIRECTION ( 'NONE',  ( -6.982962677686265922E-15, -1.000000000000000000, 4.994237648380736877E-15 ) ) ;
#286 = EDGE_LOOP ( 'NONE', ( #37, #260, #74, #264 ) ) ;
#287 = AXIS2_PLACEMENT_3D ( 'NONE', #216, #3, #279 ) ;
#288 = CIRCLE ( 'NONE', #116, 0.05470000000000000556 ) ;
#289 = FACE_OUTER_BOUND ( 'NONE', #89, .T. ) ;
#290 = ORIENTED_EDGE ( 'NONE', *, *, #272, .F. ) ;
#291 = DIRECTION ( 'NONE',  ( 0.000000000000000000, 0.000000000000000000, 1.000000000000000000 ) ) ;
#292 = CARTESIAN_POINT ( 'NONE',  ( 7.642090019328601786E-31, -1.091087918388490144E-16, -0.03125000000000020123 ) ) ;
#293 = DIRECTION ( 'NONE',  ( 6.982962677686265922E-15, 1.000000000000000000, -3.491442192561400387E-15 ) ) ;
#294 = ORIENTED_EDGE ( 'NONE', *, *, #165, .F. ) ;
#295 = APPLICATION_PROTOCOL_DEFINITION ( 'international standard', 'config_control_design', 1994, #53 ) ;
#296 = EDGE_LOOP ( 'NONE', ( #58, #379, #147, #146 ) ) ;
#297 = CC_DESIGN_PERSON_AND_ORGANIZATION_ASSIGNMENT ( #104, #131, ( #134 ) ) ;
#298 = AXIS2_PLACEMENT_3D ( 'NONE', #371, #339, #302 ) ;
#299 = ORIENTED_EDGE ( 'NONE', *, *, #8, .T. ) ;
#300 = EDGE_LOOP ( 'NONE', ( #294, #229, #340, #324 ) ) ;
#301 = VECTOR ( 'NONE', #205, 39.37007874015748143 ) ;
#302 = DIRECTION ( 'NONE',  ( -6.982962677686265922E-15, -1.000000000000000000, 2.497118824190368439E-15 ) ) ;
#303 = ADVANCED_FACE ( 'NONE', ( #101 ), #278, .T. ) ;
#304 = ADVANCED_FACE ( 'NONE', ( #265 ), #55, .T. ) ;
#305 = EDGE_CURVE ( 'NONE', #107, #86, #273, .T. ) ;
#306 = DIRECTION ( 'NONE',  ( -2.445468806185136597E-29, 3.491481338843145583E-15, 1.000000000000000000 ) ) ;
#307 = CC_DESIGN_APPROVAL ( #38, ( #2 ) ) ;
#308 = PERSON_AND_ORGANIZATION ( #359, #332 ) ;
#309 = PERSON_AND_ORGANIZATION ( #359, #332 ) ;
#310 = DIRECTION ( 'NONE',  ( 1.000000000000000000, -6.982962677686269077E-15, 0.000000000000000000 ) ) ;
#311 = ORIENTED_EDGE ( 'NONE', *, *, #172, .T. ) ;
#312 = CLOSED_SHELL ( 'NONE', ( #124, #179, #90, #303, #77 ) ) ;
#313 = CARTESIAN_POINT ( 'NONE',  ( 0.02344999999999999862, -3.226283551823471003E-16, 9.552245033366354078E-19 ) ) ;
#314 = CALENDAR_DATE ( 2024, 22, 4 ) ;
#315 = DIRECTION ( 'NONE',  ( 1.000000000000000000, -6.982962677686269077E-15, 0.000000000000000000 ) ) ;
#316 = ORIENTED_EDGE ( 'NONE', *, *, #143, .T. ) ;
#317 = FACE_OUTER_BOUND ( 'NONE', #267, .T. ) ;
#318 = COORDINATED_UNIVERSAL_TIME_OFFSET ( 5, 0, .BEHIND. ) ;
#319 =( NAMED_UNIT ( * ) SI_UNIT ( $, .STERADIAN. ) SOLID_ANGLE_UNIT ( ) );
#320 = VECTOR ( 'NONE', #325, 39.37007874015747433 ) ;
#321 = CARTESIAN_POINT ( 'NONE',  ( 0.05470000000000000556, -4.910768503082878866E-16, -0.03125000000000020123 ) ) ;
#322 = EDGE_CURVE ( 'NONE', #386, #81, #212, .T. ) ;
#323 = DATE_AND_TIME ( #350, #182 ) ;
#324 = ORIENTED_EDGE ( 'NONE', *, *, #172, .F. ) ;
#325 = DIRECTION ( 'NONE',  ( 6.090539988449781591E-15, 0.8571673007021143320, 0.5150380749100510469 ) ) ;
#326 = DIRECTION ( 'NONE',  ( -2.445468806185136877E-29, 3.491481338843145188E-15, 1.000000000000000000 ) ) ;
#327 = CIRCLE ( 'NONE', #148, 0.05420000000000033819 ) ;
#328 = VERTEX_POINT ( 'NONE', #145 ) ;
#329 = DIRECTION ( 'NONE',  ( -1.000000000000000000, 6.982962677686265922E-15, -4.876176775795935793E-29 ) ) ;
#330 = EDGE_CURVE ( 'NONE', #220, #81, #288, .T. ) ;
#331 = DESIGN_CONTEXT ( 'detailed design', #53, 'design' ) ;
#332 = ORGANIZATION ( 'UNSPECIFIED', 'UNSPECIFIED', '' ) ;
#333 = AXIS2_PLACEMENT_3D ( 'NONE', #73, #349, #80 ) ;
#334 = DIRECTION ( 'NONE',  ( -2.445468806185136597E-29, 3.491481338843145583E-15, 1.000000000000000000 ) ) ;
#335 = ADVANCED_FACE ( 'NONE', ( #317 ), #208, .T. ) ;
#336 = COORDINATED_UNIVERSAL_TIME_OFFSET ( 5, 0, .BEHIND. ) ;
#337 = ORIENTED_EDGE ( 'NONE', *, *, #160, .F. ) ;
#338 = DIRECTION ( 'NONE',  ( 1.000000000000000000, -6.982962677686269866E-15, 0.000000000000000000 ) ) ;
#339 = DIRECTION ( 'NONE',  ( -2.445496141887576326E-29, 3.491442192561400387E-15, 1.000000000000000000 ) ) ;
#340 = ORIENTED_EDGE ( 'NONE', *, *, #330, .T. ) ;
#341 = EDGE_CURVE ( 'NONE', #356, #118, #22, .T. ) ;
#342 = CIRCLE ( 'NONE', #199, 0.05470000000000013740 ) ;
#343 = COORDINATED_UNIVERSAL_TIME_OFFSET ( 5, 0, .BEHIND. ) ;
#344 = ORIENTED_EDGE ( 'NONE', *, *, #233, .F. ) ;
#345 = CARTESIAN_POINT ( 'NONE',  ( 4.665341647937578564E-29, -1.077589467265420890E-15, -1.109399999999999942 ) ) ;
#346 = ORIENTED_EDGE ( 'NONE', *, *, #330, .F. ) ;
#347 = CARTESIAN_POINT ( 'NONE',  ( -9.077703967184644939E-28, 1.296025656757022889E-13, 37.12007874015748143 ) ) ;
#348 = EDGE_CURVE ( 'NONE', #81, #220, #28, .T. ) ;
#349 = DIRECTION ( 'NONE',  ( -2.445468806185136597E-29, 3.491481338843145583E-15, 1.000000000000000000 ) ) ;
#350 = CALENDAR_DATE ( 2024, 22, 4 ) ;
#351 = AXIS2_PLACEMENT_3D ( 'NONE', #367, #4, #338 ) ;
#352 = CARTESIAN_POINT ( 'NONE',  ( 5.502366851097496084E-29, -7.855744933263151562E-15, -2.250000000000000000 ) ) ;
#353 = CC_DESIGN_APPROVAL ( #245, ( #234 ) ) ;
#354 = AXIS2_PLACEMENT_3D ( 'NONE', #189, #291, #193 ) ;
#355 = CARTESIAN_POINT ( 'NONE',  ( -3.819680584693846010E-16, -0.05470000000000776325, -2.217132924139192163 ) ) ;
#356 = VERTEX_POINT ( 'NONE', #62 ) ;
#357 = LINE ( 'NONE', #85, #301 ) ;
#358 = CARTESIAN_POINT ( 'NONE',  ( -0.05470000000000000556, -1.601739347780230402E-15, -0.03125000000000020123 ) ) ;
#359 = PERSON ( 'UNSPECIFIED', 'UNSPECIFIED', 'UNSPECIFIED', ('UNSPECIFIED'), ('UNSPECIFIED'), ('UNSPECIFIED') ) ;
#360 = VECTOR ( 'NONE', #372, 39.37007874015748143 ) ;
#361 = AXIS2_PLACEMENT_3D ( 'NONE', #47, #377, #162 ) ;
#362 = AXIS2_PLACEMENT_3D ( 'NONE', #94, #334, #376 ) ;
#363 = CARTESIAN_POINT ( 'NONE',  ( 0.05470000000000013740, -4.253671715112603623E-15, -1.108899999999999775 ) ) ;
#364 = CC_DESIGN_PERSON_AND_ORGANIZATION_ASSIGNMENT ( #308, #218, ( #2 ) ) ;
#365 = DIRECTION ( 'NONE',  ( 2.445468806185136597E-29, -3.491481338843145583E-15, -1.000000000000000000 ) ) ;
#366 = EDGE_CURVE ( 'NONE', #328, #386, #196, .T. ) ;
#367 = CARTESIAN_POINT ( 'NONE',  ( 2.713003093581790328E-29, -3.873449397312585157E-15, -1.109399999999999942 ) ) ;
#368 = ORIENTED_EDGE ( 'NONE', *, *, #348, .T. ) ;
#369 = DIRECTION ( 'NONE',  ( -6.982962677686265922E-15, -1.000000000000000000, 3.468864327941591848E-15 ) ) ;
#370 = EDGE_CURVE ( 'NONE', #86, #99, #96, .T. ) ;
#371 = CARTESIAN_POINT ( 'NONE',  ( 2.713003093581790328E-29, -3.873449397312585157E-15, -1.109399999999999942 ) ) ;
#372 = DIRECTION ( 'NONE',  ( -2.445496141887576606E-29, 3.491442192561400387E-15, 1.000000000000000000 ) ) ;
#373 = CARTESIAN_POINT ( 'NONE',  ( 2.711780359178697526E-29, -3.871703656643163654E-15, -1.108899999999999775 ) ) ;
#374 = PRODUCT_RELATED_PRODUCT_CATEGORY ( 'detail', '', ( #39 ) ) ;
#375 = DIRECTION ( 'NONE',  ( -2.445468806185136597E-29, 3.491481338843145583E-15, 1.000000000000000000 ) ) ;
#376 = DIRECTION ( 'NONE',  ( 1.000000000000000000, -6.982962677686266711E-15, 0.000000000000000000 ) ) ;
#377 = DIRECTION ( 'NONE',  ( -2.445496141887576326E-29, 3.491442192561400387E-15, 1.000000000000000000 ) ) ;
#378 = COORDINATED_UNIVERSAL_TIME_OFFSET ( 5, 0, .BEHIND. ) ;
#379 = ORIENTED_EDGE ( 'NONE', *, *, #160, .T. ) ;
#380 = EDGE_CURVE ( 'NONE', #386, #54, #185, .T. ) ;
#381 = ORIENTED_EDGE ( 'NONE', *, *, #17, .F. ) ;
#382 = APPROVAL_PERSON_ORGANIZATION ( #309, #127, #157 ) ;
#383 = CARTESIAN_POINT ( 'NONE',  ( 5.421959685806028674E-29, -7.741034866741578670E-15, -2.217132924139192607 ) ) ;
#384 = ORIENTED_EDGE ( 'NONE', *, *, #52, .F. ) ;
#385 = PLANE ( 'NONE',  #388 ) ;
#386 = VERTEX_POINT ( 'NONE', #247 ) ;
#387 = ORIENTED_EDGE ( 'NONE', *, *, #17, .T. ) ;
#388 = AXIS2_PLACEMENT_3D ( 'NONE', #82, #207, #329 ) ;
#389 = CONICAL_SURFACE ( 'NONE', #69, 0.05470000000000013740, 0.7853981633972092480 ) ;
#390 = LINE ( 'NONE', #236, #269 ) ;
ENDSEC;
END-ISO-10303-21;
