ISO-10303-21;
HEADER;
FILE_DESCRIPTION (( 'STEP AP203' ),
    '1' );
FILE_NAME ('53022.STEP',
    '2024-04-22T18:57:41',
    ( '' ),
    ( '' ),
    'SwSTEP 2.0',
    'SolidWorks 2023',
    '' );
FILE_SCHEMA (( 'CONFIG_CONTROL_DESIGN' ));
ENDSEC;

DATA;
#1 = CARTESIAN_POINT ( 'NONE',  ( 3.135091009529345467E-29, -4.476079076396913433E-15, -1.282000000000000250 ) ) ;
#2 = ORIENTED_EDGE ( 'NONE', *, *, #318, .F. ) ;
#3 = CIRCLE ( 'NONE', #161, 0.07850000000000016687 ) ;
#4 = ORIENTED_EDGE ( 'NONE', *, *, #140, .F. ) ;
#5 = EDGE_CURVE ( 'NONE', #363, #277, #172, .T. ) ;
#6 = EDGE_LOOP ( 'NONE', ( #64, #4 ) ) ;
#7 = CARTESIAN_POINT ( 'NONE',  ( 0.07850000000000000033, -6.476578846639141366E-16, -0.03125000000000019429 ) ) ;
#8 = CONICAL_SURFACE ( 'NONE', #370, 0.07850000000000016687, 0.7853981633978239785 ) ;
#9 = AXIS2_PLACEMENT_3D ( 'NONE', #197, #134, #113 ) ;
#10 = DIRECTION ( 'NONE',  ( -6.982962677686267499E-15, -1.000000000000000000, 3.510303681827559575E-15 ) ) ;
#11 = DATE_TIME_ROLE ( 'classification_date' ) ;
#12 = CARTESIAN_POINT ( 'NONE',  ( 5.577760475717393906E-16, 0.07849999999999554556, -1.282000000000000473 ) ) ;
#13 = EDGE_CURVE ( 'NONE', #363, #247, #81, .T. ) ;
#14 = PERSON_AND_ORGANIZATION_ROLE ( 'classification_officer' ) ;
#15 = CARTESIAN_POINT ( 'NONE',  ( 6.113845705974812824E-29, -8.728456829416763201E-15, -2.500000000000000000 ) ) ;
#16 = DATE_AND_TIME ( #368, #203 ) ;
#17 = DESIGN_CONTEXT ( 'detailed design', #26, 'design' ) ;
#18 = AXIS2_PLACEMENT_3D ( 'NONE', #324, #200, #180 ) ;
#19 = DIRECTION ( 'NONE',  ( -2.445468806185136597E-29, 3.491481338843145583E-15, 1.000000000000000000 ) ) ;
#20 = ADVANCED_FACE ( 'NONE', ( #226 ), #72, .T. ) ;
#21 = CARTESIAN_POINT ( 'NONE',  ( 0.07850000000000016687, -5.022495905925864560E-15, -1.281500000000000306 ) ) ;
#22 = FACE_OUTER_BOUND ( 'NONE', #332, .T. ) ;
#23 = DIRECTION ( 'NONE',  ( -6.982962677686264344E-15, -1.000000000000000000, 6.960122276851625723E-15 ) ) ;
#24 = EDGE_CURVE ( 'NONE', #390, #249, #148, .T. ) ;
#25 = AXIS2_PLACEMENT_3D ( 'NONE', #352, #255, #10 ) ;
#26 = APPLICATION_CONTEXT ( 'configuration controlled 3d designs of mechanical parts and assemblies' ) ;
#27 = FACE_OUTER_BOUND ( 'NONE', #306, .T. ) ;
#28 = PERSON ( 'UNSPECIFIED', 'UNSPECIFIED', 'UNSPECIFIED', ('UNSPECIFIED'), ('UNSPECIFIED'), ('UNSPECIFIED') ) ;
#29 = EDGE_CURVE ( 'NONE', #43, #141, #294, .T. ) ;
#30 = CARTESIAN_POINT ( 'NONE',  ( 7.642090019328599159E-31, -1.091087918388489774E-16, -0.03125000000000019429 ) ) ;
#31 = PERSON_AND_ORGANIZATION_ROLE ( 'design_owner' ) ;
#32 = VECTOR ( 'NONE', #265, 39.37007874015748143 ) ;
#33 = ORIENTED_EDGE ( 'NONE', *, *, #94, .T. ) ;
#34 = AXIS2_PLACEMENT_3D ( 'NONE', #289, #261, #79 ) ;
#35 = AXIS2_PLACEMENT_3D ( 'NONE', #266, #119, #385 ) ;
#36 = APPLICATION_PROTOCOL_DEFINITION ( 'international standard', 'config_control_design', 1994, #288 ) ;
#37 = VERTEX_POINT ( 'NONE', #82 ) ;
#38 = DIMENSIONAL_EXPONENTS ( 1.000000000000000000, 0.000000000000000000, 0.000000000000000000, 0.000000000000000000, 0.000000000000000000, 0.000000000000000000, 0.000000000000000000 ) ;
#39 = EDGE_CURVE ( 'NONE', #37, #277, #3, .T. ) ;
#40 = CARTESIAN_POINT ( 'NONE',  ( 3.135091009529345467E-29, -4.476079076396913433E-15, -1.282000000000000250 ) ) ;
#41 = ORIENTED_EDGE ( 'NONE', *, *, #305, .F. ) ;
#42 = ADVANCED_BREP_SHAPE_REPRESENTATION ( '53022', ( #239, #114, #173 ), #299 ) ;
#43 = VERTEX_POINT ( 'NONE', #76 ) ;
#44 = LENGTH_MEASURE_WITH_UNIT ( LENGTH_MEASURE( 0.02539999999999999897 ), #132 );
#45 = ORIENTED_EDGE ( 'NONE', *, *, #5, .F. ) ;
#46 = ORIENTED_EDGE ( 'NONE', *, *, #107, .F. ) ;
#47 = PERSON_AND_ORGANIZATION ( #28, #252 ) ;
#48 = CARTESIAN_POINT ( 'NONE',  ( -0.04724999999999999339, 3.844993824400995717E-16, -1.224646799172337511E-19 ) ) ;
#49 = CIRCLE ( 'NONE', #98, 0.07850000000000000033 ) ;
#50 = DIRECTION ( 'NONE',  ( 6.863315791527702148E-15, 0.9659258262890707547, 0.2588190451025118022 ) ) ;
#51 = DATE_AND_TIME ( #169, #386 ) ;
#52 = ORIENTED_EDGE ( 'NONE', *, *, #344, .F. ) ;
#53 = LINE ( 'NONE', #321, #122 ) ;
#54 = AXIS2_PLACEMENT_3D ( 'NONE', #84, #58, #322 ) ;
#55 = CARTESIAN_POINT ( 'NONE',  ( 0.04724999999999999339, -4.859082075293096028E-16, -1.224646799118837825E-19 ) ) ;
#56 = DIRECTION ( 'NONE',  ( 2.445537663138590328E-29, -3.491382731766705123E-15, -1.000000000000000000 ) ) ;
#57 = UNCERTAINTY_MEASURE_WITH_UNIT (LENGTH_MEASURE( 1.000000000000000082E-05 ), #162, 'distance_accuracy_value', 'NONE');
#58 = DIRECTION ( 'NONE',  ( -2.445468806185136597E-29, 3.491481338843145583E-15, 1.000000000000000000 ) ) ;
#59 = DIRECTION ( 'NONE',  ( -1.000000000000000000, 6.982962677686266711E-15, 0.000000000000000000 ) ) ;
#60 = CLOSED_SHELL ( 'NONE', ( #325, #20, #227, #275, #201 ) ) ;
#61 = PLANE ( 'NONE',  #310 ) ;
#62 = DIRECTION ( 'NONE',  ( -2.445537663138590609E-29, 3.491382731766705123E-15, 1.000000000000000000 ) ) ;
#63 = EDGE_CURVE ( 'NONE', #277, #37, #229, .T. ) ;
#64 = ORIENTED_EDGE ( 'NONE', *, *, #13, .F. ) ;
#65 = APPROVAL_PERSON_ORGANIZATION ( #276, #331, #366 ) ;
#66 = COORDINATED_UNIVERSAL_TIME_OFFSET ( 5, 0, .BEHIND. ) ;
#67 = EDGE_LOOP ( 'NONE', ( #241, #369, #211, #45 ) ) ;
#68 = CALENDAR_DATE ( 2024, 22, 4 ) ;
#69 = EDGE_LOOP ( 'NONE', ( #46, #225, #41 ) ) ;
#70 = CALENDAR_DATE ( 2024, 22, 4 ) ;
#71 = ORIENTED_EDGE ( 'NONE', *, *, #5, .T. ) ;
#72 = CONICAL_SURFACE ( 'NONE', #25, 146.9311341562583948, 1.308996938995752979 ) ;
#73 = LOCAL_TIME ( 14, 57, 41.00000000000000000, #66 ) ;
#74 = ORIENTED_EDGE ( 'NONE', *, *, #314, .F. ) ;
#75 = PRODUCT ( '53022', '53022', '', ( #242 ) ) ;
#76 = CARTESIAN_POINT ( 'NONE',  ( -0.07850000000000000033, -1.733945016211490388E-15, -0.03125000000000019429 ) ) ;
#77 = EDGE_CURVE ( 'NONE', #249, #183, #230, .T. ) ;
#78 = APPROVAL_DATE_TIME ( #51, #165 ) ;
#79 = DIRECTION ( 'NONE',  ( 1.000000000000000000, -6.982962677686266711E-15, 0.000000000000000000 ) ) ;
#80 = PRODUCT_DEFINITION ( 'UNKNOWN', '', #123, #17 ) ;
#81 = CIRCLE ( 'NONE', #359, 0.07800000000000016642 ) ;
#82 = CARTESIAN_POINT ( 'NONE',  ( -0.07850000000000016687, -3.916557288155812394E-15, -1.281500000000000306 ) ) ;
#83 = DIRECTION ( 'NONE',  ( -2.445468806185136597E-29, 3.491481338843145583E-15, 1.000000000000000000 ) ) ;
#84 = CARTESIAN_POINT ( 'NONE',  ( 2.994835545909338206E-48, -4.275831445896990567E-34, -1.224646799147357958E-19 ) ) ;
#85 = CC_DESIGN_PERSON_AND_ORGANIZATION_ASSIGNMENT ( #215, #130, ( #80 ) ) ;
#86 = CC_DESIGN_APPROVAL ( #271, ( #80 ) ) ;
#87 = CIRCLE ( 'NONE', #208, 0.07850000000000000033 ) ;
#88 = DIRECTION ( 'NONE',  ( -2.445537663138590609E-29, 3.491382731766705123E-15, 1.000000000000000000 ) ) ;
#89 = CIRCLE ( 'NONE', #342, 0.07850000000000000033 ) ;
#90 = CARTESIAN_POINT ( 'NONE',  ( 0.000000000000000000, 0.000000000000000000, 0.000000000000000000 ) ) ;
#91 = DIRECTION ( 'NONE',  ( -2.445537663138590609E-29, 3.491382731766705123E-15, 1.000000000000000000 ) ) ;
#92 = FACE_OUTER_BOUND ( 'NONE', #339, .T. ) ;
#93 = AXIS2_PLACEMENT_3D ( 'NONE', #30, #204, #59 ) ;
#94 = EDGE_CURVE ( 'NONE', #141, #43, #87, .T. ) ;
#95 = VERTEX_POINT ( 'NONE', #319 ) ;
#96 = DIRECTION ( 'NONE',  ( -6.982962677686264344E-15, -1.000000000000000000, 3.480061138425812861E-15 ) ) ;
#97 = VERTEX_POINT ( 'NONE', #48 ) ;
#98 = AXIS2_PLACEMENT_3D ( 'NONE', #151, #293, #23 ) ;
#99 = EDGE_CURVE ( 'NONE', #272, #141, #380, .T. ) ;
#100 = DATE_AND_TIME ( #364, #73 ) ;
#101 = ORIENTED_EDGE ( 'NONE', *, *, #29, .F. ) ;
#102 = COORDINATED_UNIVERSAL_TIME_OFFSET ( 5, 0, .BEHIND. ) ;
#103 = ORIENTED_EDGE ( 'NONE', *, *, #77, .T. ) ;
#104 = SECURITY_CLASSIFICATION_LEVEL ( 'unclassified' ) ;
#105 = ORIENTED_EDGE ( 'NONE', *, *, #39, .F. ) ;
#106 = DIRECTION ( 'NONE',  ( -2.445537663138590609E-29, 3.491382731766705123E-15, 1.000000000000000000 ) ) ;
#107 = EDGE_CURVE ( 'NONE', #298, #249, #194, .T. ) ;
#108 = CARTESIAN_POINT ( 'NONE',  ( 0.000000000000000000, 0.000000000000000000, 0.000000000000000000 ) ) ;
#109 = DIRECTION ( 'NONE',  ( 1.000000000000000000, -6.982962677686266711E-15, 4.876176775795936353E-29 ) ) ;
#110 = PERSON_AND_ORGANIZATION_ROLE ( 'design_supplier' ) ;
#111 = AXIS2_PLACEMENT_3D ( 'NONE', #312, #259, #196 ) ;
#112 = DIRECTION ( 'NONE',  ( -0.7071067811865453523, 2.468850131082234184E-15, -0.7071067811865496822 ) ) ;
#113 = DIRECTION ( 'NONE',  ( 1.000000000000000000, -6.982962677686261977E-15, 0.000000000000000000 ) ) ;
#114 = MANIFOLD_SOLID_BREP ( 'Body-Move/Copy2[2]', #317 ) ;
#115 = FACE_OUTER_BOUND ( 'NONE', #125, .T. ) ;
#116 = CIRCLE ( 'NONE', #111, 0.07800000000000016642 ) ;
#117 = DIRECTION ( 'NONE',  ( 1.000000000000000000, -6.982962677686261977E-15, 0.000000000000000000 ) ) ;
#118 = DIRECTION ( 'NONE',  ( -2.445468806185136877E-29, 3.491481338843145188E-15, 1.000000000000000000 ) ) ;
#119 = DIRECTION ( 'NONE',  ( 2.445468806185136597E-29, -3.491481338843145583E-15, -1.000000000000000000 ) ) ;
#120 = EDGE_CURVE ( 'NONE', #277, #141, #53, .T. ) ;
#121 = DIRECTION ( 'NONE',  ( -2.445468806185136597E-29, 3.491481338843145583E-15, 1.000000000000000000 ) ) ;
#122 = VECTOR ( 'NONE', #166, 39.37007874015748143 ) ;
#123 = PRODUCT_DEFINITION_FORMATION_WITH_SPECIFIED_SOURCE ( 'ANY', '', #75, .NOT_KNOWN. ) ;
#124 = CARTESIAN_POINT ( 'NONE',  ( 0.07800000000000016642, -5.020750165256442268E-15, -1.281999999999999806 ) ) ;
#125 = EDGE_LOOP ( 'NONE', ( #251, #308 ) ) ;
#126 = DIRECTION ( 'NONE',  ( -2.445468806185136597E-29, 3.491481338843145583E-15, 1.000000000000000000 ) ) ;
#127 = EDGE_LOOP ( 'NONE', ( #163, #129 ) ) ;
#128 =( NAMED_UNIT ( * ) SI_UNIT ( $, .STERADIAN. ) SOLID_ANGLE_UNIT ( ) );
#129 = ORIENTED_EDGE ( 'NONE', *, *, #375, .T. ) ;
#130 = PERSON_AND_ORGANIZATION_ROLE ( 'creator' ) ;
#131 = EDGE_LOOP ( 'NONE', ( #335, #168, #33, #361 ) ) ;
#132 =( LENGTH_UNIT ( ) NAMED_UNIT ( * ) SI_UNIT ( $, .METRE. ) );
#133 = ORIENTED_EDGE ( 'NONE', *, *, #282, .F. ) ;
#134 = DIRECTION ( 'NONE',  ( -2.445468806185136597E-29, 3.491481338843145583E-15, 1.000000000000000000 ) ) ;
#135 = CC_DESIGN_APPROVAL ( #165, ( #202 ) ) ;
#136 = APPROVAL_PERSON_ORGANIZATION ( #153, #271, #362 ) ;
#137 = FACE_OUTER_BOUND ( 'NONE', #270, .T. ) ;
#138 = PERSON_AND_ORGANIZATION ( #28, #252 ) ;
#139 = DIRECTION ( 'NONE',  ( -2.445468806185136597E-29, 3.491481338843145583E-15, 1.000000000000000000 ) ) ;
#140 = EDGE_CURVE ( 'NONE', #247, #363, #116, .T. ) ;
#141 = VERTEX_POINT ( 'NONE', #283 ) ;
#142 = CIRCLE ( 'NONE', #54, 0.04724999999999999339 ) ;
#143 = CARTESIAN_POINT ( 'NONE',  ( 5.577760475717098083E-16, 0.07849999999999551781, -1.282000000000000473 ) ) ;
#144 = CARTESIAN_POINT ( 'NONE',  ( 1.497417772954669103E-48, -2.137915722948495283E-34, -6.123233995736789792E-20 ) ) ;
#145 = EDGE_CURVE ( 'NONE', #97, #43, #253, .T. ) ;
#146 = DIRECTION ( 'NONE',  ( -2.438088387897960049E-29, 3.491481338843145188E-15, 1.000000000000000000 ) ) ;
#147 = LOCAL_TIME ( 14, 57, 41.00000000000000000, #102 ) ;
#148 = CIRCLE ( 'NONE', #213, 0.07850000000000000033 ) ;
#149 = FACE_OUTER_BOUND ( 'NONE', #243, .T. ) ;
#150 = CC_DESIGN_PERSON_AND_ORGANIZATION_ASSIGNMENT ( #195, #250, ( #123 ) ) ;
#151 = CARTESIAN_POINT ( 'NONE',  ( 6.062316415643165478E-29, -8.655145458788340677E-15, -2.478965988394157272 ) ) ;
#152 = PLANE ( 'NONE',  #268 ) ;
#153 = PERSON_AND_ORGANIZATION ( #28, #252 ) ;
#154 = CONICAL_SURFACE ( 'NONE', #371, 0.07850000000000016687, 0.7853981633978239785 ) ;
#155 = ORIENTED_EDGE ( 'NONE', *, *, #99, .F. ) ;
#156 = DIRECTION ( 'NONE',  ( 1.000000000000000000, 0.000000000000000000, 0.000000000000000000 ) ) ;
#157 = ORIENTED_EDGE ( 'NONE', *, *, #94, .F. ) ;
#158 = ORIENTED_EDGE ( 'NONE', *, *, #145, .T. ) ;
#159 = DATE_TIME_ROLE ( 'creation_date' ) ;
#160 = ORIENTED_EDGE ( 'NONE', *, *, #77, .F. ) ;
#161 = AXIS2_PLACEMENT_3D ( 'NONE', #199, #281, #231 ) ;
#162 =( CONVERSION_BASED_UNIT ( 'INCH', #44 ) LENGTH_UNIT ( ) NAMED_UNIT ( #38 ) );
#163 = ORIENTED_EDGE ( 'NONE', *, *, #344, .T. ) ;
#164 = CARTESIAN_POINT ( 'NONE',  ( -0.07850000000000000033, 4.390537783595229387E-16, -0.03125000000000019429 ) ) ;
#165 = APPROVAL ( #224, 'UNSPECIFIED' ) ;
#166 = DIRECTION ( 'NONE',  ( -2.445468806185136877E-29, 3.491481338843145188E-15, 1.000000000000000000 ) ) ;
#167 = AXIS2_PLACEMENT_3D ( 'NONE', #353, #91, #384 ) ;
#168 = ORIENTED_EDGE ( 'NONE', *, *, #99, .T. ) ;
#169 = CALENDAR_DATE ( 2024, 22, 4 ) ;
#170 = DIRECTION ( 'NONE',  ( 1.000000000000000000, -6.982962677686266711E-15, 0.000000000000000000 ) ) ;
#171 = DATE_AND_TIME ( #70, #147 ) ;
#172 = LINE ( 'NONE', #315, #246 ) ;
#173 = AXIS2_PLACEMENT_3D ( 'NONE', #212, #217, #156 ) ;
#174 = CONICAL_SURFACE ( 'NONE', #93, 0.07850000000000000033, 0.7853981633974452814 ) ;
#175 = PLANE ( 'NONE',  #260 ) ;
#176 = EDGE_CURVE ( 'NONE', #97, #272, #354, .T. ) ;
#177 = DIRECTION ( 'NONE',  ( 2.438088387897960049E-29, -3.491481338843145188E-15, -1.000000000000000000 ) ) ;
#178 = CARTESIAN_POINT ( 'NONE',  ( 6.113844157846477082E-29, -8.728456829416763201E-15, -2.500000000000000000 ) ) ;
#179 = FACE_OUTER_BOUND ( 'NONE', #69, .T. ) ;
#180 = DIRECTION ( 'NONE',  ( -6.982962677686267499E-15, -1.000000000000000000, 3.510303681827559575E-15 ) ) ;
#181 = CYLINDRICAL_SURFACE ( 'NONE', #182, 0.07850000000000000033 ) ;
#182 = AXIS2_PLACEMENT_3D ( 'NONE', #40, #190, #303 ) ;
#183 = VERTEX_POINT ( 'NONE', #12 ) ;
#184 = ADVANCED_FACE ( 'NONE', ( #137 ), #374, .T. ) ;
#185 = ADVANCED_FACE ( 'NONE', ( #228 ), #174, .T. ) ;
#186 = APPROVAL_DATE_TIME ( #100, #271 ) ;
#187 = ORIENTED_EDGE ( 'NONE', *, *, #39, .T. ) ;
#188 = DATE_AND_TIME ( #68, #244 ) ;
#189 = ORIENTED_EDGE ( 'NONE', *, *, #120, .F. ) ;
#190 = DIRECTION ( 'NONE',  ( -2.445537663138590609E-29, 3.491382731766705123E-15, 1.000000000000000000 ) ) ;
#191 = ORIENTED_EDGE ( 'NONE', *, *, #29, .T. ) ;
#192 = ADVANCED_FACE ( 'NONE', ( #207 ), #175, .F. ) ;
#193 = CONICAL_SURFACE ( 'NONE', #18, 146.9311341562583948, 1.308996938995752979 ) ;
#194 = LINE ( 'NONE', #15, #301 ) ;
#195 = PERSON_AND_ORGANIZATION ( #28, #252 ) ;
#196 = DIRECTION ( 'NONE',  ( 1.000000000000000000, -6.982962677686268288E-15, 0.000000000000000000 ) ) ;
#197 = CARTESIAN_POINT ( 'NONE',  ( 3.133868275126253226E-29, -4.474333335727491929E-15, -1.281500000000000306 ) ) ;
#198 = CARTESIAN_POINT ( 'NONE',  ( 7.642090019328599159E-31, -1.091087918388489774E-16, -0.03125000000000019429 ) ) ;
#199 = CARTESIAN_POINT ( 'NONE',  ( 3.133868275126253226E-29, -4.474333335727491929E-15, -1.281500000000000306 ) ) ;
#200 = DIRECTION ( 'NONE',  ( -2.445537663138590609E-29, 3.491382731766705123E-15, 1.000000000000000000 ) ) ;
#201 = ADVANCED_FACE ( 'NONE', ( #330 ), #61, .F. ) ;
#202 = SECURITY_CLASSIFICATION ( '', '', #104 ) ;
#203 = LOCAL_TIME ( 14, 57, 41.00000000000000000, #257 ) ;
#204 = DIRECTION ( 'NONE',  ( 2.445468806185136597E-29, -3.491481338843145583E-15, -1.000000000000000000 ) ) ;
#205 = CARTESIAN_POINT ( 'NONE',  ( 3.135091009529345467E-29, -4.476079076396913433E-15, -1.282000000000000250 ) ) ;
#206 = EDGE_CURVE ( 'NONE', #272, #97, #142, .T. ) ;
#207 = FACE_OUTER_BOUND ( 'NONE', #6, .T. ) ;
#208 = AXIS2_PLACEMENT_3D ( 'NONE', #198, #351, #170 ) ;
#209 = CARTESIAN_POINT ( 'NONE',  ( 3.133868275126253226E-29, -4.474333335727491929E-15, -1.281500000000000306 ) ) ;
#210 = FACE_OUTER_BOUND ( 'NONE', #389, .T. ) ;
#211 = ORIENTED_EDGE ( 'NONE', *, *, #63, .F. ) ;
#212 = CARTESIAN_POINT ( 'NONE',  ( 0.000000000000000000, 0.000000000000000000, 0.000000000000000000 ) ) ;
#213 = AXIS2_PLACEMENT_3D ( 'NONE', #346, #347, #316 ) ;
#214 = ORIENTED_EDGE ( 'NONE', *, *, #140, .T. ) ;
#215 = PERSON_AND_ORGANIZATION ( #28, #252 ) ;
#216 = ORIENTED_EDGE ( 'NONE', *, *, #107, .T. ) ;
#217 = DIRECTION ( 'NONE',  ( 0.000000000000000000, 0.000000000000000000, 1.000000000000000000 ) ) ;
#218 = ORIENTED_EDGE ( 'NONE', *, *, #24, .T. ) ;
#219 = COORDINATED_UNIVERSAL_TIME_OFFSET ( 5, 0, .BEHIND. ) ;
#220 = CC_DESIGN_SECURITY_CLASSIFICATION ( #202, ( #123 ) ) ;
#221 = CC_DESIGN_DATE_AND_TIME_ASSIGNMENT ( #188, #159, ( #80 ) ) ;
#222 = ORIENTED_EDGE ( 'NONE', *, *, #63, .T. ) ;
#223 = VECTOR ( 'NONE', #349, 39.37007874015748143 ) ;
#224 = APPROVAL_STATUS ( 'not_yet_approved' ) ;
#225 = ORIENTED_EDGE ( 'NONE', *, *, #313, .T. ) ;
#226 = FACE_OUTER_BOUND ( 'NONE', #337, .T. ) ;
#227 = ADVANCED_FACE ( 'NONE', ( #179 ), #193, .T. ) ;
#228 = FACE_OUTER_BOUND ( 'NONE', #131, .T. ) ;
#229 = CIRCLE ( 'NONE', #9, 0.07850000000000016687 ) ;
#230 = LINE ( 'NONE', #143, #323 ) ;
#231 = DIRECTION ( 'NONE',  ( 1.000000000000000000, -6.982962677686261977E-15, 0.000000000000000000 ) ) ;
#232 = CARTESIAN_POINT ( 'NONE',  ( -0.07800000000000016642, -3.919206515329922017E-15, -1.281999999999999806 ) ) ;
#233 = CIRCLE ( 'NONE', #302, 0.07850000000000000033 ) ;
#234 = LINE ( 'NONE', #295, #333 ) ;
#235 = CARTESIAN_POINT ( 'NONE',  ( -0.07850000000000016687, -3.916557288155812394E-15, -1.281500000000000306 ) ) ;
#236 = ADVANCED_FACE ( 'NONE', ( #115 ), #152, .F. ) ;
#237 = LINE ( 'NONE', #383, #372 ) ;
#238 = CARTESIAN_POINT ( 'NONE',  ( 3.135091009529345467E-29, -4.476079076396913433E-15, -1.282000000000000250 ) ) ;
#239 = MANIFOLD_SOLID_BREP ( 'Body-Move/Copy2[1]', #60 ) ;
#240 = DIRECTION ( 'NONE',  ( 1.000000000000000000, -6.982962677686261977E-15, 0.000000000000000000 ) ) ;
#241 = ORIENTED_EDGE ( 'NONE', *, *, #13, .T. ) ;
#242 = MECHANICAL_CONTEXT ( 'NONE', #288, 'mechanical' ) ;
#243 = EDGE_LOOP ( 'NONE', ( #155, #343, #158, #191 ) ) ;
#244 = LOCAL_TIME ( 14, 57, 41.00000000000000000, #336 ) ;
#245 = CARTESIAN_POINT ( 'NONE',  ( 3.133868275126253226E-29, -4.474333335727491929E-15, -1.281500000000000306 ) ) ;
#246 = VECTOR ( 'NONE', #378, 39.37007874015748854 ) ;
#247 = VERTEX_POINT ( 'NONE', #232 ) ;
#248 = APPROVAL_STATUS ( 'not_yet_approved' ) ;
#249 = VERTEX_POINT ( 'NONE', #326 ) ;
#250 = PERSON_AND_ORGANIZATION_ROLE ( 'creator' ) ;
#251 = ORIENTED_EDGE ( 'NONE', *, *, #176, .T. ) ;
#252 = ORGANIZATION ( 'UNSPECIFIED', 'UNSPECIFIED', '' ) ;
#253 = LINE ( 'NONE', #164, #329 ) ;
#254 = VECTOR ( 'NONE', #357, 39.37007874015748854 ) ;
#255 = DIRECTION ( 'NONE',  ( -2.445537663138590609E-29, 3.491382731766705123E-15, 1.000000000000000000 ) ) ;
#256 = ADVANCED_FACE ( 'NONE', ( #263 ), #154, .T. ) ;
#257 = COORDINATED_UNIVERSAL_TIME_OFFSET ( 5, 0, .BEHIND. ) ;
#258 = ORIENTED_EDGE ( 'NONE', *, *, #313, .F. ) ;
#259 = DIRECTION ( 'NONE',  ( -2.445468806185136597E-29, 3.491481338843145583E-15, 1.000000000000000000 ) ) ;
#260 = AXIS2_PLACEMENT_3D ( 'NONE', #238, #146, #291 ) ;
#261 = DIRECTION ( 'NONE',  ( -2.445468806185136597E-29, 3.491481338843145583E-15, 1.000000000000000000 ) ) ;
#262 = LINE ( 'NONE', #381, #32 ) ;
#263 = FACE_OUTER_BOUND ( 'NONE', #67, .T. ) ;
#264 = AXIS2_PLACEMENT_3D ( 'NONE', #90, #267, #296 ) ;
#265 = DIRECTION ( 'NONE',  ( -6.745023994389847810E-15, -0.9659258262890689783, 0.2588190451025185745 ) ) ;
#266 = CARTESIAN_POINT ( 'NONE',  ( 7.642090019328599159E-31, -1.091087918388489774E-16, -0.03125000000000019429 ) ) ;
#267 = DIRECTION ( 'NONE',  ( -2.445468806185136597E-29, 3.491481338843145583E-15, 1.000000000000000000 ) ) ;
#268 = AXIS2_PLACEMENT_3D ( 'NONE', #144, #177, #382 ) ;
#269 = APPROVAL_STATUS ( 'not_yet_approved' ) ;
#270 = EDGE_LOOP ( 'NONE', ( #74, #187, #280, #101 ) ) ;
#271 = APPROVAL ( #269, 'UNSPECIFIED' ) ;
#272 = VERTEX_POINT ( 'NONE', #55 ) ;
#273 = PRODUCT_DEFINITION_SHAPE ( 'NONE', 'NONE',  #80 ) ;
#274 = ORIENTED_EDGE ( 'NONE', *, *, #24, .F. ) ;
#275 = ADVANCED_FACE ( 'NONE', ( #22 ), #290, .T. ) ;
#276 = PERSON_AND_ORGANIZATION ( #28, #252 ) ;
#277 = VERTEX_POINT ( 'NONE', #21 ) ;
#278 = CC_DESIGN_PERSON_AND_ORGANIZATION_ASSIGNMENT ( #138, #14, ( #202 ) ) ;
#279 = DIRECTION ( 'NONE',  ( -6.982962677686264344E-15, -1.000000000000000000, 3.480061138425812861E-15 ) ) ;
#280 = ORIENTED_EDGE ( 'NONE', *, *, #120, .T. ) ;
#281 = DIRECTION ( 'NONE',  ( -2.445468806185136597E-29, 3.491481338843145583E-15, 1.000000000000000000 ) ) ;
#282 = EDGE_CURVE ( 'NONE', #390, #95, #234, .T. ) ;
#283 = CARTESIAN_POINT ( 'NONE',  ( 0.07850000000000000033, -6.572713620372208442E-16, -0.03125000000000019429 ) ) ;
#284 = PRODUCT_RELATED_PRODUCT_CATEGORY ( 'detail', '', ( #75 ) ) ;
#285 = CARTESIAN_POINT ( 'NONE',  ( 3.135091009529344906E-29, -4.476079076396911855E-15, -1.281999999999999806 ) ) ;
#286 = SHAPE_DEFINITION_REPRESENTATION ( #273, #42 ) ;
#287 = DIRECTION ( 'NONE',  ( 1.000000000000000000, -6.982962677686268288E-15, 0.000000000000000000 ) ) ;
#288 = APPLICATION_CONTEXT ( 'configuration controlled 3d designs of mechanical parts and assemblies' ) ;
#289 = CARTESIAN_POINT ( 'NONE',  ( 7.642090019328599159E-31, -1.091087918388489774E-16, -0.03125000000000019429 ) ) ;
#290 = CYLINDRICAL_SURFACE ( 'NONE', #167, 0.07850000000000000033 ) ;
#291 = DIRECTION ( 'NONE',  ( 1.000000000000000000, -6.982962677686265922E-15, 4.876176775795935793E-29 ) ) ;
#292 = ADVANCED_FACE ( 'NONE', ( #27 ), #356, .T. ) ;
#293 = DIRECTION ( 'NONE',  ( -2.445537663138590609E-29, 3.491382731766705123E-15, 1.000000000000000000 ) ) ;
#294 = CIRCLE ( 'NONE', #34, 0.07850000000000000033 ) ;
#295 = CARTESIAN_POINT ( 'NONE',  ( -5.481625701983404849E-16, -0.07850000000000446898, -1.281999999999999806 ) ) ;
#296 = DIRECTION ( 'NONE',  ( 1.000000000000000000, -6.982962677686266711E-15, 4.876176775795936353E-29 ) ) ;
#297 = APPLICATION_PROTOCOL_DEFINITION ( 'international standard', 'config_control_design', 1994, #26 ) ;
#298 = VERTEX_POINT ( 'NONE', #178 ) ;
#299 =( GEOMETRIC_REPRESENTATION_CONTEXT ( 3 ) GLOBAL_UNCERTAINTY_ASSIGNED_CONTEXT ( ( #57 ) ) GLOBAL_UNIT_ASSIGNED_CONTEXT ( ( #162, #334, #128 ) ) REPRESENTATION_CONTEXT ( 'NONE', 'WORKASPACE' ) );
#300 = CC_DESIGN_PERSON_AND_ORGANIZATION_ASSIGNMENT ( #47, #110, ( #123 ) ) ;
#301 = VECTOR ( 'NONE', #50, 39.37007874015748854 ) ;
#302 = AXIS2_PLACEMENT_3D ( 'NONE', #360, #309, #279 ) ;
#303 = DIRECTION ( 'NONE',  ( -6.982962677686264344E-15, -1.000000000000000000, 3.480061138425812861E-15 ) ) ;
#304 = ORIENTED_EDGE ( 'NONE', *, *, #314, .T. ) ;
#305 = EDGE_CURVE ( 'NONE', #249, #390, #49, .T. ) ;
#306 = EDGE_LOOP ( 'NONE', ( #222, #304, #157, #189 ) ) ;
#307 = ADVANCED_FACE ( 'NONE', ( #149 ), #355, .T. ) ;
#308 = ORIENTED_EDGE ( 'NONE', *, *, #206, .T. ) ;
#309 = DIRECTION ( 'NONE',  ( -2.445537663138590609E-29, 3.491382731766705123E-15, 1.000000000000000000 ) ) ;
#310 = AXIS2_PLACEMENT_3D ( 'NONE', #205, #56, #328 ) ;
#311 = ORIENTED_EDGE ( 'NONE', *, *, #282, .T. ) ;
#312 = CARTESIAN_POINT ( 'NONE',  ( 3.135091009529344906E-29, -4.476079076396911855E-15, -1.281999999999999806 ) ) ;
#313 = EDGE_CURVE ( 'NONE', #298, #390, #262, .T. ) ;
#314 = EDGE_CURVE ( 'NONE', #37, #43, #237, .T. ) ;
#315 = CARTESIAN_POINT ( 'NONE',  ( 0.07850000000000016687, -5.022495905925864560E-15, -1.281500000000000306 ) ) ;
#316 = DIRECTION ( 'NONE',  ( -6.982962677686264344E-15, -1.000000000000000000, 6.960122276851625723E-15 ) ) ;
#317 = CLOSED_SHELL ( 'NONE', ( #185, #292, #256, #192, #348, #184, #307, #236 ) ) ;
#318 = EDGE_CURVE ( 'NONE', #247, #37, #358, .T. ) ;
#319 = CARTESIAN_POINT ( 'NONE',  ( -5.481625701983404849E-16, -0.07850000000000446898, -1.281999999999999806 ) ) ;
#320 = APPROVAL_DATE_TIME ( #171, #331 ) ;
#321 = CARTESIAN_POINT ( 'NONE',  ( 0.07850000000000008360, -5.481625701983725324E-16, 3.827798768999813969E-30 ) ) ;
#322 = DIRECTION ( 'NONE',  ( 1.000000000000000000, -6.982962677686266711E-15, 4.876187399718476422E-29 ) ) ;
#323 = VECTOR ( 'NONE', #106, 39.37007874015748143 ) ;
#324 = CARTESIAN_POINT ( 'NONE',  ( -9.016725447655489455E-28, 1.287274298179925665E-13, 36.87007874015748143 ) ) ;
#325 = ADVANCED_FACE ( 'NONE', ( #92 ), #181, .T. ) ;
#326 = CARTESIAN_POINT ( 'NONE',  ( 5.577760475717392920E-16, 0.07849999999999134059, -2.478965988394158160 ) ) ;
#327 = CC_DESIGN_DATE_AND_TIME_ASSIGNMENT ( #16, #11, ( #202 ) ) ;
#328 = DIRECTION ( 'NONE',  ( 6.982962677686265922E-15, 1.000000000000000000, -3.491382731766705123E-15 ) ) ;
#329 = VECTOR ( 'NONE', #112, 39.37007874015748143 ) ;
#330 = FACE_OUTER_BOUND ( 'NONE', #127, .T. ) ;
#331 = APPROVAL ( #248, 'UNSPECIFIED' ) ;
#332 = EDGE_LOOP ( 'NONE', ( #160, #365, #311, #367 ) ) ;
#333 = VECTOR ( 'NONE', #88, 39.37007874015748143 ) ;
#334 =( NAMED_UNIT ( * ) PLANE_ANGLE_UNIT ( ) SI_UNIT ( $, .RADIAN. ) );
#335 = ORIENTED_EDGE ( 'NONE', *, *, #206, .F. ) ;
#336 = COORDINATED_UNIVERSAL_TIME_OFFSET ( 5, 0, .BEHIND. ) ;
#337 = EDGE_LOOP ( 'NONE', ( #258, #216, #274 ) ) ;
#338 = PERSON_AND_ORGANIZATION ( #28, #252 ) ;
#339 = EDGE_LOOP ( 'NONE', ( #218, #103, #52, #133 ) ) ;
#340 = APPROVAL_PERSON_ORGANIZATION ( #345, #165, #376 ) ;
#341 = AXIS2_PLACEMENT_3D ( 'NONE', #108, #139, #109 ) ;
#342 = AXIS2_PLACEMENT_3D ( 'NONE', #1, #62, #96 ) ;
#343 = ORIENTED_EDGE ( 'NONE', *, *, #176, .F. ) ;
#344 = EDGE_CURVE ( 'NONE', #95, #183, #89, .T. ) ;
#345 = PERSON_AND_ORGANIZATION ( #28, #252 ) ;
#346 = CARTESIAN_POINT ( 'NONE',  ( 6.062316415643165478E-29, -8.655145458788340677E-15, -2.478965988394157272 ) ) ;
#347 = DIRECTION ( 'NONE',  ( -2.445537663138590609E-29, 3.491382731766705123E-15, 1.000000000000000000 ) ) ;
#348 = ADVANCED_FACE ( 'NONE', ( #210 ), #8, .T. ) ;
#349 = DIRECTION ( 'NONE',  ( 0.7071067811865453523, -7.319954787623248157E-15, -0.7071067811865496822 ) ) ;
#350 = CC_DESIGN_PERSON_AND_ORGANIZATION_ASSIGNMENT ( #338, #31, ( #75 ) ) ;
#351 = DIRECTION ( 'NONE',  ( -2.445468806185136597E-29, 3.491481338843145583E-15, 1.000000000000000000 ) ) ;
#352 = CARTESIAN_POINT ( 'NONE',  ( -9.016725447655489455E-28, 1.287274298179925665E-13, 36.87007874015748143 ) ) ;
#353 = CARTESIAN_POINT ( 'NONE',  ( 3.135091009529345467E-29, -4.476079076396913433E-15, -1.282000000000000250 ) ) ;
#354 = CIRCLE ( 'NONE', #379, 0.04724999999999999339 ) ;
#355 = CONICAL_SURFACE ( 'NONE', #35, 0.07850000000000000033, 0.7853981633974452814 ) ;
#356 = CYLINDRICAL_SURFACE ( 'NONE', #264, 0.07850000000000008360 ) ;
#357 = DIRECTION ( 'NONE',  ( -0.7071067811868130271, 7.493145998871311837E-15, 0.7071067811862817853 ) ) ;
#358 = LINE ( 'NONE', #235, #254 ) ;
#359 = AXIS2_PLACEMENT_3D ( 'NONE', #285, #83, #287 ) ;
#360 = CARTESIAN_POINT ( 'NONE',  ( 3.135091009529345467E-29, -4.476079076396913433E-15, -1.282000000000000250 ) ) ;
#361 = ORIENTED_EDGE ( 'NONE', *, *, #145, .F. ) ;
#362 = APPROVAL_ROLE ( '' ) ;
#363 = VERTEX_POINT ( 'NONE', #124 ) ;
#364 = CALENDAR_DATE ( 2024, 22, 4 ) ;
#365 = ORIENTED_EDGE ( 'NONE', *, *, #305, .T. ) ;
#366 = APPROVAL_ROLE ( '' ) ;
#367 = ORIENTED_EDGE ( 'NONE', *, *, #375, .F. ) ;
#368 = CALENDAR_DATE ( 2024, 22, 4 ) ;
#369 = ORIENTED_EDGE ( 'NONE', *, *, #318, .T. ) ;
#370 = AXIS2_PLACEMENT_3D ( 'NONE', #245, #126, #240 ) ;
#371 = AXIS2_PLACEMENT_3D ( 'NONE', #209, #121, #117 ) ;
#372 = VECTOR ( 'NONE', #118, 39.37007874015748143 ) ;
#373 = DIRECTION ( 'NONE',  ( 1.000000000000000000, -6.982962677686266711E-15, 4.876187399718476422E-29 ) ) ;
#374 = CYLINDRICAL_SURFACE ( 'NONE', #341, 0.07850000000000008360 ) ;
#375 = EDGE_CURVE ( 'NONE', #183, #95, #233, .T. ) ;
#376 = APPROVAL_ROLE ( '' ) ;
#377 = CARTESIAN_POINT ( 'NONE',  ( 2.994835545909338206E-48, -4.275831445896990567E-34, -1.224646799147357958E-19 ) ) ;
#378 = DIRECTION ( 'NONE',  ( 0.7071067811868130271, -2.468850131085038979E-15, 0.7071067811862817853 ) ) ;
#379 = AXIS2_PLACEMENT_3D ( 'NONE', #377, #19, #373 ) ;
#380 = LINE ( 'NONE', #7, #223 ) ;
#381 = CARTESIAN_POINT ( 'NONE',  ( 6.113667608617821287E-29, -8.728709657960756551E-15, -2.500000000000000000 ) ) ;
#382 = DIRECTION ( 'NONE',  ( -1.000000000000000000, 6.982962677686265922E-15, -4.876176775795935793E-29 ) ) ;
#383 = CARTESIAN_POINT ( 'NONE',  ( -0.07850000000000008360, 5.577760475716792399E-16, -3.861364045850105251E-30 ) ) ;
#384 = DIRECTION ( 'NONE',  ( -6.982962677686264344E-15, -1.000000000000000000, 3.480061138425812861E-15 ) ) ;
#385 = DIRECTION ( 'NONE',  ( -1.000000000000000000, 6.982962677686266711E-15, 0.000000000000000000 ) ) ;
#386 = LOCAL_TIME ( 14, 57, 41.00000000000000000, #219 ) ;
#387 = CC_DESIGN_APPROVAL ( #331, ( #123 ) ) ;
#388 = CARTESIAN_POINT ( 'NONE',  ( -5.481625701983112970E-16, -0.07850000000000864619, -2.478965988394156827 ) ) ;
#389 = EDGE_LOOP ( 'NONE', ( #2, #214, #71, #105 ) ) ;
#390 = VERTEX_POINT ( 'NONE', #388 ) ;
ENDSEC;
END-ISO-10303-21;
