ISO-10303-21;
HEADER;
FILE_DESCRIPTION (( 'STEP AP203' ),
    '1' );
FILE_NAME ('56038.STEP',
    '2024-04-22T19:56:41',
    ( '' ),
    ( '' ),
    'SwSTEP 2.0',
    'SolidWorks 2023',
    '' );
FILE_SCHEMA (( 'CONFIG_CONTROL_DESIGN' ));
ENDSEC;

DATA;
#1 = ADVANCED_FACE ( 'NONE', ( #333 ), #15, .T. ) ;
#2 = DIRECTION ( 'NONE',  ( -6.982962677686266711E-15, -1.000000000000000000, 5.382951711653720002E-15 ) ) ;
#3 = DIRECTION ( 'NONE',  ( -2.445468806185136597E-29, 3.491481338843145583E-15, 1.000000000000000000 ) ) ;
#4 = DESIGN_CONTEXT ( 'detailed design', #257, 'design' ) ;
#5 = ORIENTED_EDGE ( 'NONE', *, *, #50, .T. ) ;
#6 = CIRCLE ( 'NONE', #345, 0.05075000000000001732 ) ;
#7 = EDGE_CURVE ( 'NONE', #73, #77, #284, .T. ) ;
#8 = DIRECTION ( 'NONE',  ( -2.438088387897960049E-29, 3.491481338843145188E-15, 1.000000000000000000 ) ) ;
#9 = DIRECTION ( 'NONE',  ( -2.445468806185136597E-29, 3.491481338843145583E-15, 1.000000000000000000 ) ) ;
#10 = ORIENTED_EDGE ( 'NONE', *, *, #16, .F. ) ;
#11 = CONICAL_SURFACE ( 'NONE', #228, 0.05075000000000001732, 0.7853981633974450594 ) ;
#12 = CARTESIAN_POINT ( 'NONE',  ( 2.692461155609835411E-29, -3.844120954066303109E-15, -1.100999999999999979 ) ) ;
#13 = EDGE_CURVE ( 'NONE', #42, #301, #302, .T. ) ;
#14 = ORIENTED_EDGE ( 'NONE', *, *, #13, .F. ) ;
#15 = CONICAL_SURFACE ( 'NONE', #355, 108.1684023407336497, 1.221730476396032161 ) ;
#16 = EDGE_CURVE ( 'NONE', #77, #73, #321, .T. ) ;
#17 = EDGE_LOOP ( 'NONE', ( #342, #89, #48, #299 ) ) ;
#18 = PERSON_AND_ORGANIZATION_ROLE ( 'creator' ) ;
#19 = LINE ( 'NONE', #234, #74 ) ;
#20 = CIRCLE ( 'NONE', #58, 0.05025000000000016953 ) ;
#21 = ORIENTED_EDGE ( 'NONE', *, *, #7, .F. ) ;
#22 = DIRECTION ( 'NONE',  ( 1.000000000000000000, -6.982962677686267499E-15, 4.876158468089368575E-29 ) ) ;
#23 = EDGE_LOOP ( 'NONE', ( #179, #291, #14 ) ) ;
#24 = DATE_TIME_ROLE ( 'classification_date' ) ;
#25 = APPROVAL_DATE_TIME ( #382, #306 ) ;
#26 = CARTESIAN_POINT ( 'NONE',  ( -3.543853558925511236E-16, -0.05075000000000384759, -1.101499999999999924 ) ) ;
#27 = CIRCLE ( 'NONE', #213, 0.05025000000000016953 ) ;
#28 = VECTOR ( 'NONE', #215, 39.37007874015748143 ) ;
#29 = EDGE_CURVE ( 'NONE', #173, #65, #27, .T. ) ;
#30 = DIRECTION ( 'NONE',  ( -1.000000000000000000, 6.982962677686265133E-15, 0.000000000000000000 ) ) ;
#31 = DIRECTION ( 'NONE',  ( 2.445468105529666694E-29, -3.491482342221656799E-15, -1.000000000000000000 ) ) ;
#32 = DIRECTION ( 'NONE',  ( -2.445468806185136597E-29, 3.491481338843145583E-15, 1.000000000000000000 ) ) ;
#33 = CARTESIAN_POINT ( 'NONE',  ( 2.693683890012928212E-29, -3.845866694735725401E-15, -1.101500000000000146 ) ) ;
#34 = LINE ( 'NONE', #364, #262 ) ;
#35 = EDGE_LOOP ( 'NONE', ( #377, #384, #263 ) ) ;
#36 = LINE ( 'NONE', #336, #349 ) ;
#37 = DIRECTION ( 'NONE',  ( 6.982962677686265922E-15, 1.000000000000000000, -3.491482342221656799E-15 ) ) ;
#38 = EDGE_CURVE ( 'NONE', #127, #42, #247, .T. ) ;
#39 = AXIS2_PLACEMENT_3D ( 'NONE', #351, #359, #290 ) ;
#40 = APPROVAL_PERSON_ORGANIZATION ( #90, #129, #240 ) ;
#41 = PERSON ( 'UNSPECIFIED', 'UNSPECIFIED', 'UNSPECIFIED', ('UNSPECIFIED'), ('UNSPECIFIED'), ('UNSPECIFIED') ) ;
#42 = VERTEX_POINT ( 'NONE', #59 ) ;
#43 = VECTOR ( 'NONE', #242, 39.37007874015748854 ) ;
#44 =( LENGTH_UNIT ( ) NAMED_UNIT ( * ) SI_UNIT ( $, .METRE. ) );
#45 = AXIS2_PLACEMENT_3D ( 'NONE', #218, #165, #367 ) ;
#46 = ORIENTED_EDGE ( 'NONE', *, *, #261, .F. ) ;
#47 = LENGTH_MEASURE_WITH_UNIT ( LENGTH_MEASURE( 0.02539999999999999897 ), #44 );
#48 = ORIENTED_EDGE ( 'NONE', *, *, #341, .F. ) ;
#49 = APPROVAL_STATUS ( 'not_yet_approved' ) ;
#50 = EDGE_CURVE ( 'NONE', #353, #310, #34, .T. ) ;
#51 = EDGE_LOOP ( 'NONE', ( #46, #252, #357, #347 ) ) ;
#52 = APPROVAL_DATE_TIME ( #112, #106 ) ;
#53 = ORIENTED_EDGE ( 'NONE', *, *, #132, .F. ) ;
#54 = APPROVAL_STATUS ( 'not_yet_approved' ) ;
#55 = ADVANCED_FACE ( 'NONE', ( #246 ), #219, .T. ) ;
#56 = DIRECTION ( 'NONE',  ( -2.445468806185136877E-29, 3.491481338843145188E-15, 1.000000000000000000 ) ) ;
#57 = APPLICATION_PROTOCOL_DEFINITION ( 'international standard', 'config_control_design', 1994, #79 ) ;
#58 = AXIS2_PLACEMENT_3D ( 'NONE', #245, #373, #102 ) ;
#59 = CARTESIAN_POINT ( 'NONE',  ( 3.606004383982946506E-16, 0.05074999999999373068, -1.794028510610990779 ) ) ;
#60 = DIRECTION ( 'NONE',  ( -2.445468806185136597E-29, 3.491481338843145583E-15, 1.000000000000000000 ) ) ;
#61 = CC_DESIGN_PERSON_AND_ORGANIZATION_ASSIGNMENT ( #296, #358, ( #107 ) ) ;
#62 = DIRECTION ( 'NONE',  ( -2.445468806185136597E-29, 3.491481338843145583E-15, 1.000000000000000000 ) ) ;
#63 = DIRECTION ( 'NONE',  ( -6.982962677686266711E-15, -1.000000000000000000, 2.691475855826860001E-15 ) ) ;
#64 = FACE_OUTER_BOUND ( 'NONE', #137, .T. ) ;
#65 = VERTEX_POINT ( 'NONE', #193 ) ;
#66 = LOCAL_TIME ( 15, 56, 41.00000000000000000, #283 ) ;
#67 = DIRECTION ( 'NONE',  ( -2.445468806185136597E-29, 3.491481338843145583E-15, 1.000000000000000000 ) ) ;
#68 = ADVANCED_FACE ( 'NONE', ( #159 ), #125, .F. ) ;
#69 = DIRECTION ( 'NONE',  ( 1.000000000000000000, -6.982962677686270655E-15, 0.000000000000000000 ) ) ;
#70 = EDGE_LOOP ( 'NONE', ( #148, #337 ) ) ;
#71 = CC_DESIGN_PERSON_AND_ORGANIZATION_ASSIGNMENT ( #204, #324, ( #278 ) ) ;
#72 = ORIENTED_EDGE ( 'NONE', *, *, #338, .F. ) ;
#73 = VERTEX_POINT ( 'NONE', #149 ) ;
#74 = VECTOR ( 'NONE', #207, 39.37007874015748854 ) ;
#75 = ORIENTED_EDGE ( 'NONE', *, *, #104, .T. ) ;
#76 = PERSON_AND_ORGANIZATION_ROLE ( 'creator' ) ;
#77 = VERTEX_POINT ( 'NONE', #178 ) ;
#78 = DIRECTION ( 'NONE',  ( 1.000000000000000000, 0.000000000000000000, 0.000000000000000000 ) ) ;
#79 = APPLICATION_CONTEXT ( 'configuration controlled 3d designs of mechanical parts and assemblies' ) ;
#80 = CARTESIAN_POINT ( 'NONE',  ( 7.642090019328603538E-31, -1.091087918388490390E-16, -0.03125000000000021511 ) ) ;
#81 = VERTEX_POINT ( 'NONE', #293 ) ;
#82 = FACE_OUTER_BOUND ( 'NONE', #388, .T. ) ;
#83 = CC_DESIGN_APPROVAL ( #306, ( #236 ) ) ;
#84 = VERTEX_POINT ( 'NONE', #328 ) ;
#85 = MANIFOLD_SOLID_BREP ( 'Body-Move/Copy2[1]', #222 ) ;
#86 = EDGE_CURVE ( 'NONE', #127, #301, #19, .T. ) ;
#87 = COORDINATED_UNIVERSAL_TIME_OFFSET ( 5, 0, .BEHIND. ) ;
#88 = CARTESIAN_POINT ( 'NONE',  ( 4.432410941272521672E-29, -6.328311745276753861E-15, -1.812500000000000222 ) ) ;
#89 = ORIENTED_EDGE ( 'NONE', *, *, #289, .T. ) ;
#90 = PERSON_AND_ORGANIZATION ( #41, #152 ) ;
#91 = DIRECTION ( 'NONE',  ( -2.445468806185136597E-29, 3.491481338843145583E-15, 1.000000000000000000 ) ) ;
#92 = LINE ( 'NONE', #267, #43 ) ;
#93 = AXIS2_PLACEMENT_3D ( 'NONE', #385, #154, #78 ) ;
#94 = CARTESIAN_POINT ( 'NONE',  ( 2.693683890012928212E-29, -3.845866694735725401E-15, -1.101500000000000146 ) ) ;
#95 = CARTESIAN_POINT ( 'NONE',  ( -0.05075000000000001732, -1.616014434554323757E-15, -0.03125000000000021511 ) ) ;
#96 = DIRECTION ( 'NONE',  ( -2.445468105529666975E-29, 3.491482342221656799E-15, 1.000000000000000000 ) ) ;
#97 = DIRECTION ( 'NONE',  ( -2.445468806185136877E-29, 3.491481338843145188E-15, 1.000000000000000000 ) ) ;
#98 = CARTESIAN_POINT ( 'NONE',  ( 2.692461155609835411E-29, -3.844120954066303109E-15, -1.100999999999999979 ) ) ;
#99 = CARTESIAN_POINT ( 'NONE',  ( 2.693683890012928212E-29, -3.845866694735725401E-15, -1.101500000000000146 ) ) ;
#100 = AXIS2_PLACEMENT_3D ( 'NONE', #227, #201, #311 ) ;
#101 = EDGE_CURVE ( 'NONE', #301, #42, #191, .T. ) ;
#102 = DIRECTION ( 'NONE',  ( 1.000000000000000000, -6.982962677686265133E-15, 0.000000000000000000 ) ) ;
#103 = CARTESIAN_POINT ( 'NONE',  ( 7.642090019328603538E-31, -1.091087918388490390E-16, -0.03125000000000021511 ) ) ;
#104 = EDGE_CURVE ( 'NONE', #171, #81, #329, .T. ) ;
#105 = LINE ( 'NONE', #135, #316 ) ;
#106 = APPROVAL ( #254, 'UNSPECIFIED' ) ;
#107 = PRODUCT ( '56038', '56038', '', ( #183 ) ) ;
#108 = ORIENTED_EDGE ( 'NONE', *, *, #198, .T. ) ;
#109 = VECTOR ( 'NONE', #153, 39.37007874015748143 ) ;
#110 =( NAMED_UNIT ( * ) SI_UNIT ( $, .STERADIAN. ) SOLID_ANGLE_UNIT ( ) );
#111 = ADVANCED_FACE ( 'NONE', ( #258 ), #253, .T. ) ;
#112 = DATE_AND_TIME ( #380, #356 ) ;
#113 = ORIENTED_EDGE ( 'NONE', *, *, #239, .F. ) ;
#114 = DATE_TIME_ROLE ( 'creation_date' ) ;
#115 = PERSON_AND_ORGANIZATION_ROLE ( 'design_supplier' ) ;
#116 = AXIS2_PLACEMENT_3D ( 'NONE', #94, #214, #63 ) ;
#117 = LINE ( 'NONE', #238, #330 ) ;
#118 = CONICAL_SURFACE ( 'NONE', #372, 0.05075000000000014222, 0.7853981633975251064 ) ;
#119 = ORIENTED_EDGE ( 'NONE', *, *, #341, .T. ) ;
#120 = APPLICATION_PROTOCOL_DEFINITION ( 'international standard', 'config_control_design', 1994, #257 ) ;
#121 = FACE_OUTER_BOUND ( 'NONE', #35, .T. ) ;
#122 = CARTESIAN_POINT ( 'NONE',  ( 4.432412498351580729E-29, -6.328309534833892480E-15, -1.812500000000000222 ) ) ;
#123 = ADVANCED_FACE ( 'NONE', ( #121 ), #151, .T. ) ;
#124 = FACE_OUTER_BOUND ( 'NONE', #202, .T. ) ;
#125 = PLANE ( 'NONE',  #315 ) ;
#126 = FACE_OUTER_BOUND ( 'NONE', #70, .T. ) ;
#127 = VERTEX_POINT ( 'NONE', #88 ) ;
#128 = DIRECTION ( 'NONE',  ( 1.000000000000000000, -6.982962677686265922E-15, 4.876176775795935793E-29 ) ) ;
#129 = APPROVAL ( #54, 'UNSPECIFIED' ) ;
#130 = AXIS2_PLACEMENT_3D ( 'NONE', #363, #147, #354 ) ;
#131 = CIRCLE ( 'NONE', #223, 0.01950000000000000691 ) ;
#132 = EDGE_CURVE ( 'NONE', #65, #73, #92, .T. ) ;
#133 = CARTESIAN_POINT ( 'NONE',  ( 3.606004383982949464E-16, 0.05074999999999617317, -1.101500000000000368 ) ) ;
#134 = AXIS2_PLACEMENT_3D ( 'NONE', #334, #62, #300 ) ;
#135 = CARTESIAN_POINT ( 'NONE',  ( 0.05075000000000014222, -4.198506309958882533E-15, -1.100999999999999979 ) ) ;
#136 = EDGE_CURVE ( 'NONE', #368, #84, #199, .T. ) ;
#137 = EDGE_LOOP ( 'NONE', ( #119, #312 ) ) ;
#138 =( NAMED_UNIT ( * ) PLANE_ANGLE_UNIT ( ) SI_UNIT ( $, .RADIAN. ) );
#139 = ORIENTED_EDGE ( 'NONE', *, *, #369, .F. ) ;
#140 = CIRCLE ( 'NONE', #184, 0.01950000000000000691 ) ;
#141 = APPROVAL_PERSON_ORGANIZATION ( #265, #106, #361 ) ;
#142 = SECURITY_CLASSIFICATION_LEVEL ( 'unclassified' ) ;
#143 = DIRECTION ( 'NONE',  ( 2.445468806185136597E-29, -3.491481338843145583E-15, -1.000000000000000000 ) ) ;
#144 = ORIENTED_EDGE ( 'NONE', *, *, #16, .T. ) ;
#145 = PERSON_AND_ORGANIZATION ( #41, #152 ) ;
#146 = CC_DESIGN_PERSON_AND_ORGANIZATION_ASSIGNMENT ( #285, #115, ( #236 ) ) ;
#147 = DIRECTION ( 'NONE',  ( -2.445468105529666975E-29, 3.491482342221656799E-15, 1.000000000000000000 ) ) ;
#148 = ORIENTED_EDGE ( 'NONE', *, *, #169, .T. ) ;
#149 = CARTESIAN_POINT ( 'NONE',  ( -0.05075000000000014222, -3.483520515668051747E-15, -1.100999999999999979 ) ) ;
#150 = DATE_AND_TIME ( #319, #280 ) ;
#151 = CONICAL_SURFACE ( 'NONE', #371, 108.1684023407336497, 1.221730476396032161 ) ;
#152 = ORGANIZATION ( 'UNSPECIFIED', 'UNSPECIFIED', '' ) ;
#153 = DIRECTION ( 'NONE',  ( -2.445468105529666975E-29, 3.491482342221656799E-15, 1.000000000000000000 ) ) ;
#154 = DIRECTION ( 'NONE',  ( 0.000000000000000000, 0.000000000000000000, 1.000000000000000000 ) ) ;
#155 = DIRECTION ( 'NONE',  ( -6.982962677686266711E-15, -1.000000000000000000, 3.475157955500714298E-15 ) ) ;
#156 = ORIENTED_EDGE ( 'NONE', *, *, #13, .T. ) ;
#157 = PRODUCT_DEFINITION ( 'UNKNOWN', '', #236, #4 ) ;
#158 = FACE_OUTER_BOUND ( 'NONE', #17, .T. ) ;
#159 = FACE_OUTER_BOUND ( 'NONE', #281, .T. ) ;
#160 = AXIS2_PLACEMENT_3D ( 'NONE', #98, #91, #212 ) ;
#161 = FACE_OUTER_BOUND ( 'NONE', #51, .T. ) ;
#162 = UNCERTAINTY_MEASURE_WITH_UNIT (LENGTH_MEASURE( 1.000000000000000082E-05 ), #170, 'distance_accuracy_value', 'NONE');
#163 = CARTESIAN_POINT ( 'NONE',  ( 2.693683890012927652E-29, -3.845866694735724612E-15, -1.101499999999999924 ) ) ;
#164 = CARTESIAN_POINT ( 'NONE',  ( -3.543853558925342124E-16, -0.05075000000000627620, -1.794028510610990113 ) ) ;
#165 = DIRECTION ( 'NONE',  ( -2.445468806185136597E-29, 3.491481338843145583E-15, 1.000000000000000000 ) ) ;
#166 = AXIS2_PLACEMENT_3D ( 'NONE', #99, #31, #37 ) ;
#167 = ADVANCED_FACE ( 'NONE', ( #82 ), #11, .T. ) ;
#168 = ORIENTED_EDGE ( 'NONE', *, *, #29, .F. ) ;
#169 = EDGE_CURVE ( 'NONE', #353, #171, #140, .T. ) ;
#170 =( CONVERSION_BASED_UNIT ( 'INCH', #47 ) LENGTH_UNIT ( ) NAMED_UNIT ( #343 ) );
#171 = VERTEX_POINT ( 'NONE', #383 ) ;
#172 = APPROVAL_ROLE ( '' ) ;
#173 = VERTEX_POINT ( 'NONE', #210 ) ;
#174 = EDGE_CURVE ( 'NONE', #77, #81, #117, .T. ) ;
#175 = LOCAL_TIME ( 15, 56, 41.00000000000000000, #87 ) ;
#176 = CARTESIAN_POINT ( 'NONE',  ( 3.743544432386614721E-48, -5.344789307371155460E-34, -1.530808498934173916E-19 ) ) ;
#177 = ORIENTED_EDGE ( 'NONE', *, *, #261, .T. ) ;
#178 = CARTESIAN_POINT ( 'NONE',  ( 0.05075000000000014222, -4.198506309958882533E-15, -1.100999999999999979 ) ) ;
#179 = ORIENTED_EDGE ( 'NONE', *, *, #38, .F. ) ;
#180 = DATE_AND_TIME ( #327, #309 ) ;
#181 = LINE ( 'NONE', #26, #109 ) ;
#182 = ORIENTED_EDGE ( 'NONE', *, *, #174, .F. ) ;
#183 = MECHANICAL_CONTEXT ( 'NONE', #79, 'mechanical' ) ;
#184 = AXIS2_PLACEMENT_3D ( 'NONE', #176, #286, #22 ) ;
#185 = CIRCLE ( 'NONE', #378, 0.05075000000000000344 ) ;
#186 = CARTESIAN_POINT ( 'NONE',  ( -9.184586015820220131E-28, 1.311316240930807684E-13, 37.55757874015748143 ) ) ;
#187 = DIRECTION ( 'NONE',  ( 1.000000000000000000, -6.982962677686265922E-15, 4.876176775795935793E-29 ) ) ;
#188 = DIRECTION ( 'NONE',  ( -0.7071067811865452413, 2.468850131082233000E-15, -0.7071067811865497932 ) ) ;
#189 = CARTESIAN_POINT ( 'NONE',  ( 2.692461155609835411E-29, -3.844120954066303109E-15, -1.100999999999999979 ) ) ;
#190 = LINE ( 'NONE', #303, #28 ) ;
#191 = CIRCLE ( 'NONE', #39, 0.05075000000000000344 ) ;
#192 = CONICAL_SURFACE ( 'NONE', #250, 0.05075000000000014222, 0.7853981633975251064 ) ;
#193 = CARTESIAN_POINT ( 'NONE',  ( -0.05025000000000016953, -3.486169742842162553E-15, -1.101499999999999924 ) ) ;
#194 = CC_DESIGN_DATE_AND_TIME_ASSIGNMENT ( #180, #24, ( #278 ) ) ;
#195 = CYLINDRICAL_SURFACE ( 'NONE', #229, 0.05075000000000000344 ) ;
#196 = CC_DESIGN_APPROVAL ( #106, ( #278 ) ) ;
#197 = ORIENTED_EDGE ( 'NONE', *, *, #50, .F. ) ;
#198 = EDGE_CURVE ( 'NONE', #301, #84, #181, .T. ) ;
#199 = CIRCLE ( 'NONE', #130, 0.05075000000000000344 ) ;
#200 = EDGE_LOOP ( 'NONE', ( #144, #177, #72, #182 ) ) ;
#201 = DIRECTION ( 'NONE',  ( 2.438088387897960049E-29, -3.491481338843145188E-15, -1.000000000000000000 ) ) ;
#202 = EDGE_LOOP ( 'NONE', ( #287, #317, #10, #139 ) ) ;
#203 = COORDINATED_UNIVERSAL_TIME_OFFSET ( 5, 0, .BEHIND. ) ;
#204 = PERSON_AND_ORGANIZATION ( #41, #152 ) ;
#205 = CARTESIAN_POINT ( 'NONE',  ( 7.642090019328603538E-31, -1.091087918388490390E-16, -0.03125000000000021511 ) ) ;
#206 = VECTOR ( 'NONE', #325, 39.37007874015748143 ) ;
#207 = DIRECTION ( 'NONE',  ( -6.561838499445204796E-15, -0.9396926207859076507, 0.3420201433256706558 ) ) ;
#208 = ORIENTED_EDGE ( 'NONE', *, *, #104, .F. ) ;
#209 = COORDINATED_UNIVERSAL_TIME_OFFSET ( 5, 0, .BEHIND. ) ;
#210 = CARTESIAN_POINT ( 'NONE',  ( 0.05025000000000016953, -4.196760569289461029E-15, -1.101499999999999924 ) ) ;
#211 = ADVANCED_FACE ( 'NONE', ( #266 ), #390, .T. ) ;
#212 = DIRECTION ( 'NONE',  ( 1.000000000000000000, -6.982962677686270655E-15, 0.000000000000000000 ) ) ;
#213 = AXIS2_PLACEMENT_3D ( 'NONE', #163, #60, #331 ) ;
#214 = DIRECTION ( 'NONE',  ( -2.445468105529666975E-29, 3.491482342221656799E-15, 1.000000000000000000 ) ) ;
#215 = DIRECTION ( 'NONE',  ( -2.445468105529666975E-29, 3.491482342221656799E-15, 1.000000000000000000 ) ) ;
#216 = DIRECTION ( 'NONE',  ( -2.445468105529666975E-29, 3.491482342221656799E-15, 1.000000000000000000 ) ) ;
#217 = CC_DESIGN_PERSON_AND_ORGANIZATION_ASSIGNMENT ( #389, #18, ( #236 ) ) ;
#218 = CARTESIAN_POINT ( 'NONE',  ( 0.000000000000000000, 0.000000000000000000, 0.000000000000000000 ) ) ;
#219 = CYLINDRICAL_SURFACE ( 'NONE', #116, 0.05075000000000000344 ) ;
#220 = MANIFOLD_SOLID_BREP ( 'Body-Move/Copy2[2]', #235 ) ;
#221 = CARTESIAN_POINT ( 'NONE',  ( 3.743544432386614721E-48, -5.344789307371155460E-34, -1.530808498934173916E-19 ) ) ;
#222 = CLOSED_SHELL ( 'NONE', ( #269, #123, #1, #55, #282 ) ) ;
#223 = AXIS2_PLACEMENT_3D ( 'NONE', #221, #67, #276 ) ;
#224 = CARTESIAN_POINT ( 'NONE',  ( 2.692461155609835411E-29, -3.844120954066303109E-15, -1.100999999999999979 ) ) ;
#225 = ADVANCED_FACE ( 'NONE', ( #124 ), #192, .T. ) ;
#226 = EDGE_LOOP ( 'NONE', ( #268, #156, #108, #322 ) ) ;
#227 = CARTESIAN_POINT ( 'NONE',  ( 1.871772216193307361E-48, -2.672394653685577730E-34, -7.654042494670869578E-20 ) ) ;
#228 = AXIS2_PLACEMENT_3D ( 'NONE', #205, #320, #386 ) ;
#229 = AXIS2_PLACEMENT_3D ( 'NONE', #298, #277, #307 ) ;
#230 = SHAPE_DEFINITION_REPRESENTATION ( #376, #231 ) ;
#231 = ADVANCED_BREP_SHAPE_REPRESENTATION ( '56038', ( #85, #220, #93 ), #387 ) ;
#232 = ORIENTED_EDGE ( 'NONE', *, *, #169, .F. ) ;
#233 = COORDINATED_UNIVERSAL_TIME_OFFSET ( 5, 0, .BEHIND. ) ;
#234 = CARTESIAN_POINT ( 'NONE',  ( 4.432410941272521672E-29, -6.328311745276753861E-15, -1.812500000000000222 ) ) ;
#235 = CLOSED_SHELL ( 'NONE', ( #111, #211, #225, #68, #323, #318, #167, #352 ) ) ;
#236 = PRODUCT_DEFINITION_FORMATION_WITH_SPECIFIED_SOURCE ( 'ANY', '', #107, .NOT_KNOWN. ) ;
#237 = CALENDAR_DATE ( 2024, 22, 4 ) ;
#238 = CARTESIAN_POINT ( 'NONE',  ( 0.05075000000000008671, -3.543853558925785858E-16, 2.474659713716441605E-30 ) ) ;
#239 = EDGE_CURVE ( 'NONE', #171, #353, #131, .T. ) ;
#240 = APPROVAL_ROLE ( '' ) ;
#241 = APPROVAL_DATE_TIME ( #292, #129 ) ;
#242 = DIRECTION ( 'NONE',  ( -0.7071067811866017516, 7.493145998870549798E-15, 0.7071067811864931718 ) ) ;
#243 = DIRECTION ( 'NONE',  ( 6.676917655467970496E-15, 0.9396926207859099822, 0.3420201433256640500 ) ) ;
#244 = CC_DESIGN_SECURITY_CLASSIFICATION ( #278, ( #236 ) ) ;
#245 = CARTESIAN_POINT ( 'NONE',  ( 2.693683890012927652E-29, -3.845866694735724612E-15, -1.101499999999999924 ) ) ;
#246 = FACE_OUTER_BOUND ( 'NONE', #226, .T. ) ;
#247 = LINE ( 'NONE', #122, #374 ) ;
#248 = DIRECTION ( 'NONE',  ( 1.000000000000000000, -6.982962677686270655E-15, 0.000000000000000000 ) ) ;
#249 = DIRECTION ( 'NONE',  ( -2.445468806185136597E-29, 3.491481338843145583E-15, 1.000000000000000000 ) ) ;
#250 = AXIS2_PLACEMENT_3D ( 'NONE', #224, #340, #69 ) ;
#251 = EDGE_CURVE ( 'NONE', #310, #81, #6, .T. ) ;
#252 = ORIENTED_EDGE ( 'NONE', *, *, #7, .T. ) ;
#253 = CONICAL_SURFACE ( 'NONE', #308, 0.05075000000000001732, 0.7853981633974450594 ) ;
#254 = APPROVAL_STATUS ( 'not_yet_approved' ) ;
#255 = EDGE_CURVE ( 'NONE', #65, #173, #20, .T. ) ;
#256 = DIRECTION ( 'NONE',  ( -2.445468105529666975E-29, 3.491482342221656799E-15, 1.000000000000000000 ) ) ;
#257 = APPLICATION_CONTEXT ( 'configuration controlled 3d designs of mechanical parts and assemblies' ) ;
#258 = FACE_OUTER_BOUND ( 'NONE', #335, .T. ) ;
#259 = PERSON_AND_ORGANIZATION ( #41, #152 ) ;
#260 = CARTESIAN_POINT ( 'NONE',  ( -9.184586015820220131E-28, 1.311316240930807684E-13, 37.55757874015748143 ) ) ;
#261 = EDGE_CURVE ( 'NONE', #73, #310, #36, .T. ) ;
#262 = VECTOR ( 'NONE', #188, 39.37007874015748143 ) ;
#263 = ORIENTED_EDGE ( 'NONE', *, *, #101, .F. ) ;
#264 = CIRCLE ( 'NONE', #134, 0.05075000000000001732 ) ;
#265 = PERSON_AND_ORGANIZATION ( #41, #152 ) ;
#266 = FACE_OUTER_BOUND ( 'NONE', #200, .T. ) ;
#267 = CARTESIAN_POINT ( 'NONE',  ( -0.05075000000000014222, -3.483520515668051747E-15, -1.100999999999999979 ) ) ;
#268 = ORIENTED_EDGE ( 'NONE', *, *, #289, .F. ) ;
#269 = ADVANCED_FACE ( 'NONE', ( #158 ), #195, .T. ) ;
#270 = CYLINDRICAL_SURFACE ( 'NONE', #272, 0.05075000000000008671 ) ;
#271 = AXIS2_PLACEMENT_3D ( 'NONE', #189, #32, #304 ) ;
#272 = AXIS2_PLACEMENT_3D ( 'NONE', #275, #3, #128 ) ;
#273 = DIRECTION ( 'NONE',  ( -6.982962677686266711E-15, -1.000000000000000000, 2.691475855826860001E-15 ) ) ;
#274 = CARTESIAN_POINT ( 'NONE',  ( 2.693683890012927652E-29, -3.845866694735724612E-15, -1.101499999999999924 ) ) ;
#275 = CARTESIAN_POINT ( 'NONE',  ( 0.000000000000000000, 0.000000000000000000, 0.000000000000000000 ) ) ;
#276 = DIRECTION ( 'NONE',  ( 1.000000000000000000, -6.982962677686267499E-15, 4.876158468089368575E-29 ) ) ;
#277 = DIRECTION ( 'NONE',  ( -2.445468105529666975E-29, 3.491482342221656799E-15, 1.000000000000000000 ) ) ;
#278 = SECURITY_CLASSIFICATION ( '', '', #142 ) ;
#279 = CC_DESIGN_DATE_AND_TIME_ASSIGNMENT ( #150, #114, ( #157 ) ) ;
#280 = LOCAL_TIME ( 15, 56, 41.00000000000000000, #203 ) ;
#281 = EDGE_LOOP ( 'NONE', ( #168, #360 ) ) ;
#282 = ADVANCED_FACE ( 'NONE', ( #64 ), #339, .F. ) ;
#283 = COORDINATED_UNIVERSAL_TIME_OFFSET ( 5, 0, .BEHIND. ) ;
#284 = CIRCLE ( 'NONE', #271, 0.05075000000000014222 ) ;
#285 = PERSON_AND_ORGANIZATION ( #41, #152 ) ;
#286 = DIRECTION ( 'NONE',  ( -2.445468806185136597E-29, 3.491481338843145583E-15, 1.000000000000000000 ) ) ;
#287 = ORIENTED_EDGE ( 'NONE', *, *, #29, .T. ) ;
#288 = CALENDAR_DATE ( 2024, 22, 4 ) ;
#289 = EDGE_CURVE ( 'NONE', #42, #368, #190, .T. ) ;
#290 = DIRECTION ( 'NONE',  ( -6.982962677686266711E-15, -1.000000000000000000, 5.382951711653720002E-15 ) ) ;
#291 = ORIENTED_EDGE ( 'NONE', *, *, #86, .T. ) ;
#292 = DATE_AND_TIME ( #237, #175 ) ;
#293 = CARTESIAN_POINT ( 'NONE',  ( 0.05075000000000001732, -4.634941477314271441E-16, -0.03125000000000021511 ) ) ;
#294 = PRODUCT_RELATED_PRODUCT_CATEGORY ( 'detail', '', ( #107 ) ) ;
#295 = CC_DESIGN_APPROVAL ( #129, ( #157 ) ) ;
#296 = PERSON_AND_ORGANIZATION ( #41, #152 ) ;
#297 = CARTESIAN_POINT ( 'NONE',  ( 0.05075000000000001732, -4.572790652257543188E-16, -0.03125000000000021511 ) ) ;
#298 = CARTESIAN_POINT ( 'NONE',  ( 2.693683890012928212E-29, -3.845866694735725401E-15, -1.101500000000000146 ) ) ;
#299 = ORIENTED_EDGE ( 'NONE', *, *, #198, .F. ) ;
#300 = DIRECTION ( 'NONE',  ( 1.000000000000000000, -6.982962677686265133E-15, 0.000000000000000000 ) ) ;
#301 = VERTEX_POINT ( 'NONE', #164 ) ;
#302 = CIRCLE ( 'NONE', #344, 0.05075000000000000344 ) ;
#303 = CARTESIAN_POINT ( 'NONE',  ( 3.606004383982777887E-16, 0.05074999999999616623, -1.101500000000000368 ) ) ;
#304 = DIRECTION ( 'NONE',  ( 1.000000000000000000, -6.982962677686270655E-15, 0.000000000000000000 ) ) ;
#305 = DIRECTION ( 'NONE',  ( 1.000000000000000000, -6.982962677686265133E-15, 0.000000000000000000 ) ) ;
#306 = APPROVAL ( #49, 'UNSPECIFIED' ) ;
#307 = DIRECTION ( 'NONE',  ( -6.982962677686266711E-15, -1.000000000000000000, 2.691475855826860001E-15 ) ) ;
#308 = AXIS2_PLACEMENT_3D ( 'NONE', #80, #143, #30 ) ;
#309 = LOCAL_TIME ( 15, 56, 41.00000000000000000, #209 ) ;
#310 = VERTEX_POINT ( 'NONE', #95 ) ;
#311 = DIRECTION ( 'NONE',  ( -1.000000000000000000, 6.982962677686265922E-15, -4.876176775795935793E-29 ) ) ;
#312 = ORIENTED_EDGE ( 'NONE', *, *, #136, .T. ) ;
#313 = PLANE ( 'NONE',  #100 ) ;
#314 = ORIENTED_EDGE ( 'NONE', *, *, #255, .T. ) ;
#315 = AXIS2_PLACEMENT_3D ( 'NONE', #274, #8, #187 ) ;
#316 = VECTOR ( 'NONE', #375, 39.37007874015748854 ) ;
#317 = ORIENTED_EDGE ( 'NONE', *, *, #132, .T. ) ;
#318 = ADVANCED_FACE ( 'NONE', ( #161 ), #270, .T. ) ;
#319 = CALENDAR_DATE ( 2024, 22, 4 ) ;
#320 = DIRECTION ( 'NONE',  ( 2.445468806185136597E-29, -3.491481338843145583E-15, -1.000000000000000000 ) ) ;
#321 = CIRCLE ( 'NONE', #160, 0.05075000000000014222 ) ;
#322 = ORIENTED_EDGE ( 'NONE', *, *, #136, .F. ) ;
#323 = ADVANCED_FACE ( 'NONE', ( #365 ), #118, .T. ) ;
#324 = PERSON_AND_ORGANIZATION_ROLE ( 'classification_officer' ) ;
#325 = DIRECTION ( 'NONE',  ( 0.7071067811865452413, -7.319954787623248157E-15, -0.7071067811865497932 ) ) ;
#326 = EDGE_LOOP ( 'NONE', ( #53, #314, #346, #21 ) ) ;
#327 = CALENDAR_DATE ( 2024, 22, 4 ) ;
#328 = CARTESIAN_POINT ( 'NONE',  ( -3.543853558925511236E-16, -0.05075000000000384759, -1.101499999999999924 ) ) ;
#329 = LINE ( 'NONE', #297, #206 ) ;
#330 = VECTOR ( 'NONE', #56, 39.37007874015748143 ) ;
#331 = DIRECTION ( 'NONE',  ( 1.000000000000000000, -6.982962677686265133E-15, 0.000000000000000000 ) ) ;
#332 = APPROVAL_PERSON_ORGANIZATION ( #145, #306, #172 ) ;
#333 = FACE_OUTER_BOUND ( 'NONE', #23, .T. ) ;
#334 = CARTESIAN_POINT ( 'NONE',  ( 7.642090019328603538E-31, -1.091087918388490390E-16, -0.03125000000000021511 ) ) ;
#335 = EDGE_LOOP ( 'NONE', ( #113, #75, #379, #197 ) ) ;
#336 = CARTESIAN_POINT ( 'NONE',  ( -0.05075000000000008671, 3.606004383982514604E-16, -2.496359558304368800E-30 ) ) ;
#337 = ORIENTED_EDGE ( 'NONE', *, *, #239, .T. ) ;
#338 = EDGE_CURVE ( 'NONE', #81, #310, #264, .T. ) ;
#339 = PLANE ( 'NONE',  #166 ) ;
#340 = DIRECTION ( 'NONE',  ( -2.445468806185136597E-29, 3.491481338843145583E-15, 1.000000000000000000 ) ) ;
#341 = EDGE_CURVE ( 'NONE', #84, #368, #185, .T. ) ;
#342 = ORIENTED_EDGE ( 'NONE', *, *, #101, .T. ) ;
#343 = DIMENSIONAL_EXPONENTS ( 1.000000000000000000, 0.000000000000000000, 0.000000000000000000, 0.000000000000000000, 0.000000000000000000, 0.000000000000000000, 0.000000000000000000 ) ;
#344 = AXIS2_PLACEMENT_3D ( 'NONE', #366, #216, #2 ) ;
#345 = AXIS2_PLACEMENT_3D ( 'NONE', #103, #249, #305 ) ;
#346 = ORIENTED_EDGE ( 'NONE', *, *, #369, .T. ) ;
#347 = ORIENTED_EDGE ( 'NONE', *, *, #251, .F. ) ;
#348 = CARTESIAN_POINT ( 'NONE',  ( -0.01950000000000000691, 1.907221681343056497E-16, -1.530808498945601662E-19 ) ) ;
#349 = VECTOR ( 'NONE', #97, 39.37007874015748143 ) ;
#350 = ORIENTED_EDGE ( 'NONE', *, *, #251, .T. ) ;
#351 = CARTESIAN_POINT ( 'NONE',  ( 4.387240274882068597E-29, -6.263817761019061263E-15, -1.794028510610990335 ) ) ;
#352 = ADVANCED_FACE ( 'NONE', ( #126 ), #313, .F. ) ;
#353 = VERTEX_POINT ( 'NONE', #348 ) ;
#354 = DIRECTION ( 'NONE',  ( -6.982962677686266711E-15, -1.000000000000000000, 2.691475855826860001E-15 ) ) ;
#355 = AXIS2_PLACEMENT_3D ( 'NONE', #186, #96, #362 ) ;
#356 = LOCAL_TIME ( 15, 56, 41.00000000000000000, #233 ) ;
#357 = ORIENTED_EDGE ( 'NONE', *, *, #174, .T. ) ;
#358 = PERSON_AND_ORGANIZATION_ROLE ( 'design_owner' ) ;
#359 = DIRECTION ( 'NONE',  ( -2.445468105529666975E-29, 3.491482342221656799E-15, 1.000000000000000000 ) ) ;
#360 = ORIENTED_EDGE ( 'NONE', *, *, #255, .F. ) ;
#361 = APPROVAL_ROLE ( '' ) ;
#362 = DIRECTION ( 'NONE',  ( -6.982962677686266711E-15, -1.000000000000000000, 3.475157955500714298E-15 ) ) ;
#363 = CARTESIAN_POINT ( 'NONE',  ( 2.693683890012928212E-29, -3.845866694735725401E-15, -1.101500000000000146 ) ) ;
#364 = CARTESIAN_POINT ( 'NONE',  ( -0.05075000000000001732, 2.452765640537290907E-16, -0.03125000000000021511 ) ) ;
#365 = FACE_OUTER_BOUND ( 'NONE', #326, .T. ) ;
#366 = CARTESIAN_POINT ( 'NONE',  ( 4.387240274882068597E-29, -6.263817761019061263E-15, -1.794028510610990335 ) ) ;
#367 = DIRECTION ( 'NONE',  ( 1.000000000000000000, -6.982962677686265922E-15, 4.876176775795935793E-29 ) ) ;
#368 = VERTEX_POINT ( 'NONE', #133 ) ;
#369 = EDGE_CURVE ( 'NONE', #173, #77, #105, .T. ) ;
#370 = DIRECTION ( 'NONE',  ( -2.445468105529666975E-29, 3.491482342221656799E-15, 1.000000000000000000 ) ) ;
#371 = AXIS2_PLACEMENT_3D ( 'NONE', #260, #256, #155 ) ;
#372 = AXIS2_PLACEMENT_3D ( 'NONE', #12, #9, #248 ) ;
#373 = DIRECTION ( 'NONE',  ( -2.445468806185136597E-29, 3.491481338843145583E-15, 1.000000000000000000 ) ) ;
#374 = VECTOR ( 'NONE', #243, 39.37007874015748854 ) ;
#375 = DIRECTION ( 'NONE',  ( 0.7071067811866017516, -2.468850131082825040E-15, 0.7071067811864931718 ) ) ;
#376 = PRODUCT_DEFINITION_SHAPE ( 'NONE', 'NONE',  #157 ) ;
#377 = ORIENTED_EDGE ( 'NONE', *, *, #86, .F. ) ;
#378 = AXIS2_PLACEMENT_3D ( 'NONE', #33, #370, #273 ) ;
#379 = ORIENTED_EDGE ( 'NONE', *, *, #338, .T. ) ;
#380 = CALENDAR_DATE ( 2024, 22, 4 ) ;
#381 = CC_DESIGN_PERSON_AND_ORGANIZATION_ASSIGNMENT ( #259, #76, ( #157 ) ) ;
#382 = DATE_AND_TIME ( #288, #66 ) ;
#383 = CARTESIAN_POINT ( 'NONE',  ( 0.01950000000000000691, -2.955293880911495878E-16, -1.530808498919086903E-19 ) ) ;
#384 = ORIENTED_EDGE ( 'NONE', *, *, #38, .T. ) ;
#385 = CARTESIAN_POINT ( 'NONE',  ( 0.000000000000000000, 0.000000000000000000, 0.000000000000000000 ) ) ;
#386 = DIRECTION ( 'NONE',  ( -1.000000000000000000, 6.982962677686265133E-15, 0.000000000000000000 ) ) ;
#387 =( GEOMETRIC_REPRESENTATION_CONTEXT ( 3 ) GLOBAL_UNCERTAINTY_ASSIGNED_CONTEXT ( ( #162 ) ) GLOBAL_UNIT_ASSIGNED_CONTEXT ( ( #170, #138, #110 ) ) REPRESENTATION_CONTEXT ( 'NONE', 'WORKASPACE' ) );
#388 = EDGE_LOOP ( 'NONE', ( #208, #232, #5, #350 ) ) ;
#389 = PERSON_AND_ORGANIZATION ( #41, #152 ) ;
#390 = CYLINDRICAL_SURFACE ( 'NONE', #45, 0.05075000000000008671 ) ;
ENDSEC;
END-ISO-10303-21;
