ISO-10303-21;
HEADER;
FILE_DESCRIPTION (( 'STEP AP203' ),
    '1' );
FILE_NAME ('56056.STEP',
    '2024-04-22T20:08:17',
    ( '' ),
    ( '' ),
    'SwSTEP 2.0',
    'SolidWorks 2023',
    '' );
FILE_SCHEMA (( 'CONFIG_CONTROL_DESIGN' ));
ENDSEC;

DATA;
#1 = LENGTH_MEASURE_WITH_UNIT ( LENGTH_MEASURE( 0.02539999999999999897 ), #185 );
#2 = EDGE_LOOP ( 'NONE', ( #12, #279, #11, #145 ) ) ;
#3 = CIRCLE ( 'NONE', #192, 0.02325000000000000677 ) ;
#4 = CIRCLE ( 'NONE', #247, 0.02324999999999999983 ) ;
#5 = COORDINATED_UNIVERSAL_TIME_OFFSET ( 5, 0, .BEHIND. ) ;
#6 = EDGE_LOOP ( 'NONE', ( #119, #231, #347, #92 ) ) ;
#7 = DIRECTION ( 'NONE',  ( 0.000000000000000000, 0.000000000000000000, 1.000000000000000000 ) ) ;
#8 = CARTESIAN_POINT ( 'NONE',  ( 2.559183105672745834E-29, -3.653835221099352909E-15, -1.046500000000000208 ) ) ;
#9 = EDGE_CURVE ( 'NONE', #98, #149, #131, .T. ) ;
#10 = CALENDAR_DATE ( 2024, 22, 4 ) ;
#11 = ORIENTED_EDGE ( 'NONE', *, *, #237, .T. ) ;
#12 = ORIENTED_EDGE ( 'NONE', *, *, #186, .F. ) ;
#13 = CARTESIAN_POINT ( 'NONE',  ( -1.623538822561800857E-16, -0.02325000000000365663, -1.046499999999999986 ) ) ;
#14 = CARTESIAN_POINT ( 'NONE',  ( -1.828387187927250961E-29, -9.937085606527122615E-15, -1.046500000000000208 ) ) ;
#15 = FACE_OUTER_BOUND ( 'NONE', #313, .T. ) ;
#16 = VECTOR ( 'NONE', #352, 39.37007874015748854 ) ;
#17 = SECURITY_CLASSIFICATION ( '', '', #115 ) ;
#18 = CARTESIAN_POINT ( 'NONE',  ( 3.647504898807829829E-29, -5.207681746725527454E-15, -1.491537692053310771 ) ) ;
#19 = CARTESIAN_POINT ( 'NONE',  ( 2.559183105672745834E-29, -3.653835221099352909E-15, -1.046500000000000208 ) ) ;
#20 = EDGE_CURVE ( 'NONE', #223, #200, #183, .T. ) ;
#21 = CARTESIAN_POINT ( 'NONE',  ( -9.260974643321534467E-28, 1.322231741747868002E-13, 37.87007874015748143 ) ) ;
#22 = CARTESIAN_POINT ( 'NONE',  ( 2.557960371269653033E-29, -3.652089480429930616E-15, -1.046000000000000041 ) ) ;
#23 = ADVANCED_FACE ( 'NONE', ( #15 ), #155, .F. ) ;
#24 = DIRECTION ( 'NONE',  ( 2.445468806185136597E-29, -3.491481338843145583E-15, -1.000000000000000000 ) ) ;
#25 = ADVANCED_FACE ( 'NONE', ( #42 ), #113, .T. ) ;
#26 = CARTESIAN_POINT ( 'NONE',  ( 3.647504898807829829E-29, -5.207681746725527454E-15, -1.491537692053310771 ) ) ;
#27 = DESIGN_CONTEXT ( 'detailed design', #41, 'design' ) ;
#28 = AXIS2_PLACEMENT_3D ( 'NONE', #61, #7, #70 ) ;
#29 = PLANE ( 'NONE',  #253 ) ;
#30 = VERTEX_POINT ( 'NONE', #179 ) ;
#31 = DATE_TIME_ROLE ( 'classification_date' ) ;
#32 = ORIENTED_EDGE ( 'NONE', *, *, #20, .T. ) ;
#33 = DATE_AND_TIME ( #148, #144 ) ;
#34 = ORIENTED_EDGE ( 'NONE', *, *, #325, .F. ) ;
#35 = PERSON_AND_ORGANIZATION_ROLE ( 'creator' ) ;
#36 = ORIENTED_EDGE ( 'NONE', *, *, #186, .T. ) ;
#37 = ADVANCED_FACE ( 'NONE', ( #327 ), #137, .T. ) ;
#38 = COORDINATED_UNIVERSAL_TIME_OFFSET ( 5, 0, .BEHIND. ) ;
#39 = ORIENTED_EDGE ( 'NONE', *, *, #301, .F. ) ;
#40 = DIRECTION ( 'NONE',  ( -6.561838499445181130E-15, -0.9396926207859045421, 0.3420201433256789270 ) ) ;
#41 = APPLICATION_CONTEXT ( 'configuration controlled 3d designs of mechanical parts and assemblies' ) ;
#42 = FACE_OUTER_BOUND ( 'NONE', #205, .T. ) ;
#43 = DIRECTION ( 'NONE',  ( 6.676917655467948408E-15, 0.9396926207859068736, 0.3420201433256723766 ) ) ;
#44 = DIRECTION ( 'NONE',  ( 0.7071067811865452413, -7.319954787623248157E-15, -0.7071067811865497932 ) ) ;
#45 = AXIS2_PLACEMENT_3D ( 'NONE', #73, #178, #292 ) ;
#46 = LINE ( 'NONE', #104, #339 ) ;
#47 = DIRECTION ( 'NONE',  ( 6.982962677686265922E-15, 1.000000000000000000, -3.491494211326355122E-15 ) ) ;
#48 = ADVANCED_FACE ( 'NONE', ( #348 ), #353, .T. ) ;
#49 = DIRECTION ( 'NONE',  ( -2.445459817378154344E-29, 3.491494211326355122E-15, 1.000000000000000000 ) ) ;
#50 = CC_DESIGN_APPROVAL ( #188, ( #17 ) ) ;
#51 = EDGE_CURVE ( 'NONE', #258, #59, #294, .T. ) ;
#52 = CARTESIAN_POINT ( 'NONE',  ( 2.559183105672745834E-29, -3.653835221099352909E-15, -1.046500000000000208 ) ) ;
#53 = DIRECTION ( 'NONE',  ( -1.000000000000000000, 6.982962677686266711E-15, 0.000000000000000000 ) ) ;
#54 = LINE ( 'NONE', #245, #235 ) ;
#55 = ADVANCED_BREP_SHAPE_REPRESENTATION ( '56056', ( #129, #243, #28 ), #182 ) ;
#56 = CIRCLE ( 'NONE', #261, 0.02324999999999999983 ) ;
#57 = CIRCLE ( 'NONE', #362, 0.02275000000000018674 ) ;
#58 = APPROVAL_STATUS ( 'not_yet_approved' ) ;
#59 = VERTEX_POINT ( 'NONE', #233 ) ;
#60 = DIMENSIONAL_EXPONENTS ( 1.000000000000000000, 0.000000000000000000, 0.000000000000000000, 0.000000000000000000, 0.000000000000000000, 0.000000000000000000, 0.000000000000000000 ) ;
#61 = CARTESIAN_POINT ( 'NONE',  ( 0.000000000000000000, 0.000000000000000000, 0.000000000000000000 ) ) ;
#62 = ORIENTED_EDGE ( 'NONE', *, *, #20, .F. ) ;
#63 = EDGE_CURVE ( 'NONE', #223, #97, #46, .T. ) ;
#64 = CALENDAR_DATE ( 2024, 22, 4 ) ;
#65 = ORIENTED_EDGE ( 'NONE', *, *, #349, .F. ) ;
#66 = AXIS2_PLACEMENT_3D ( 'NONE', #350, #326, #102 ) ;
#67 = DATE_TIME_ROLE ( 'creation_date' ) ;
#68 = EDGE_CURVE ( 'NONE', #229, #30, #72, .T. ) ;
#69 = ORIENTED_EDGE ( 'NONE', *, *, #9, .F. ) ;
#70 = DIRECTION ( 'NONE',  ( 1.000000000000000000, 0.000000000000000000, 0.000000000000000000 ) ) ;
#71 = ORIENTED_EDGE ( 'NONE', *, *, #304, .T. ) ;
#72 = LINE ( 'NONE', #175, #16 ) ;
#73 = CARTESIAN_POINT ( 'NONE',  ( 7.642090019328602662E-31, -1.091087918388490267E-16, -0.03125000000000020817 ) ) ;
#74 = DIRECTION ( 'NONE',  ( -2.445459817378154344E-29, 3.491494211326355122E-15, 1.000000000000000000 ) ) ;
#75 = CARTESIAN_POINT ( 'NONE',  ( 0.000000000000000000, 0.000000000000000000, 0.000000000000000000 ) ) ;
#76 = FACE_OUTER_BOUND ( 'NONE', #346, .T. ) ;
#77 = CC_DESIGN_DATE_AND_TIME_ASSIGNMENT ( #96, #67, ( #110 ) ) ;
#78 = APPROVAL_PERSON_ORGANIZATION ( #286, #256, #171 ) ;
#79 = DIRECTION ( 'NONE',  ( 1.000000000000000000, -6.982962677686262766E-15, 0.000000000000000000 ) ) ;
#80 = DIRECTION ( 'NONE',  ( 2.445459817378154063E-29, -3.491494211326355122E-15, -1.000000000000000000 ) ) ;
#81 = FACE_OUTER_BOUND ( 'NONE', #341, .T. ) ;
#82 = CONICAL_SURFACE ( 'NONE', #224, 0.02325000000000000677, 0.7853981633974450594 ) ;
#83 = DIRECTION ( 'NONE',  ( -2.445468806185136877E-29, 3.491481338843145188E-15, 1.000000000000000000 ) ) ;
#84 = DIRECTION ( 'NONE',  ( -2.445468806185136597E-29, 3.491481338843145583E-15, 1.000000000000000000 ) ) ;
#85 = ORIENTED_EDGE ( 'NONE', *, *, #198, .F. ) ;
#86 = APPROVAL_STATUS ( 'not_yet_approved' ) ;
#87 = ADVANCED_FACE ( 'NONE', ( #130 ), #217, .T. ) ;
#88 = CALENDAR_DATE ( 2024, 22, 4 ) ;
#89 = ORIENTED_EDGE ( 'NONE', *, *, #293, .T. ) ;
#90 = EDGE_CURVE ( 'NONE', #97, #149, #262, .T. ) ;
#91 = PERSON_AND_ORGANIZATION_ROLE ( 'design_owner' ) ;
#92 = ORIENTED_EDGE ( 'NONE', *, *, #68, .F. ) ;
#93 = PERSON_AND_ORGANIZATION ( #359, #170 ) ;
#94 = ORIENTED_EDGE ( 'NONE', *, *, #68, .T. ) ;
#95 = AXIS2_PLACEMENT_3D ( 'NONE', #109, #220, #79 ) ;
#96 = DATE_AND_TIME ( #88, #230 ) ;
#97 = VERTEX_POINT ( 'NONE', #158 ) ;
#98 = VERTEX_POINT ( 'NONE', #209 ) ;
#99 = CARTESIAN_POINT ( 'NONE',  ( 7.642090019328602662E-31, -1.091087918388490267E-16, -0.03125000000000020817 ) ) ;
#100 = APPROVAL ( #86, 'UNSPECIFIED' ) ;
#101 = CONICAL_SURFACE ( 'NONE', #202, 108.1684023407306796, 1.221730476396023279 ) ;
#102 = DIRECTION ( 'NONE',  ( 1.000000000000000000, -6.982962677686262766E-15, 0.000000000000000000 ) ) ;
#103 = DIRECTION ( 'NONE',  ( -6.982962677686266711E-15, -1.000000000000000000, 5.874941921858630857E-15 ) ) ;
#104 = CARTESIAN_POINT ( 'NONE',  ( 3.668189726067231515E-29, -5.237241316989532880E-15, -1.500000000000000222 ) ) ;
#105 = CYLINDRICAL_SURFACE ( 'NONE', #213, 0.02325000000000006922 ) ;
#106 = CYLINDRICAL_SURFACE ( 'NONE', #321, 0.02325000000000006922 ) ;
#107 = CARTESIAN_POINT ( 'NONE',  ( 1.956375044948122620E-31, -2.793185071074535749E-17, -0.008000000000000055678 ) ) ;
#108 = CIRCLE ( 'NONE', #315, 0.02275000000000018674 ) ;
#109 = CARTESIAN_POINT ( 'NONE',  ( 2.557960371269653033E-29, -3.652089480429930616E-15, -1.046000000000000041 ) ) ;
#110 = PRODUCT_DEFINITION ( 'UNKNOWN', '', #124, #27 ) ;
#111 = PERSON_AND_ORGANIZATION ( #359, #170 ) ;
#112 = VERTEX_POINT ( 'NONE', #122 ) ;
#113 = CONICAL_SURFACE ( 'NONE', #320, 0.02325000000000000677, 0.7853981633974450594 ) ;
#114 = AXIS2_PLACEMENT_3D ( 'NONE', #22, #84, #363 ) ;
#115 = SECURITY_CLASSIFICATION_LEVEL ( 'unclassified' ) ;
#116 = ORIENTED_EDGE ( 'NONE', *, *, #252, .F. ) ;
#117 = ORIENTED_EDGE ( 'NONE', *, *, #325, .T. ) ;
#118 = DATE_AND_TIME ( #10, #351 ) ;
#119 = ORIENTED_EDGE ( 'NONE', *, *, #349, .T. ) ;
#120 = LOCAL_TIME ( 16, 8, 17.00000000000000000, #225 ) ;
#121 = ORIENTED_EDGE ( 'NONE', *, *, #90, .F. ) ;
#122 = CARTESIAN_POINT ( 'NONE',  ( -0.02325000000000012820, -3.486888294365706190E-15, -1.046000000000000041 ) ) ;
#123 = DIRECTION ( 'NONE',  ( -1.000000000000000000, 6.982962677686266711E-15, 0.000000000000000000 ) ) ;
#124 = PRODUCT_DEFINITION_FORMATION_WITH_SPECIFIED_SOURCE ( 'ANY', '', #295, .NOT_KNOWN. ) ;
#125 = DIRECTION ( 'NONE',  ( -2.438088387897960049E-29, 3.491481338843145188E-15, 1.000000000000000000 ) ) ;
#126 = CC_DESIGN_PERSON_AND_ORGANIZATION_ASSIGNMENT ( #146, #257, ( #17 ) ) ;
#127 = APPROVAL_DATE_TIME ( #118, #188 ) ;
#128 = DIRECTION ( 'NONE',  ( -2.445459817378154344E-29, 3.491494211326355122E-15, 1.000000000000000000 ) ) ;
#129 = MANIFOLD_SOLID_BREP ( 'Body-Move/Copy2[1]', #355 ) ;
#130 = FACE_OUTER_BOUND ( 'NONE', #316, .T. ) ;
#131 = CIRCLE ( 'NONE', #289, 0.02324999999999999983 ) ;
#132 = CARTESIAN_POINT ( 'NONE',  ( 2.559183105672745834E-29, -3.653835221099352909E-15, -1.046500000000000208 ) ) ;
#133 = LINE ( 'NONE', #332, #219 ) ;
#134 = ADVANCED_FACE ( 'NONE', ( #267 ), #105, .T. ) ;
#135 = DIRECTION ( 'NONE',  ( 1.000000000000000000, -6.982962677686264344E-15, 0.000000000000000000 ) ) ;
#136 = DIRECTION ( 'NONE',  ( -2.445468806185136597E-29, 3.491481338843145583E-15, 1.000000000000000000 ) ) ;
#137 = CONICAL_SURFACE ( 'NONE', #143, 0.02325000000000012820, 0.7853981633973543541 ) ;
#138 = EDGE_CURVE ( 'NONE', #200, #97, #56, .T. ) ;
#139 = CARTESIAN_POINT ( 'NONE',  ( 2.559183105672745834E-29, -3.653835221099352909E-15, -1.046500000000000208 ) ) ;
#140 = ORIENTED_EDGE ( 'NONE', *, *, #150, .T. ) ;
#141 = ADVANCED_FACE ( 'NONE', ( #76 ), #232, .T. ) ;
#142 = ORIENTED_EDGE ( 'NONE', *, *, #90, .T. ) ;
#143 = AXIS2_PLACEMENT_3D ( 'NONE', #211, #324, #152 ) ;
#144 = LOCAL_TIME ( 16, 8, 17.00000000000000000, #5 ) ;
#145 = ORIENTED_EDGE ( 'NONE', *, *, #150, .F. ) ;
#146 = PERSON_AND_ORGANIZATION ( #359, #170 ) ;
#147 = ORIENTED_EDGE ( 'NONE', *, *, #301, .T. ) ;
#148 = CALENDAR_DATE ( 2024, 22, 4 ) ;
#149 = VERTEX_POINT ( 'NONE', #354 ) ;
#150 = EDGE_CURVE ( 'NONE', #285, #59, #3, .T. ) ;
#151 = VECTOR ( 'NONE', #274, 39.37007874015748143 ) ;
#152 = DIRECTION ( 'NONE',  ( 1.000000000000000000, -6.982962677686262766E-15, 0.000000000000000000 ) ) ;
#153 = EDGE_CURVE ( 'NONE', #59, #285, #207, .T. ) ;
#154 = DIRECTION ( 'NONE',  ( 1.000000000000000000, -6.982962677686265922E-15, 4.876176775795935793E-29 ) ) ;
#155 = PLANE ( 'NONE',  #297 ) ;
#156 = CIRCLE ( 'NONE', #114, 0.02325000000000012820 ) ;
#157 = CARTESIAN_POINT ( 'NONE',  ( 0.02325000000000000677, -2.686153702870371574E-16, -0.03125000000000020817 ) ) ;
#158 = CARTESIAN_POINT ( 'NONE',  ( -1.623538822561692142E-16, -0.02325000000000520747, -1.491537692053310771 ) ) ;
#159 = LINE ( 'NONE', #361, #283 ) ;
#160 = VECTOR ( 'NONE', #44, 39.37007874015748143 ) ;
#161 = DIRECTION ( 'NONE',  ( -2.445468806185136597E-29, 3.491481338843145583E-15, 1.000000000000000000 ) ) ;
#162 = DIRECTION ( 'NONE',  ( 1.000000000000000000, -6.982962677686265922E-15, 4.876176775795935793E-29 ) ) ;
#163 = DIRECTION ( 'NONE',  ( -2.445459817378154344E-29, 3.491494211326355122E-15, 1.000000000000000000 ) ) ;
#164 = DIRECTION ( 'NONE',  ( -6.982962677686266711E-15, -1.000000000000000000, 3.475157955500809750E-15 ) ) ;
#165 = CC_DESIGN_SECURITY_CLASSIFICATION ( #17, ( #124 ) ) ;
#166 = APPROVAL_ROLE ( '' ) ;
#167 = ORIENTED_EDGE ( 'NONE', *, *, #304, .F. ) ;
#168 = ORIENTED_EDGE ( 'NONE', *, *, #63, .F. ) ;
#169 = EDGE_LOOP ( 'NONE', ( #168, #32, #226 ) ) ;
#170 = ORGANIZATION ( 'UNSPECIFIED', 'UNSPECIFIED', '' ) ;
#171 = APPROVAL_ROLE ( '' ) ;
#172 = ORIENTED_EDGE ( 'NONE', *, *, #270, .T. ) ;
#173 = APPROVAL_DATE_TIME ( #33, #100 ) ;
#174 = ORIENTED_EDGE ( 'NONE', *, *, #176, .T. ) ;
#175 = CARTESIAN_POINT ( 'NONE',  ( 0.02325000000000012820, -3.814443362686137548E-15, -1.046000000000000041 ) ) ;
#176 = EDGE_CURVE ( 'NONE', #30, #112, #156, .T. ) ;
#177 = CC_DESIGN_APPROVAL ( #100, ( #110 ) ) ;
#178 = DIRECTION ( 'NONE',  ( -2.445468806185136597E-29, 3.491481338843145583E-15, 1.000000000000000000 ) ) ;
#179 = CARTESIAN_POINT ( 'NONE',  ( 0.02325000000000012820, -3.814443362686137548E-15, -1.046000000000000041 ) ) ;
#180 = PRODUCT_DEFINITION_SHAPE ( 'NONE', 'NONE',  #110 ) ;
#181 = DIRECTION ( 'NONE',  ( -2.445468806185136597E-29, 3.491481338843145583E-15, 1.000000000000000000 ) ) ;
#182 =( GEOMETRIC_REPRESENTATION_CONTEXT ( 3 ) GLOBAL_UNCERTAINTY_ASSIGNED_CONTEXT ( ( #333 ) ) GLOBAL_UNIT_ASSIGNED_CONTEXT ( ( #228, #254, #310 ) ) REPRESENTATION_CONTEXT ( 'NONE', 'WORKASPACE' ) );
#183 = LINE ( 'NONE', #288, #201 ) ;
#184 = LINE ( 'NONE', #336, #151 ) ;
#185 =( LENGTH_UNIT ( ) NAMED_UNIT ( * ) SI_UNIT ( $, .METRE. ) );
#186 = EDGE_CURVE ( 'NONE', #112, #285, #133, .T. ) ;
#187 = CARTESIAN_POINT ( 'NONE',  ( -0.02325000000000000677, -1.715397950070163855E-15, -0.03125000000000020817 ) ) ;
#188 = APPROVAL ( #58, 'UNSPECIFIED' ) ;
#189 = DIRECTION ( 'NONE',  ( -2.445459817378154344E-29, 3.491494211326355122E-15, 1.000000000000000000 ) ) ;
#190 = CARTESIAN_POINT ( 'NONE',  ( -0.02325000000000012820, -3.486888294365706190E-15, -1.046000000000000041 ) ) ;
#191 = PERSON_AND_ORGANIZATION_ROLE ( 'design_supplier' ) ;
#192 = AXIS2_PLACEMENT_3D ( 'NONE', #99, #206, #319 ) ;
#193 = CC_DESIGN_APPROVAL ( #256, ( #124 ) ) ;
#194 = COORDINATED_UNIVERSAL_TIME_OFFSET ( 5, 0, .BEHIND. ) ;
#195 = ORIENTED_EDGE ( 'NONE', *, *, #51, .T. ) ;
#196 = CC_DESIGN_PERSON_AND_ORGANIZATION_ASSIGNMENT ( #312, #191, ( #124 ) ) ;
#197 = EDGE_LOOP ( 'NONE', ( #89, #345 ) ) ;
#198 = EDGE_CURVE ( 'NONE', #112, #30, #214, .T. ) ;
#199 = PERSON_AND_ORGANIZATION ( #359, #170 ) ;
#200 = VERTEX_POINT ( 'NONE', #244 ) ;
#201 = VECTOR ( 'NONE', #43, 39.37007874015748854 ) ;
#202 = AXIS2_PLACEMENT_3D ( 'NONE', #242, #189, #356 ) ;
#203 = PERSON_AND_ORGANIZATION ( #359, #170 ) ;
#204 = EDGE_LOOP ( 'NONE', ( #174, #36, #250, #227 ) ) ;
#205 = EDGE_LOOP ( 'NONE', ( #34, #195, #314 ) ) ;
#206 = DIRECTION ( 'NONE',  ( -2.445468806185136597E-29, 3.491481338843145583E-15, 1.000000000000000000 ) ) ;
#207 = CIRCLE ( 'NONE', #45, 0.02325000000000000677 ) ;
#208 = CIRCLE ( 'NONE', #241, 0.02324999999999999983 ) ;
#209 = CARTESIAN_POINT ( 'NONE',  ( 1.652011860642597768E-16, 0.02324999999999634304, -1.046500000000000208 ) ) ;
#210 = APPLICATION_CONTEXT ( 'configuration controlled 3d designs of mechanical parts and assemblies' ) ;
#211 = CARTESIAN_POINT ( 'NONE',  ( 2.557960371269653033E-29, -3.652089480429930616E-15, -1.046000000000000041 ) ) ;
#212 = CARTESIAN_POINT ( 'NONE',  ( 7.642090019328602662E-31, -1.091087918388490267E-16, -0.03125000000000020817 ) ) ;
#213 = AXIS2_PLACEMENT_3D ( 'NONE', #75, #181, #154 ) ;
#214 = CIRCLE ( 'NONE', #95, 0.02325000000000012820 ) ;
#215 = CARTESIAN_POINT ( 'NONE',  ( 2.559183105672745834E-29, -3.653835221099352909E-15, -1.046500000000000208 ) ) ;
#216 = CARTESIAN_POINT ( 'NONE',  ( 0.02275000000000018674, -3.812697622016716044E-15, -1.046500000000000208 ) ) ;
#217 = CONICAL_SURFACE ( 'NONE', #66, 0.02325000000000012820, 0.7853981633973543541 ) ;
#218 = DIRECTION ( 'NONE',  ( -2.445459817378154344E-29, 3.491494211326355122E-15, 1.000000000000000000 ) ) ;
#219 = VECTOR ( 'NONE', #271, 39.37007874015748143 ) ;
#220 = DIRECTION ( 'NONE',  ( -2.445468806185136597E-29, 3.491481338843145583E-15, 1.000000000000000000 ) ) ;
#221 = CALENDAR_DATE ( 2024, 22, 4 ) ;
#222 = APPLICATION_PROTOCOL_DEFINITION ( 'international standard', 'config_control_design', 1994, #210 ) ;
#223 = VERTEX_POINT ( 'NONE', #337 ) ;
#224 = AXIS2_PLACEMENT_3D ( 'NONE', #273, #24, #53 ) ;
#225 = COORDINATED_UNIVERSAL_TIME_OFFSET ( 5, 0, .BEHIND. ) ;
#226 = ORIENTED_EDGE ( 'NONE', *, *, #270, .F. ) ;
#227 = ORIENTED_EDGE ( 'NONE', *, *, #237, .F. ) ;
#228 =( CONVERSION_BASED_UNIT ( 'INCH', #1 ) LENGTH_UNIT ( ) NAMED_UNIT ( #60 ) );
#229 = VERTEX_POINT ( 'NONE', #216 ) ;
#230 = LOCAL_TIME ( 16, 8, 17.00000000000000000, #340 ) ;
#231 = ORIENTED_EDGE ( 'NONE', *, *, #252, .T. ) ;
#232 = CYLINDRICAL_SURFACE ( 'NONE', #307, 0.02324999999999999983 ) ;
#233 = CARTESIAN_POINT ( 'NONE',  ( 0.02325000000000000677, -2.714626740950547997E-16, -0.03125000000000020817 ) ) ;
#234 = ADVANCED_FACE ( 'NONE', ( #81 ), #82, .T. ) ;
#235 = VECTOR ( 'NONE', #49, 39.37007874015748143 ) ;
#236 = DIRECTION ( 'NONE',  ( -6.982962677686266711E-15, -1.000000000000000000, 5.874941921858630857E-15 ) ) ;
#237 = EDGE_CURVE ( 'NONE', #30, #59, #159, .T. ) ;
#238 = DIRECTION ( 'NONE',  ( -6.982962677686266711E-15, -1.000000000000000000, 0.000000000000000000 ) ) ;
#239 = DIRECTION ( 'NONE',  ( -2.445459817378154344E-29, 3.491494211326355122E-15, 1.000000000000000000 ) ) ;
#240 = APPROVAL_PERSON_ORGANIZATION ( #93, #100, #344 ) ;
#241 = AXIS2_PLACEMENT_3D ( 'NONE', #132, #218, #330 ) ;
#242 = CARTESIAN_POINT ( 'NONE',  ( -9.260974643321534467E-28, 1.322231741747868002E-13, 37.87007874015748143 ) ) ;
#243 = MANIFOLD_SOLID_BREP ( 'Body-Move/Copy2[2]', #269 ) ;
#244 = CARTESIAN_POINT ( 'NONE',  ( 1.652011860642597768E-16, 0.02324999999999479219, -1.491537692053310771 ) ) ;
#245 = CARTESIAN_POINT ( 'NONE',  ( 1.652011860642488807E-16, 0.02324999999999634651, -1.046500000000000208 ) ) ;
#246 = DIRECTION ( 'NONE',  ( -2.445468806185136597E-29, 3.491481338843145583E-15, 1.000000000000000000 ) ) ;
#247 = AXIS2_PLACEMENT_3D ( 'NONE', #26, #305, #248 ) ;
#248 = DIRECTION ( 'NONE',  ( -6.982962677686266711E-15, -1.000000000000000000, 0.000000000000000000 ) ) ;
#249 = CC_DESIGN_DATE_AND_TIME_ASSIGNMENT ( #278, #31, ( #17 ) ) ;
#250 = ORIENTED_EDGE ( 'NONE', *, *, #153, .F. ) ;
#251 = ORIENTED_EDGE ( 'NONE', *, *, #63, .T. ) ;
#252 = EDGE_CURVE ( 'NONE', #287, #112, #364, .T. ) ;
#253 = AXIS2_PLACEMENT_3D ( 'NONE', #139, #80, #47 ) ;
#254 =( NAMED_UNIT ( * ) PLANE_ANGLE_UNIT ( ) SI_UNIT ( $, .RADIAN. ) );
#255 = ORIENTED_EDGE ( 'NONE', *, *, #138, .T. ) ;
#256 = APPROVAL ( #276, 'UNSPECIFIED' ) ;
#257 = PERSON_AND_ORGANIZATION_ROLE ( 'classification_officer' ) ;
#258 = VERTEX_POINT ( 'NONE', #107 ) ;
#259 = PERSON_AND_ORGANIZATION_ROLE ( 'creator' ) ;
#260 = ORIENTED_EDGE ( 'NONE', *, *, #51, .F. ) ;
#261 = AXIS2_PLACEMENT_3D ( 'NONE', #18, #128, #238 ) ;
#262 = LINE ( 'NONE', #13, #328 ) ;
#263 = ADVANCED_FACE ( 'NONE', ( #268 ), #335, .T. ) ;
#264 = DIRECTION ( 'NONE',  ( -6.982962677686266711E-15, -1.000000000000000000, 5.874941921858630857E-15 ) ) ;
#265 = DIRECTION ( 'NONE',  ( 1.000000000000000000, -6.982962677686265922E-15, 4.876176775795935793E-29 ) ) ;
#266 = DIRECTION ( 'NONE',  ( -2.445459817378154344E-29, 3.491494211326355122E-15, 1.000000000000000000 ) ) ;
#267 = FACE_OUTER_BOUND ( 'NONE', #204, .T. ) ;
#268 = FACE_OUTER_BOUND ( 'NONE', #169, .T. ) ;
#269 = CLOSED_SHELL ( 'NONE', ( #25, #134, #37, #23, #87, #322, #234 ) ) ;
#270 = EDGE_CURVE ( 'NONE', #97, #200, #4, .T. ) ;
#271 = DIRECTION ( 'NONE',  ( -2.445468806185136877E-29, 3.491481338843145188E-15, 1.000000000000000000 ) ) ;
#272 = FACE_OUTER_BOUND ( 'NONE', #311, .T. ) ;
#273 = CARTESIAN_POINT ( 'NONE',  ( 7.642090019328602662E-31, -1.091087918388490267E-16, -0.03125000000000020817 ) ) ;
#274 = DIRECTION ( 'NONE',  ( -0.7071067811865452413, 2.468850131082233000E-15, -0.7071067811865497932 ) ) ;
#275 = LOCAL_TIME ( 16, 8, 17.00000000000000000, #38 ) ;
#276 = APPROVAL_STATUS ( 'not_yet_approved' ) ;
#277 = ORIENTED_EDGE ( 'NONE', *, *, #293, .F. ) ;
#278 = DATE_AND_TIME ( #64, #120 ) ;
#279 = ORIENTED_EDGE ( 'NONE', *, *, #198, .T. ) ;
#280 = APPLICATION_PROTOCOL_DEFINITION ( 'international standard', 'config_control_design', 1994, #41 ) ;
#281 = CC_DESIGN_PERSON_AND_ORGANIZATION_ASSIGNMENT ( #111, #91, ( #295 ) ) ;
#282 = EDGE_LOOP ( 'NONE', ( #39, #255, #142, #69 ) ) ;
#283 = VECTOR ( 'NONE', #83, 39.37007874015748143 ) ;
#284 = APPROVAL_DATE_TIME ( #308, #256 ) ;
#285 = VERTEX_POINT ( 'NONE', #187 ) ;
#286 = PERSON_AND_ORGANIZATION ( #359, #170 ) ;
#287 = VERTEX_POINT ( 'NONE', #300 ) ;
#288 = CARTESIAN_POINT ( 'NONE',  ( 3.668208704613073019E-29, -5.237214374882175497E-15, -1.500000000000000222 ) ) ;
#289 = AXIS2_PLACEMENT_3D ( 'NONE', #8, #296, #103 ) ;
#290 = VECTOR ( 'NONE', #303, 39.37007874015748854 ) ;
#291 = PRODUCT_RELATED_PRODUCT_CATEGORY ( 'detail', '', ( #295 ) ) ;
#292 = DIRECTION ( 'NONE',  ( 1.000000000000000000, -6.982962677686267499E-15, 0.000000000000000000 ) ) ;
#293 = EDGE_CURVE ( 'NONE', #149, #98, #208, .T. ) ;
#294 = LINE ( 'NONE', #157, #160 ) ;
#295 = PRODUCT ( '56056', '56056', '', ( #338 ) ) ;
#296 = DIRECTION ( 'NONE',  ( -2.445459817378154344E-29, 3.491494211326355122E-15, 1.000000000000000000 ) ) ;
#297 = AXIS2_PLACEMENT_3D ( 'NONE', #14, #125, #265 ) ;
#298 = CARTESIAN_POINT ( 'NONE',  ( 2.559183105672745834E-29, -3.653835221099352909E-15, -1.046500000000000208 ) ) ;
#299 = FACE_OUTER_BOUND ( 'NONE', #197, .T. ) ;
#300 = CARTESIAN_POINT ( 'NONE',  ( -0.02275000000000018674, -3.489537521539817391E-15, -1.046500000000000208 ) ) ;
#301 = EDGE_CURVE ( 'NONE', #200, #98, #54, .T. ) ;
#302 = CARTESIAN_POINT ( 'NONE',  ( 0.000000000000000000, 0.000000000000000000, 0.000000000000000000 ) ) ;
#303 = DIRECTION ( 'NONE',  ( -0.7071067811864809594, 7.493145998870112769E-15, 0.7071067811866138531 ) ) ;
#304 = EDGE_CURVE ( 'NONE', #287, #229, #108, .T. ) ;
#305 = DIRECTION ( 'NONE',  ( -2.445459817378154344E-29, 3.491494211326355122E-15, 1.000000000000000000 ) ) ;
#306 = CC_DESIGN_PERSON_AND_ORGANIZATION_ASSIGNMENT ( #199, #259, ( #110 ) ) ;
#307 = AXIS2_PLACEMENT_3D ( 'NONE', #19, #239, #264 ) ;
#308 = DATE_AND_TIME ( #221, #275 ) ;
#309 = AXIS2_PLACEMENT_3D ( 'NONE', #21, #163, #164 ) ;
#310 =( NAMED_UNIT ( * ) SI_UNIT ( $, .STERADIAN. ) SOLID_ANGLE_UNIT ( ) );
#311 = EDGE_LOOP ( 'NONE', ( #62, #251, #343 ) ) ;
#312 = PERSON_AND_ORGANIZATION ( #359, #170 ) ;
#313 = EDGE_LOOP ( 'NONE', ( #65, #167 ) ) ;
#314 = ORIENTED_EDGE ( 'NONE', *, *, #153, .T. ) ;
#315 = AXIS2_PLACEMENT_3D ( 'NONE', #52, #136, #358 ) ;
#316 = EDGE_LOOP ( 'NONE', ( #116, #71, #94, #85 ) ) ;
#317 = DIRECTION ( 'NONE',  ( 2.445468806185136597E-29, -3.491481338843145583E-15, -1.000000000000000000 ) ) ;
#318 = CC_DESIGN_PERSON_AND_ORGANIZATION_ASSIGNMENT ( #203, #35, ( #124 ) ) ;
#319 = DIRECTION ( 'NONE',  ( 1.000000000000000000, -6.982962677686267499E-15, 0.000000000000000000 ) ) ;
#320 = AXIS2_PLACEMENT_3D ( 'NONE', #212, #317, #123 ) ;
#321 = AXIS2_PLACEMENT_3D ( 'NONE', #302, #246, #162 ) ;
#322 = ADVANCED_FACE ( 'NONE', ( #331 ), #106, .T. ) ;
#323 = SHAPE_DEFINITION_REPRESENTATION ( #180, #55 ) ;
#324 = DIRECTION ( 'NONE',  ( -2.445468806185136597E-29, 3.491481338843145583E-15, 1.000000000000000000 ) ) ;
#325 = EDGE_CURVE ( 'NONE', #258, #285, #184, .T. ) ;
#326 = DIRECTION ( 'NONE',  ( -2.445468806185136597E-29, 3.491481338843145583E-15, 1.000000000000000000 ) ) ;
#327 = FACE_OUTER_BOUND ( 'NONE', #6, .T. ) ;
#328 = VECTOR ( 'NONE', #266, 39.37007874015748143 ) ;
#329 = APPROVAL_PERSON_ORGANIZATION ( #342, #188, #166 ) ;
#330 = DIRECTION ( 'NONE',  ( -6.982962677686266711E-15, -1.000000000000000000, 5.874941921858630857E-15 ) ) ;
#331 = FACE_OUTER_BOUND ( 'NONE', #2, .T. ) ;
#332 = CARTESIAN_POINT ( 'NONE',  ( -0.02325000000000006922, 1.652011860642237851E-16, -1.143652408484268918E-30 ) ) ;
#333 = UNCERTAINTY_MEASURE_WITH_UNIT (LENGTH_MEASURE( 1.000000000000000082E-05 ), #228, 'distance_accuracy_value', 'NONE');
#334 = AXIS2_PLACEMENT_3D ( 'NONE', #298, #74, #236 ) ;
#335 = CONICAL_SURFACE ( 'NONE', #309, 108.1684023407306796, 1.221730476396023279 ) ;
#336 = CARTESIAN_POINT ( 'NONE',  ( -0.02325000000000000677, 5.324509041735672783E-17, -0.03125000000000020817 ) ) ;
#337 = CARTESIAN_POINT ( 'NONE',  ( 3.668189726067231515E-29, -5.237241316989532880E-15, -1.500000000000000222 ) ) ;
#338 = MECHANICAL_CONTEXT ( 'NONE', #210, 'mechanical' ) ;
#339 = VECTOR ( 'NONE', #40, 39.37007874015748854 ) ;
#340 = COORDINATED_UNIVERSAL_TIME_OFFSET ( 5, 0, .BEHIND. ) ;
#341 = EDGE_LOOP ( 'NONE', ( #260, #117, #140 ) ) ;
#342 = PERSON_AND_ORGANIZATION ( #359, #170 ) ;
#343 = ORIENTED_EDGE ( 'NONE', *, *, #138, .F. ) ;
#344 = APPROVAL_ROLE ( '' ) ;
#345 = ORIENTED_EDGE ( 'NONE', *, *, #9, .T. ) ;
#346 = EDGE_LOOP ( 'NONE', ( #172, #147, #277, #121 ) ) ;
#347 = ORIENTED_EDGE ( 'NONE', *, *, #176, .F. ) ;
#348 = FACE_OUTER_BOUND ( 'NONE', #282, .T. ) ;
#349 = EDGE_CURVE ( 'NONE', #229, #287, #57, .T. ) ;
#350 = CARTESIAN_POINT ( 'NONE',  ( 2.557960371269653033E-29, -3.652089480429930616E-15, -1.046000000000000041 ) ) ;
#351 = LOCAL_TIME ( 16, 8, 17.00000000000000000, #194 ) ;
#352 = DIRECTION ( 'NONE',  ( 0.7071067811864809594, -2.468850131081560496E-15, 0.7071067811866138531 ) ) ;
#353 = CYLINDRICAL_SURFACE ( 'NONE', #334, 0.02324999999999999983 ) ;
#354 = CARTESIAN_POINT ( 'NONE',  ( -1.623538822561800857E-16, -0.02325000000000365663, -1.046499999999999986 ) ) ;
#355 = CLOSED_SHELL ( 'NONE', ( #141, #263, #360, #48, #357 ) ) ;
#356 = DIRECTION ( 'NONE',  ( -6.982962677686266711E-15, -1.000000000000000000, 3.475157955500809750E-15 ) ) ;
#357 = ADVANCED_FACE ( 'NONE', ( #299 ), #29, .F. ) ;
#358 = DIRECTION ( 'NONE',  ( 1.000000000000000000, -6.982962677686264344E-15, 0.000000000000000000 ) ) ;
#359 = PERSON ( 'UNSPECIFIED', 'UNSPECIFIED', 'UNSPECIFIED', ('UNSPECIFIED'), ('UNSPECIFIED'), ('UNSPECIFIED') ) ;
#360 = ADVANCED_FACE ( 'NONE', ( #272 ), #101, .T. ) ;
#361 = CARTESIAN_POINT ( 'NONE',  ( 0.02325000000000006922, -1.623538822562061674E-16, 1.133711100372558491E-30 ) ) ;
#362 = AXIS2_PLACEMENT_3D ( 'NONE', #215, #161, #135 ) ;
#363 = DIRECTION ( 'NONE',  ( 1.000000000000000000, -6.982962677686262766E-15, 0.000000000000000000 ) ) ;
#364 = LINE ( 'NONE', #190, #290 ) ;
ENDSEC;
END-ISO-10303-21;
