ISO-10303-21;
HEADER;
FILE_DESCRIPTION (( 'STEP AP203' ),
    '1' );
FILE_NAME ('57084.STEP',
    '2024-04-22T21:53:50',
    ( '' ),
    ( '' ),
    'SwSTEP 2.0',
    'SolidWorks 2023',
    '' );
FILE_SCHEMA (( 'CONFIG_CONTROL_DESIGN' ));
ENDSEC;

DATA;
#1 = FACE_OUTER_BOUND ( 'NONE', #141, .T. ) ;
#2 = LINE ( 'NONE', #258, #157 ) ;
#3 = PERSON_AND_ORGANIZATION_ROLE ( 'creator' ) ;
#4 = AXIS2_PLACEMENT_3D ( 'NONE', #117, #305, #217 ) ;
#5 = DIRECTION ( 'NONE',  ( -2.445468806185136597E-29, 3.491481338843145583E-15, 1.000000000000000000 ) ) ;
#6 = AXIS2_PLACEMENT_3D ( 'NONE', #239, #241, #354 ) ;
#7 = LINE ( 'NONE', #124, #203 ) ;
#8 = CALENDAR_DATE ( 2024, 22, 4 ) ;
#9 = ADVANCED_FACE ( 'NONE', ( #54 ), #178, .T. ) ;
#10 = LINE ( 'NONE', #64, #198 ) ;
#11 = CALENDAR_DATE ( 2024, 22, 4 ) ;
#12 = MANIFOLD_SOLID_BREP ( 'Body-Move/Copy2[1]', #174 ) ;
#13 = CONICAL_SURFACE ( 'NONE', #273, 0.01200000000000000372, 0.7853981633974450594 ) ;
#14 = DATE_AND_TIME ( #8, #342 ) ;
#15 = APPROVAL ( #130, 'UNSPECIFIED' ) ;
#16 = PERSON_AND_ORGANIZATION_ROLE ( 'creator' ) ;
#17 = SECURITY_CLASSIFICATION_LEVEL ( 'unclassified' ) ;
#18 = APPROVAL_DATE_TIME ( #293, #256 ) ;
#19 = ORIENTED_EDGE ( 'NONE', *, *, #103, .F. ) ;
#20 = DIRECTION ( 'NONE',  ( -2.445358550748210682E-29, 3.491639230904173649E-15, 1.000000000000000000 ) ) ;
#21 = PERSON_AND_ORGANIZATION ( #33, #346 ) ;
#22 = EDGE_LOOP ( 'NONE', ( #169, #106, #57, #190 ) ) ;
#23 = CONICAL_SURFACE ( 'NONE', #264, 0.01200000000000007831, 0.7853981633974227439 ) ;
#24 = DIRECTION ( 'NONE',  ( -6.982962677686267499E-15, -1.000000000000000000, 3.468864327941585931E-15 ) ) ;
#25 = ADVANCED_FACE ( 'NONE', ( #353 ), #176, .F. ) ;
#26 = ORIENTED_EDGE ( 'NONE', *, *, #37, .T. ) ;
#27 = DIMENSIONAL_EXPONENTS ( 1.000000000000000000, 0.000000000000000000, 0.000000000000000000, 0.000000000000000000, 0.000000000000000000, 0.000000000000000000, 0.000000000000000000 ) ;
#28 = CARTESIAN_POINT ( 'NONE',  ( 0.01200000000000000372, -1.914347678121073849E-16, -0.03125000000000019429 ) ) ;
#29 = VERTEX_POINT ( 'NONE', #254 ) ;
#30 = DIRECTION ( 'NONE',  ( -2.445358550748210401E-29, 3.491639230904173649E-15, 1.000000000000000000 ) ) ;
#31 = CC_DESIGN_DATE_AND_TIME_ASSIGNMENT ( #45, #336, ( #262 ) ) ;
#32 = ORIENTED_EDGE ( 'NONE', *, *, #50, .T. ) ;
#33 = PERSON ( 'UNSPECIFIED', 'UNSPECIFIED', 'UNSPECIFIED', ('UNSPECIFIED'), ('UNSPECIFIED'), ('UNSPECIFIED') ) ;
#34 = DIRECTION ( 'NONE',  ( -2.445468806185136597E-29, 3.491481338843145583E-15, 1.000000000000000000 ) ) ;
#35 = DIRECTION ( 'NONE',  ( -2.445468806185136597E-29, 3.491481338843145583E-15, 1.000000000000000000 ) ) ;
#36 = CARTESIAN_POINT ( 'NONE',  ( 2.139833098381240248E-29, -3.054979383145937361E-15, -0.8750000000000000000 ) ) ;
#37 = EDGE_CURVE ( 'NONE', #80, #171, #312, .T. ) ;
#38 = DIRECTION ( 'NONE',  ( 1.000000000000000000, -6.982962677686287221E-15, 0.000000000000000000 ) ) ;
#39 = DIRECTION ( 'NONE',  ( 0.7071067811865294761, -2.468850131082068128E-15, 0.7071067811865655584 ) ) ;
#40 = APPROVAL_ROLE ( '' ) ;
#41 = DIRECTION ( 'NONE',  ( -6.982962677686265922E-15, -1.000000000000000000, 0.000000000000000000 ) ) ;
#42 = PLANE ( 'NONE',  #182 ) ;
#43 = APPROVAL ( #327, 'UNSPECIFIED' ) ;
#44 = CIRCLE ( 'NONE', #255, 0.01200000000000000025 ) ;
#45 = DATE_AND_TIME ( #313, #280 ) ;
#46 = DIRECTION ( 'NONE',  ( -2.445358550748210401E-29, 3.491639230904173649E-15, 1.000000000000000000 ) ) ;
#47 = EDGE_LOOP ( 'NONE', ( #219, #150, #76, #59 ) ) ;
#48 = EDGE_CURVE ( 'NONE', #171, #275, #79, .T. ) ;
#49 = DATE_AND_TIME ( #295, #158 ) ;
#50 = EDGE_CURVE ( 'NONE', #160, #307, #270, .T. ) ;
#51 = CARTESIAN_POINT ( 'NONE',  ( 0.000000000000000000, 0.000000000000000000, 0.000000000000000000 ) ) ;
#52 = EDGE_LOOP ( 'NONE', ( #221, #26, #197 ) ) ;
#53 = DIRECTION ( 'NONE',  ( 2.445468806185136597E-29, -3.491481338843145583E-15, -1.000000000000000000 ) ) ;
#54 = FACE_OUTER_BOUND ( 'NONE', #113, .T. ) ;
#55 = DIRECTION ( 'NONE',  ( 2.445358550748210121E-29, -3.491639230904173649E-15, -1.000000000000000000 ) ) ;
#56 = CIRCLE ( 'NONE', #317, 0.01150000000000006919 ) ;
#57 = ORIENTED_EDGE ( 'NONE', *, *, #304, .F. ) ;
#58 = FACE_OUTER_BOUND ( 'NONE', #172, .T. ) ;
#59 = ORIENTED_EDGE ( 'NONE', *, *, #253, .F. ) ;
#60 = PERSON_AND_ORGANIZATION ( #33, #346 ) ;
#61 = DIRECTION ( 'NONE',  ( -6.982962677686265922E-15, -1.000000000000000000, 0.000000000000000000 ) ) ;
#62 = CIRCLE ( 'NONE', #351, 0.01150000000000006919 ) ;
#63 = APPROVAL_PERSON_ORGANIZATION ( #125, #15, #40 ) ;
#64 = CARTESIAN_POINT ( 'NONE',  ( 2.139688731904683856E-29, -3.055184327041151647E-15, -0.8750000000000000000 ) ) ;
#65 = DATE_TIME_ROLE ( 'classification_date' ) ;
#66 = CARTESIAN_POINT ( 'NONE',  ( -0.01200000000000000372, -2.531323970661376157E-17, -0.03125000000000019429 ) ) ;
#67 = DIRECTION ( 'NONE',  ( 1.000000000000000000, -6.982962677686265922E-15, 4.876176775795935793E-29 ) ) ;
#68 = ADVANCED_FACE ( 'NONE', ( #75 ), #142, .T. ) ;
#69 = DIRECTION ( 'NONE',  ( -2.445468806185136877E-29, 3.491481338843145188E-15, 1.000000000000000000 ) ) ;
#70 = CC_DESIGN_APPROVAL ( #256, ( #115 ) ) ;
#71 = CARTESIAN_POINT ( 'NONE',  ( 8.526512829123326169E-17, 0.01199999999999773297, -0.6489999999999999103 ) ) ;
#72 = DIRECTION ( 'NONE',  ( -2.445468806185136597E-29, 3.491481338843145583E-15, 1.000000000000000000 ) ) ;
#73 = CARTESIAN_POINT ( 'NONE',  ( 7.642090019328599159E-31, -1.091087918388489774E-16, -0.03125000000000019429 ) ) ;
#74 = ADVANCED_FACE ( 'NONE', ( #343 ), #42, .F. ) ;
#75 = FACE_OUTER_BOUND ( 'NONE', #347, .T. ) ;
#76 = ORIENTED_EDGE ( 'NONE', *, *, #50, .F. ) ;
#77 = FACE_OUTER_BOUND ( 'NONE', #47, .T. ) ;
#78 = COORDINATED_UNIVERSAL_TIME_OFFSET ( 5, 0, .BEHIND. ) ;
#79 = CIRCLE ( 'NONE', #341, 0.01200000000000000372 ) ;
#80 = VERTEX_POINT ( 'NONE', #355 ) ;
#81 = ORIENTED_EDGE ( 'NONE', *, *, #225, .T. ) ;
#82 = ORIENTED_EDGE ( 'NONE', *, *, #230, .F. ) ;
#83 = CARTESIAN_POINT ( 'NONE',  ( 2.139688731904683856E-29, -3.055184327041151647E-15, -0.8750000000000000000 ) ) ;
#84 =( GEOMETRIC_REPRESENTATION_CONTEXT ( 3 ) GLOBAL_UNCERTAINTY_ASSIGNED_CONTEXT ( ( #259 ) ) GLOBAL_UNIT_ASSIGNED_CONTEXT ( ( #112, #186, #271 ) ) REPRESENTATION_CONTEXT ( 'NONE', 'WORKASPACE' ) );
#85 = MECHANICAL_CONTEXT ( 'NONE', #109, 'mechanical' ) ;
#86 = VERTEX_POINT ( 'NONE', #110 ) ;
#87 = EDGE_CURVE ( 'NONE', #328, #326, #330, .T. ) ;
#88 = CARTESIAN_POINT ( 'NONE',  ( -0.01200000000000000372, -1.101402091748100510E-15, -0.03125000000000019429 ) ) ;
#89 = EDGE_LOOP ( 'NONE', ( #97, #357, #237, #300 ) ) ;
#90 = CARTESIAN_POINT ( 'NONE',  ( 0.01200000000000007831, -2.348021200372015386E-15, -0.6484999999999999654 ) ) ;
#91 = EDGE_CURVE ( 'NONE', #275, #171, #204, .T. ) ;
#92 = CIRCLE ( 'NONE', #114, 0.01200000000000000025 ) ;
#93 = EDGE_CURVE ( 'NONE', #333, #269, #2, .T. ) ;
#94 = DIRECTION ( 'NONE',  ( -5.985567269335947590E-15, -0.8571673007021111124, 0.5150380749100561539 ) ) ;
#95 = CARTESIAN_POINT ( 'NONE',  ( 1.585886520811060832E-29, -2.264225648239779664E-15, -0.6484999999999999654 ) ) ;
#96 = CC_DESIGN_PERSON_AND_ORGANIZATION_ASSIGNMENT ( #21, #3, ( #262 ) ) ;
#97 = ORIENTED_EDGE ( 'NONE', *, *, #304, .T. ) ;
#98 = EDGE_CURVE ( 'NONE', #333, #328, #56, .T. ) ;
#99 = VECTOR ( 'NONE', #69, 39.37007874015748143 ) ;
#100 = VECTOR ( 'NONE', #325, 39.37007874015748143 ) ;
#101 = DIRECTION ( 'NONE',  ( -6.982962677686265922E-15, -1.000000000000000000, 0.000000000000000000 ) ) ;
#102 = CARTESIAN_POINT ( 'NONE',  ( 7.642090019328599159E-31, -1.091087918388489774E-16, -0.03125000000000019429 ) ) ;
#103 = EDGE_CURVE ( 'NONE', #29, #307, #162, .T. ) ;
#104 = VECTOR ( 'NONE', #177, 39.37007874015748143 ) ;
#105 = DIRECTION ( 'NONE',  ( 0.000000000000000000, 0.000000000000000000, 1.000000000000000000 ) ) ;
#106 = ORIENTED_EDGE ( 'NONE', *, *, #93, .T. ) ;
#107 = APPLICATION_PROTOCOL_DEFINITION ( 'international standard', 'config_control_design', 1994, #181 ) ;
#108 = ORIENTED_EDGE ( 'NONE', *, *, #291, .F. ) ;
#109 = APPLICATION_CONTEXT ( 'configuration controlled 3d designs of mechanical parts and assemblies' ) ;
#110 = CARTESIAN_POINT ( 'NONE',  ( -8.379555213221399052E-17, -0.01200000000000303255, -0.8677896725716692794 ) ) ;
#111 = EDGE_CURVE ( 'NONE', #307, #160, #194, .T. ) ;
#112 =( CONVERSION_BASED_UNIT ( 'INCH', #236 ) LENGTH_UNIT ( ) NAMED_UNIT ( #27 ) );
#113 = EDGE_LOOP ( 'NONE', ( #116, #196, #251 ) ) ;
#114 = AXIS2_PLACEMENT_3D ( 'NONE', #139, #30, #234 ) ;
#115 = PRODUCT_DEFINITION_FORMATION_WITH_SPECIFIED_SOURCE ( 'ANY', '', #364, .NOT_KNOWN. ) ;
#116 = ORIENTED_EDGE ( 'NONE', *, *, #225, .F. ) ;
#117 = CARTESIAN_POINT ( 'NONE',  ( 1.585886520811060832E-29, -2.264225648239779664E-15, -0.6484999999999999654 ) ) ;
#118 = ADVANCED_BREP_SHAPE_REPRESENTATION ( '57084', ( #12, #260, #249 ), #84 ) ;
#119 = DIRECTION ( 'NONE',  ( 1.000000000000000000, -6.982962677686265922E-15, 4.876176775795935793E-29 ) ) ;
#120 = DIRECTION ( 'NONE',  ( -0.7071067811865294761, 7.493145998870289474E-15, 0.7071067811865655584 ) ) ;
#121 = EDGE_CURVE ( 'NONE', #269, #326, #201, .T. ) ;
#122 = AXIS2_PLACEMENT_3D ( 'NONE', #266, #46, #161 ) ;
#123 = COORDINATED_UNIVERSAL_TIME_OFFSET ( 5, 0, .BEHIND. ) ;
#124 = CARTESIAN_POINT ( 'NONE',  ( -8.379555213221931533E-17, -0.01200000000000226580, -0.6489999999999999103 ) ) ;
#125 = PERSON_AND_ORGANIZATION ( #33, #346 ) ;
#126 = CARTESIAN_POINT ( 'NONE',  ( 1.587109255214153633E-29, -2.265971388909201562E-15, -0.6489999999999999103 ) ) ;
#127 = DATE_AND_TIME ( #11, #129 ) ;
#128 = AXIS2_PLACEMENT_3D ( 'NONE', #151, #156, #119 ) ;
#129 = LOCAL_TIME ( 17, 53, 50.00000000000000000, #250 ) ;
#130 = APPROVAL_STATUS ( 'not_yet_approved' ) ;
#131 = ADVANCED_FACE ( 'NONE', ( #77 ), #292, .T. ) ;
#132 = COORDINATED_UNIVERSAL_TIME_OFFSET ( 5, 0, .BEHIND. ) ;
#133 = ADVANCED_FACE ( 'NONE', ( #206 ), #23, .T. ) ;
#134 = AXIS2_PLACEMENT_3D ( 'NONE', #73, #35, #289 ) ;
#135 = LOCAL_TIME ( 17, 53, 50.00000000000000000, #132 ) ;
#136 = CARTESIAN_POINT ( 'NONE',  ( 1.585886520811060832E-29, -2.264225648239779664E-15, -0.6484999999999999654 ) ) ;
#137 = PERSON_AND_ORGANIZATION ( #33, #346 ) ;
#138 = CYLINDRICAL_SURFACE ( 'NONE', #167, 0.01200000000000004015 ) ;
#139 = CARTESIAN_POINT ( 'NONE',  ( 2.122128451852686584E-29, -3.029905992977120721E-15, -0.8677896725716692794 ) ) ;
#140 = PERSON_AND_ORGANIZATION ( #33, #346 ) ;
#141 = EDGE_LOOP ( 'NONE', ( #19, #243, #297, #205 ) ) ;
#142 = CONICAL_SURFACE ( 'NONE', #278, 65.52281426576858792, 1.029744258676655644 ) ;
#143 = APPLICATION_PROTOCOL_DEFINITION ( 'international standard', 'config_control_design', 1994, #109 ) ;
#144 = ORIENTED_EDGE ( 'NONE', *, *, #344, .T. ) ;
#145 = EDGE_CURVE ( 'NONE', #29, #86, #92, .T. ) ;
#146 = ORIENTED_EDGE ( 'NONE', *, *, #48, .F. ) ;
#147 = DIRECTION ( 'NONE',  ( 1.000000000000000000, -6.982962677686265922E-15, 4.876176775795935793E-29 ) ) ;
#148 = ORIENTED_EDGE ( 'NONE', *, *, #93, .F. ) ;
#149 = CONICAL_SURFACE ( 'NONE', #6, 0.01200000000000000372, 0.7853981633974450594 ) ;
#150 = ORIENTED_EDGE ( 'NONE', *, *, #103, .T. ) ;
#151 = CARTESIAN_POINT ( 'NONE',  ( 1.587109255214153633E-29, -2.265971388909201562E-15, -0.6489999999999999103 ) ) ;
#152 = DIRECTION ( 'NONE',  ( -2.445358550748210401E-29, 3.491639230904173649E-15, 1.000000000000000000 ) ) ;
#153 = AXIS2_PLACEMENT_3D ( 'NONE', #95, #252, #38 ) ;
#154 = DIRECTION ( 'NONE',  ( -2.445358550748210401E-29, 3.491639230904173649E-15, 1.000000000000000000 ) ) ;
#155 = CARTESIAN_POINT ( 'NONE',  ( 7.642090019328599159E-31, -1.091087918388489774E-16, -0.03125000000000019429 ) ) ;
#156 = DIRECTION ( 'NONE',  ( -2.438088387897960049E-29, 3.491481338843145188E-15, 1.000000000000000000 ) ) ;
#157 = VECTOR ( 'NONE', #120, 39.37007874015748143 ) ;
#158 = LOCAL_TIME ( 17, 53, 50.00000000000000000, #78 ) ;
#159 = ADVANCED_FACE ( 'NONE', ( #248 ), #149, .T. ) ;
#160 = VERTEX_POINT ( 'NONE', #329 ) ;
#161 = DIRECTION ( 'NONE',  ( -6.982962677686265922E-15, -1.000000000000000000, 0.000000000000000000 ) ) ;
#162 = LINE ( 'NONE', #290, #358 ) ;
#163 = ORIENTED_EDGE ( 'NONE', *, *, #211, .F. ) ;
#164 = DIRECTION ( 'NONE',  ( 0.7071067811865452413, -7.319954787623248157E-15, -0.7071067811865497932 ) ) ;
#165 = CARTESIAN_POINT ( 'NONE',  ( -9.413419840319118182E-28, 1.344110295978266781E-13, 38.49507874015748143 ) ) ;
#166 = AXIS2_PLACEMENT_3D ( 'NONE', #233, #348, #101 ) ;
#167 = AXIS2_PLACEMENT_3D ( 'NONE', #189, #268, #147 ) ;
#168 = DIRECTION ( 'NONE',  ( 6.982962677686265922E-15, 1.000000000000000000, -3.491639230904173649E-15 ) ) ;
#169 = ORIENTED_EDGE ( 'NONE', *, *, #211, .T. ) ;
#170 = APPROVAL_ROLE ( '' ) ;
#171 = VERTEX_POINT ( 'NONE', #88 ) ;
#172 = EDGE_LOOP ( 'NONE', ( #108, #184, #144, #146 ) ) ;
#173 = FACE_OUTER_BOUND ( 'NONE', #89, .T. ) ;
#174 = CLOSED_SHELL ( 'NONE', ( #131, #9, #68, #311, #74 ) ) ;
#175 = CC_DESIGN_PERSON_AND_ORGANIZATION_ASSIGNMENT ( #137, #321, ( #331 ) ) ;
#176 = PLANE ( 'NONE',  #128 ) ;
#177 = DIRECTION ( 'NONE',  ( -0.7071067811865452413, 2.468850131082233000E-15, -0.7071067811865497932 ) ) ;
#178 = CONICAL_SURFACE ( 'NONE', #216, 65.52281426576858792, 1.029744258676655644 ) ;
#179 = CARTESIAN_POINT ( 'NONE',  ( 1.587109255214153633E-29, -2.265971388909201562E-15, -0.6489999999999999103 ) ) ;
#180 = CARTESIAN_POINT ( 'NONE',  ( -9.413419840319118182E-28, 1.344110295978266781E-13, 38.49507874015748143 ) ) ;
#181 = APPLICATION_CONTEXT ( 'configuration controlled 3d designs of mechanical parts and assemblies' ) ;
#182 = AXIS2_PLACEMENT_3D ( 'NONE', #361, #55, #168 ) ;
#183 = CC_DESIGN_APPROVAL ( #15, ( #331 ) ) ;
#184 = ORIENTED_EDGE ( 'NONE', *, *, #121, .T. ) ;
#185 = PERSON_AND_ORGANIZATION_ROLE ( 'design_owner' ) ;
#186 =( NAMED_UNIT ( * ) PLANE_ANGLE_UNIT ( ) SI_UNIT ( $, .RADIAN. ) );
#187 = VERTEX_POINT ( 'NONE', #83 ) ;
#188 = APPROVAL_ROLE ( '' ) ;
#189 = CARTESIAN_POINT ( 'NONE',  ( 0.000000000000000000, 0.000000000000000000, 0.000000000000000000 ) ) ;
#190 = ORIENTED_EDGE ( 'NONE', *, *, #87, .F. ) ;
#191 = PRODUCT_RELATED_PRODUCT_CATEGORY ( 'detail', '', ( #364 ) ) ;
#192 =( LENGTH_UNIT ( ) NAMED_UNIT ( * ) SI_UNIT ( $, .METRE. ) );
#193 = ORIENTED_EDGE ( 'NONE', *, *, #121, .F. ) ;
#194 = CIRCLE ( 'NONE', #122, 0.01200000000000000025 ) ;
#195 = FACE_OUTER_BOUND ( 'NONE', #215, .T. ) ;
#196 = ORIENTED_EDGE ( 'NONE', *, *, #230, .T. ) ;
#197 = ORIENTED_EDGE ( 'NONE', *, *, #48, .T. ) ;
#198 = VECTOR ( 'NONE', #94, 39.37007874015748143 ) ;
#199 = ADVANCED_FACE ( 'NONE', ( #195 ), #208, .T. ) ;
#200 = CARTESIAN_POINT ( 'NONE',  ( 1.587109255214153633E-29, -2.265971388909201562E-15, -0.6489999999999999103 ) ) ;
#201 = CIRCLE ( 'NONE', #265, 0.01200000000000007831 ) ;
#202 = ADVANCED_FACE ( 'NONE', ( #58 ), #244, .T. ) ;
#203 = VECTOR ( 'NONE', #310, 39.37007874015748143 ) ;
#204 = CIRCLE ( 'NONE', #134, 0.01200000000000000372 ) ;
#205 = ORIENTED_EDGE ( 'NONE', *, *, #111, .F. ) ;
#206 = FACE_OUTER_BOUND ( 'NONE', #22, .T. ) ;
#207 = DIRECTION ( 'NONE',  ( -1.000000000000000000, 6.982962677686265922E-15, 0.000000000000000000 ) ) ;
#208 = CONICAL_SURFACE ( 'NONE', #4, 0.01200000000000007831, 0.7853981633974227439 ) ;
#209 = CARTESIAN_POINT ( 'NONE',  ( -0.01150000000000006919, -2.181609747122678373E-15, -0.6489999999999999103 ) ) ;
#210 = VECTOR ( 'NONE', #164, 39.37007874015748143 ) ;
#211 = EDGE_CURVE ( 'NONE', #328, #333, #62, .T. ) ;
#212 = ORIENTED_EDGE ( 'NONE', *, *, #91, .T. ) ;
#213 = EDGE_LOOP ( 'NONE', ( #163, #294 ) ) ;
#214 = CARTESIAN_POINT ( 'NONE',  ( 0.01150000000000006919, -2.346275459702593882E-15, -0.6489999999999999103 ) ) ;
#215 = EDGE_LOOP ( 'NONE', ( #148, #359, #303, #193 ) ) ;
#216 = AXIS2_PLACEMENT_3D ( 'NONE', #165, #272, #24 ) ;
#217 = DIRECTION ( 'NONE',  ( 1.000000000000000000, -6.982962677686287221E-15, 0.000000000000000000 ) ) ;
#218 = CC_DESIGN_APPROVAL ( #43, ( #262 ) ) ;
#219 = ORIENTED_EDGE ( 'NONE', *, *, #282, .T. ) ;
#220 = DIRECTION ( 'NONE',  ( -2.445468806185136597E-29, 3.491481338843145583E-15, 1.000000000000000000 ) ) ;
#221 = ORIENTED_EDGE ( 'NONE', *, *, #356, .F. ) ;
#222 = DESIGN_CONTEXT ( 'detailed design', #181, 'design' ) ;
#223 = APPROVAL_DATE_TIME ( #14, #15 ) ;
#224 = CARTESIAN_POINT ( 'NONE',  ( -0.01200000000000007831, -2.178960519948567172E-15, -0.6484999999999999654 ) ) ;
#225 = EDGE_CURVE ( 'NONE', #187, #86, #10, .T. ) ;
#226 = CARTESIAN_POINT ( 'NONE',  ( 0.01200000000000000372, -1.929043439710842055E-16, -0.03125000000000019429 ) ) ;
#227 = DIRECTION ( 'NONE',  ( -6.982962677686265922E-15, -1.000000000000000000, 0.000000000000000000 ) ) ;
#228 = CLOSED_SHELL ( 'NONE', ( #318, #315, #133, #25, #199, #202, #159 ) ) ;
#229 = DIRECTION ( 'NONE',  ( -6.982962677686267499E-15, -1.000000000000000000, 3.468864327941585931E-15 ) ) ;
#230 = EDGE_CURVE ( 'NONE', #187, #29, #279, .T. ) ;
#231 = PERSON_AND_ORGANIZATION ( #33, #346 ) ;
#232 = CC_DESIGN_PERSON_AND_ORGANIZATION_ASSIGNMENT ( #140, #16, ( #115 ) ) ;
#233 = CARTESIAN_POINT ( 'NONE',  ( 1.587109255214153633E-29, -2.265971388909201562E-15, -0.6489999999999999103 ) ) ;
#234 = DIRECTION ( 'NONE',  ( -6.982962677686265922E-15, -1.000000000000000000, 0.000000000000000000 ) ) ;
#235 = VECTOR ( 'NONE', #39, 39.37007874015748143 ) ;
#236 = LENGTH_MEASURE_WITH_UNIT ( LENGTH_MEASURE( 0.02539999999999999897 ), #192 );
#237 = ORIENTED_EDGE ( 'NONE', *, *, #91, .F. ) ;
#238 = APPROVAL_PERSON_ORGANIZATION ( #60, #256, #188 ) ;
#239 = CARTESIAN_POINT ( 'NONE',  ( 7.642090019328599159E-31, -1.091087918388489774E-16, -0.03125000000000019429 ) ) ;
#240 = EDGE_LOOP ( 'NONE', ( #276, #246, #212 ) ) ;
#241 = DIRECTION ( 'NONE',  ( 2.445468806185136597E-29, -3.491481338843145583E-15, -1.000000000000000000 ) ) ;
#242 = FACE_OUTER_BOUND ( 'NONE', #240, .T. ) ;
#243 = ORIENTED_EDGE ( 'NONE', *, *, #145, .T. ) ;
#244 = CYLINDRICAL_SURFACE ( 'NONE', #323, 0.01200000000000004015 ) ;
#245 = DIRECTION ( 'NONE',  ( 1.000000000000000000, 0.000000000000000000, 0.000000000000000000 ) ) ;
#246 = ORIENTED_EDGE ( 'NONE', *, *, #356, .T. ) ;
#247 = AXIS2_PLACEMENT_3D ( 'NONE', #200, #154, #41 ) ;
#248 = FACE_OUTER_BOUND ( 'NONE', #52, .T. ) ;
#249 = AXIS2_PLACEMENT_3D ( 'NONE', #51, #105, #245 ) ;
#250 = COORDINATED_UNIVERSAL_TIME_OFFSET ( 5, 0, .BEHIND. ) ;
#251 = ORIENTED_EDGE ( 'NONE', *, *, #282, .F. ) ;
#252 = DIRECTION ( 'NONE',  ( -2.445468806185136597E-29, 3.491481338843145583E-15, 1.000000000000000000 ) ) ;
#253 = EDGE_CURVE ( 'NONE', #86, #160, #7, .T. ) ;
#254 = CARTESIAN_POINT ( 'NONE',  ( 8.526512829123324937E-17, 0.01199999999999697142, -0.8677896725716692794 ) ) ;
#255 = AXIS2_PLACEMENT_3D ( 'NONE', #339, #152, #227 ) ;
#256 = APPROVAL ( #362, 'UNSPECIFIED' ) ;
#257 = DIRECTION ( 'NONE',  ( 1.000000000000000000, -6.982962677686248567E-15, 0.000000000000000000 ) ) ;
#258 = CARTESIAN_POINT ( 'NONE',  ( -0.01200000000000007831, -2.178960519948567172E-15, -0.6484999999999999654 ) ) ;
#259 = UNCERTAINTY_MEASURE_WITH_UNIT (LENGTH_MEASURE( 1.000000000000000082E-05 ), #112, 'distance_accuracy_value', 'NONE');
#260 = MANIFOLD_SOLID_BREP ( 'Body-Move/Copy2[2]', #228 ) ;
#261 = DIRECTION ( 'NONE',  ( -2.445358550748210401E-29, 3.491639230904173649E-15, 1.000000000000000000 ) ) ;
#262 = PRODUCT_DEFINITION ( 'UNKNOWN', '', #115, #222 ) ;
#263 = DIRECTION ( 'NONE',  ( 1.000000000000000000, -6.982962677686287221E-15, 0.000000000000000000 ) ) ;
#264 = AXIS2_PLACEMENT_3D ( 'NONE', #320, #298, #277 ) ;
#265 = AXIS2_PLACEMENT_3D ( 'NONE', #136, #319, #263 ) ;
#266 = CARTESIAN_POINT ( 'NONE',  ( 1.587109255214153633E-29, -2.265971388909201562E-15, -0.6489999999999999103 ) ) ;
#267 = APPROVAL_DATE_TIME ( #49, #43 ) ;
#268 = DIRECTION ( 'NONE',  ( -2.445468806185136597E-29, 3.491481338843145583E-15, 1.000000000000000000 ) ) ;
#269 = VERTEX_POINT ( 'NONE', #224 ) ;
#270 = CIRCLE ( 'NONE', #247, 0.01200000000000000025 ) ;
#271 =( NAMED_UNIT ( * ) SI_UNIT ( $, .STERADIAN. ) SOLID_ANGLE_UNIT ( ) );
#272 = DIRECTION ( 'NONE',  ( -2.445358550748210401E-29, 3.491639230904173649E-15, 1.000000000000000000 ) ) ;
#273 = AXIS2_PLACEMENT_3D ( 'NONE', #102, #53, #207 ) ;
#274 = CARTESIAN_POINT ( 'NONE',  ( 0.01200000000000007831, -2.348021200372015386E-15, -0.6484999999999999654 ) ) ;
#275 = VERTEX_POINT ( 'NONE', #226 ) ;
#276 = ORIENTED_EDGE ( 'NONE', *, *, #37, .F. ) ;
#277 = DIRECTION ( 'NONE',  ( 1.000000000000000000, -6.982962677686287221E-15, 0.000000000000000000 ) ) ;
#278 = AXIS2_PLACEMENT_3D ( 'NONE', #180, #261, #229 ) ;
#279 = LINE ( 'NONE', #36, #301 ) ;
#280 = LOCAL_TIME ( 17, 53, 50.00000000000000000, #123 ) ;
#281 = DIRECTION ( 'NONE',  ( 6.090539988449784746E-15, 0.8571673007021146651, 0.5150380749100501587 ) ) ;
#282 = EDGE_CURVE ( 'NONE', #86, #29, #44, .T. ) ;
#283 = CARTESIAN_POINT ( 'NONE',  ( -0.01200000000000004015, 8.526512829121230758E-17, -5.902722108305906269E-31 ) ) ;
#284 = AXIS2_PLACEMENT_3D ( 'NONE', #179, #286, #61 ) ;
#285 = APPROVAL_PERSON_ORGANIZATION ( #350, #43, #170 ) ;
#286 = DIRECTION ( 'NONE',  ( -2.445358550748210401E-29, 3.491639230904173649E-15, 1.000000000000000000 ) ) ;
#287 = CARTESIAN_POINT ( 'NONE',  ( 1.587109255214153633E-29, -2.265971388909201562E-15, -0.6489999999999999103 ) ) ;
#288 = COORDINATED_UNIVERSAL_TIME_OFFSET ( 5, 0, .BEHIND. ) ;
#289 = DIRECTION ( 'NONE',  ( 1.000000000000000000, -6.982962677686267499E-15, 0.000000000000000000 ) ) ;
#290 = CARTESIAN_POINT ( 'NONE',  ( 8.526512829122788758E-17, 0.01199999999999773297, -0.6489999999999999103 ) ) ;
#291 = EDGE_CURVE ( 'NONE', #269, #171, #314, .T. ) ;
#292 = CYLINDRICAL_SURFACE ( 'NONE', #166, 0.01200000000000000025 ) ;
#293 = DATE_AND_TIME ( #296, #135 ) ;
#294 = ORIENTED_EDGE ( 'NONE', *, *, #98, .F. ) ;
#295 = CALENDAR_DATE ( 2024, 22, 4 ) ;
#296 = CALENDAR_DATE ( 2024, 22, 4 ) ;
#297 = ORIENTED_EDGE ( 'NONE', *, *, #253, .T. ) ;
#298 = DIRECTION ( 'NONE',  ( -2.445468806185136597E-29, 3.491481338843145583E-15, 1.000000000000000000 ) ) ;
#299 = LINE ( 'NONE', #28, #210 ) ;
#300 = ORIENTED_EDGE ( 'NONE', *, *, #344, .F. ) ;
#301 = VECTOR ( 'NONE', #281, 39.37007874015748143 ) ;
#302 = CARTESIAN_POINT ( 'NONE',  ( 0.01200000000000004015, -8.379555213223547466E-17, 5.851412130955142605E-31 ) ) ;
#303 = ORIENTED_EDGE ( 'NONE', *, *, #87, .T. ) ;
#304 = EDGE_CURVE ( 'NONE', #326, #269, #334, .T. ) ;
#305 = DIRECTION ( 'NONE',  ( -2.445468806185136597E-29, 3.491481338843145583E-15, 1.000000000000000000 ) ) ;
#306 = LINE ( 'NONE', #302, #100 ) ;
#307 = VERTEX_POINT ( 'NONE', #71 ) ;
#308 = PRODUCT_DEFINITION_SHAPE ( 'NONE', 'NONE',  #262 ) ;
#309 = EDGE_LOOP ( 'NONE', ( #32, #352 ) ) ;
#310 = DIRECTION ( 'NONE',  ( -2.445358550748210682E-29, 3.491639230904173649E-15, 1.000000000000000000 ) ) ;
#311 = ADVANCED_FACE ( 'NONE', ( #1 ), #340, .T. ) ;
#312 = LINE ( 'NONE', #66, #104 ) ;
#313 = CALENDAR_DATE ( 2024, 22, 4 ) ;
#314 = LINE ( 'NONE', #283, #99 ) ;
#315 = ADVANCED_FACE ( 'NONE', ( #173 ), #138, .T. ) ;
#316 = DIRECTION ( 'NONE',  ( 1.000000000000000000, -6.982962677686248567E-15, 0.000000000000000000 ) ) ;
#317 = AXIS2_PLACEMENT_3D ( 'NONE', #287, #72, #316 ) ;
#318 = ADVANCED_FACE ( 'NONE', ( #242 ), #13, .T. ) ;
#319 = DIRECTION ( 'NONE',  ( -2.445468806185136597E-29, 3.491481338843145583E-15, 1.000000000000000000 ) ) ;
#320 = CARTESIAN_POINT ( 'NONE',  ( 1.585886520811060832E-29, -2.264225648239779664E-15, -0.6484999999999999654 ) ) ;
#321 = PERSON_AND_ORGANIZATION_ROLE ( 'classification_officer' ) ;
#322 = PERSON_AND_ORGANIZATION ( #33, #346 ) ;
#323 = AXIS2_PLACEMENT_3D ( 'NONE', #360, #220, #67 ) ;
#324 = CC_DESIGN_SECURITY_CLASSIFICATION ( #331, ( #115 ) ) ;
#325 = DIRECTION ( 'NONE',  ( -2.445468806185136877E-29, 3.491481338843145188E-15, 1.000000000000000000 ) ) ;
#326 = VERTEX_POINT ( 'NONE', #274 ) ;
#327 = APPROVAL_STATUS ( 'not_yet_approved' ) ;
#328 = VERTEX_POINT ( 'NONE', #214 ) ;
#329 = CARTESIAN_POINT ( 'NONE',  ( -8.379555213221931533E-17, -0.01200000000000226580, -0.6489999999999999103 ) ) ;
#330 = LINE ( 'NONE', #90, #235 ) ;
#331 = SECURITY_CLASSIFICATION ( '', '', #17 ) ;
#332 = ORIENTED_EDGE ( 'NONE', *, *, #145, .F. ) ;
#333 = VERTEX_POINT ( 'NONE', #209 ) ;
#334 = CIRCLE ( 'NONE', #153, 0.01200000000000007831 ) ;
#335 = SHAPE_DEFINITION_REPRESENTATION ( #308, #118 ) ;
#336 = DATE_TIME_ROLE ( 'creation_date' ) ;
#337 = CC_DESIGN_DATE_AND_TIME_ASSIGNMENT ( #127, #65, ( #331 ) ) ;
#338 = DIRECTION ( 'NONE',  ( 1.000000000000000000, -6.982962677686267499E-15, 0.000000000000000000 ) ) ;
#339 = CARTESIAN_POINT ( 'NONE',  ( 2.122128451852686584E-29, -3.029905992977120721E-15, -0.8677896725716692794 ) ) ;
#340 = CYLINDRICAL_SURFACE ( 'NONE', #284, 0.01200000000000000025 ) ;
#341 = AXIS2_PLACEMENT_3D ( 'NONE', #155, #5, #338 ) ;
#342 = LOCAL_TIME ( 17, 53, 50.00000000000000000, #288 ) ;
#343 = FACE_OUTER_BOUND ( 'NONE', #309, .T. ) ;
#344 = EDGE_CURVE ( 'NONE', #326, #275, #306, .T. ) ;
#345 = PERSON_AND_ORGANIZATION_ROLE ( 'design_supplier' ) ;
#346 = ORGANIZATION ( 'UNSPECIFIED', 'UNSPECIFIED', '' ) ;
#347 = EDGE_LOOP ( 'NONE', ( #82, #81, #332 ) ) ;
#348 = DIRECTION ( 'NONE',  ( -2.445358550748210401E-29, 3.491639230904173649E-15, 1.000000000000000000 ) ) ;
#349 = CC_DESIGN_PERSON_AND_ORGANIZATION_ASSIGNMENT ( #322, #185, ( #364 ) ) ;
#350 = PERSON_AND_ORGANIZATION ( #33, #346 ) ;
#351 = AXIS2_PLACEMENT_3D ( 'NONE', #126, #34, #257 ) ;
#352 = ORIENTED_EDGE ( 'NONE', *, *, #111, .T. ) ;
#353 = FACE_OUTER_BOUND ( 'NONE', #213, .T. ) ;
#354 = DIRECTION ( 'NONE',  ( -1.000000000000000000, 6.982962677686265922E-15, 0.000000000000000000 ) ) ;
#355 = CARTESIAN_POINT ( 'NONE',  ( 4.782044610425438233E-31, -6.614388765020586221E-17, -0.01925000000000011771 ) ) ;
#356 = EDGE_CURVE ( 'NONE', #80, #275, #299, .T. ) ;
#357 = ORIENTED_EDGE ( 'NONE', *, *, #291, .T. ) ;
#358 = VECTOR ( 'NONE', #20, 39.37007874015748143 ) ;
#359 = ORIENTED_EDGE ( 'NONE', *, *, #98, .T. ) ;
#360 = CARTESIAN_POINT ( 'NONE',  ( 0.000000000000000000, 0.000000000000000000, 0.000000000000000000 ) ) ;
#361 = CARTESIAN_POINT ( 'NONE',  ( 1.587109255214153633E-29, -2.265971388909201562E-15, -0.6489999999999999103 ) ) ;
#362 = APPROVAL_STATUS ( 'not_yet_approved' ) ;
#363 = CC_DESIGN_PERSON_AND_ORGANIZATION_ASSIGNMENT ( #231, #345, ( #115 ) ) ;
#364 = PRODUCT ( '57084', '57084', '', ( #85 ) ) ;
ENDSEC;
END-ISO-10303-21;
