ISO-10303-21;
HEADER;
FILE_DESCRIPTION (( 'STEP AP203' ),
    '1' );
FILE_NAME ('57179.STEP',
    '2024-04-22T23:29:13',
    ( '' ),
    ( '' ),
    'SwSTEP 2.0',
    'SolidWorks 2023',
    '' );
FILE_SCHEMA (( 'CONFIG_CONTROL_DESIGN' ));
ENDSEC;

DATA;
#1 = CIRCLE ( 'NONE', #200, 0.1328000000000000014 ) ;
#2 = LOCAL_TIME ( 19, 29, 13.00000000000000000, #389 ) ;
#3 = ADVANCED_FACE ( 'NONE', ( #235 ), #327, .T. ) ;
#4 = CARTESIAN_POINT ( 'NONE',  ( 1.646448091063411649E-29, -9.115780987760473399E-15, -1.640600000000000058 ) ) ;
#5 = DIRECTION ( 'NONE',  ( -2.445468806185136597E-29, 3.491481338843145583E-15, 1.000000000000000000 ) ) ;
#6 = APPROVAL_STATUS ( 'not_yet_approved' ) ;
#7 = EDGE_LOOP ( 'NONE', ( #337, #314, #366, #36 ) ) ;
#8 = DIMENSIONAL_EXPONENTS ( 1.000000000000000000, 0.000000000000000000, 0.000000000000000000, 0.000000000000000000, 0.000000000000000000, 0.000000000000000000, 0.000000000000000000 ) ;
#9 = ADVANCED_FACE ( 'NONE', ( #299 ), #64, .T. ) ;
#10 = ORIENTED_EDGE ( 'NONE', *, *, #268, .F. ) ;
#11 = AXIS2_PLACEMENT_3D ( 'NONE', #67, #185, #176 ) ;
#12 = DIRECTION ( 'NONE',  ( -6.982962677686265133E-15, -1.000000000000000000, 4.114228906120878260E-15 ) ) ;
#13 = ORIENTED_EDGE ( 'NONE', *, *, #101, .T. ) ;
#14 = DIRECTION ( 'NONE',  ( -2.445468806185136597E-29, 3.491481338843145583E-15, 1.000000000000000000 ) ) ;
#15 = ORIENTED_EDGE ( 'NONE', *, *, #31, .T. ) ;
#16 = DIRECTION ( 'NONE',  ( 1.000000000000000000, -6.982962677686266711E-15, 4.876176775795935793E-29 ) ) ;
#17 = ORIENTED_EDGE ( 'NONE', *, *, #101, .F. ) ;
#18 = PRODUCT_RELATED_PRODUCT_CATEGORY ( 'detail', '', ( #377 ) ) ;
#19 = CIRCLE ( 'NONE', #139, 0.1328000000000000014 ) ;
#20 = CARTESIAN_POINT ( 'NONE',  ( 4.012036123427335313E-29, -5.728124284506066280E-15, -1.640600000000000280 ) ) ;
#21 = LENGTH_MEASURE_WITH_UNIT ( LENGTH_MEASURE( 0.02539999999999999897 ), #178 );
#22 = CARTESIAN_POINT ( 'NONE',  ( -9.273374435966528003E-16, -0.1328000000000119640, -3.420205709793139093 ) ) ;
#23 = CARTESIAN_POINT ( 'NONE',  ( 7.642090019328601786E-31, -1.091087918388490144E-16, -0.03125000000000020123 ) ) ;
#24 = DATE_AND_TIME ( #47, #201 ) ;
#25 = CIRCLE ( 'NONE', #97, 0.1328000000000001957 ) ;
#26 = CARTESIAN_POINT ( 'NONE',  ( 0.1328000000000000014, -1.020182925942908489E-15, -0.03125000000000020123 ) ) ;
#27 = PERSON_AND_ORGANIZATION ( #193, #104 ) ;
#28 = DATE_AND_TIME ( #156, #289 ) ;
#29 = DIRECTION ( 'NONE',  ( 1.000000000000000000, -6.982962677686265922E-15, 4.876176775795935793E-29 ) ) ;
#30 = CARTESIAN_POINT ( 'NONE',  ( 8.559138904715509266E-29, -1.222018784675369525E-14, -3.500000000000000000 ) ) ;
#31 = EDGE_CURVE ( 'NONE', #43, #316, #85, .T. ) ;
#32 = CIRCLE ( 'NONE', #332, 0.1323000000000003895 ) ;
#33 = APPLICATION_PROTOCOL_DEFINITION ( 'international standard', 'config_control_design', 1994, #284 ) ;
#34 = CC_DESIGN_PERSON_AND_ORGANIZATION_ASSIGNMENT ( #243, #272, ( #377 ) ) ;
#35 = PERSON_AND_ORGANIZATION ( #193, #104 ) ;
#36 = ORIENTED_EDGE ( 'NONE', *, *, #108, .F. ) ;
#37 = EDGE_CURVE ( 'NONE', #345, #279, #172, .T. ) ;
#38 = ORIENTED_EDGE ( 'NONE', *, *, #350, .F. ) ;
#39 = ORIENTED_EDGE ( 'NONE', *, *, #66, .F. ) ;
#40 = FACE_OUTER_BOUND ( 'NONE', #105, .T. ) ;
#41 = EDGE_LOOP ( 'NONE', ( #75, #13 ) ) ;
#42 = DIRECTION ( 'NONE',  ( -2.445458718540169308E-29, 3.491495784924891770E-15, 1.000000000000000000 ) ) ;
#43 = VERTEX_POINT ( 'NONE', #203 ) ;
#44 = DIRECTION ( 'NONE',  ( 1.000000000000000000, -6.982962677686269866E-15, 0.000000000000000000 ) ) ;
#45 = AXIS2_PLACEMENT_3D ( 'NONE', #52, #199, #54 ) ;
#46 = AXIS2_PLACEMENT_3D ( 'NONE', #137, #14, #140 ) ;
#47 = CALENDAR_DATE ( 2024, 22, 4 ) ;
#48 = LINE ( 'NONE', #51, #173 ) ;
#49 = DIRECTION ( 'NONE',  ( 1.000000000000000000, -6.982962677686268288E-15, 0.000000000000000000 ) ) ;
#50 = ADVANCED_FACE ( 'NONE', ( #383 ), #150, .T. ) ;
#51 = CARTESIAN_POINT ( 'NONE',  ( -9.273374435966959904E-16, -0.1328000000000057190, -1.640599999999999392 ) ) ;
#52 = CARTESIAN_POINT ( 'NONE',  ( 7.642090019328601786E-31, -1.091087918388490144E-16, -0.03125000000000020123 ) ) ;
#53 = COORDINATED_UNIVERSAL_TIME_OFFSET ( 5, 0, .BEHIND. ) ;
#54 = DIRECTION ( 'NONE',  ( 1.000000000000000000, -6.982962677686265133E-15, 0.000000000000000000 ) ) ;
#55 = AXIS2_PLACEMENT_3D ( 'NONE', #126, #217, #62 ) ;
#56 = MECHANICAL_CONTEXT ( 'NONE', #284, 'mechanical' ) ;
#57 = CARTESIAN_POINT ( 'NONE',  ( 4.010813389024242512E-29, -5.726378543836643987E-15, -1.640100000000000113 ) ) ;
#58 = CARTESIAN_POINT ( 'NONE',  ( 0.1015500000000000014, -8.584332488083038563E-16, 2.816687638093705395E-19 ) ) ;
#59 = VECTOR ( 'NONE', #119, 39.37007874015748143 ) ;
#60 = APPROVAL ( #6, 'UNSPECIFIED' ) ;
#61 = COORDINATED_UNIVERSAL_TIME_OFFSET ( 5, 0, .BEHIND. ) ;
#62 = DIRECTION ( 'NONE',  ( 1.000000000000000000, -6.982962677686268288E-15, 0.000000000000000000 ) ) ;
#63 = DESIGN_CONTEXT ( 'detailed design', #371, 'design' ) ;
#64 = CONICAL_SURFACE ( 'NONE', #287, 65.52281426576817580, 1.029744258676652757 ) ;
#65 = AXIS2_PLACEMENT_3D ( 'NONE', #91, #154, #390 ) ;
#66 = EDGE_CURVE ( 'NONE', #311, #168, #385, .T. ) ;
#67 = CARTESIAN_POINT ( 'NONE',  ( -6.888121755591419898E-48, 9.834412325562995085E-34, 2.816687638038899688E-19 ) ) ;
#68 = ORIENTED_EDGE ( 'NONE', *, *, #73, .F. ) ;
#69 = EDGE_LOOP ( 'NONE', ( #318, #280 ) ) ;
#70 = FACE_OUTER_BOUND ( 'NONE', #191, .T. ) ;
#71 = ORIENTED_EDGE ( 'NONE', *, *, #359, .F. ) ;
#72 = CIRCLE ( 'NONE', #11, 0.1015500000000000014 ) ;
#73 = EDGE_CURVE ( 'NONE', #347, #228, #146, .T. ) ;
#74 = LINE ( 'NONE', #256, #356 ) ;
#75 = ORIENTED_EDGE ( 'NONE', *, *, #164, .T. ) ;
#76 = FACE_OUTER_BOUND ( 'NONE', #373, .T. ) ;
#77 = CARTESIAN_POINT ( 'NONE',  ( -8.771878024005014620E-28, 1.252402524264255246E-13, 35.87007874015748143 ) ) ;
#78 = CARTESIAN_POINT ( 'NONE',  ( 8.559105514890592157E-29, -1.222023524723711962E-14, -3.500000000000000000 ) ) ;
#79 = ADVANCED_FACE ( 'NONE', ( #149 ), #239, .T. ) ;
#80 = AXIS2_PLACEMENT_3D ( 'NONE', #99, #122, #384 ) ;
#81 = CC_DESIGN_APPROVAL ( #234, ( #187 ) ) ;
#82 = DIRECTION ( 'NONE',  ( -2.445458718540169308E-29, 3.491495784924891770E-15, 1.000000000000000000 ) ) ;
#83 = DIRECTION ( 'NONE',  ( -5.985567269335937335E-15, -0.8571673007021096691, 0.5150380749100585964 ) ) ;
#84 = LINE ( 'NONE', #26, #223 ) ;
#85 = LINE ( 'NONE', #78, #355 ) ;
#86 = DIRECTION ( 'NONE',  ( -2.445458718540169308E-29, 3.491495784924891770E-15, 1.000000000000000000 ) ) ;
#87 = CALENDAR_DATE ( 2024, 22, 4 ) ;
#88 = AXIS2_PLACEMENT_3D ( 'NONE', #77, #106, #174 ) ;
#89 = CC_DESIGN_DATE_AND_TIME_ASSIGNMENT ( #24, #145, ( #98 ) ) ;
#90 = ORIENTED_EDGE ( 'NONE', *, *, #387, .T. ) ;
#91 = CARTESIAN_POINT ( 'NONE',  ( 4.012036123427335313E-29, -5.728124284506064702E-15, -1.640600000000000058 ) ) ;
#92 = PERSON_AND_ORGANIZATION ( #193, #104 ) ;
#93 = CARTESIAN_POINT ( 'NONE',  ( 9.436007530894966759E-16, 0.1327999999999942560, -1.640600000000000502 ) ) ;
#94 = CC_DESIGN_DATE_AND_TIME_ASSIGNMENT ( #96, #360, ( #187 ) ) ;
#95 = PLANE ( 'NONE',  #65 ) ;
#96 = DATE_AND_TIME ( #161, #2 ) ;
#97 = AXIS2_PLACEMENT_3D ( 'NONE', #184, #5, #269 ) ;
#98 = SECURITY_CLASSIFICATION ( '', '', #298 ) ;
#99 = CARTESIAN_POINT ( 'NONE',  ( 0.000000000000000000, 0.000000000000000000, 0.000000000000000000 ) ) ;
#100 = PERSON_AND_ORGANIZATION_ROLE ( 'creator' ) ;
#101 = EDGE_CURVE ( 'NONE', #132, #251, #245, .T. ) ;
#102 = CIRCLE ( 'NONE', #159, 0.1328000000000000014 ) ;
#103 = VERTEX_POINT ( 'NONE', #93 ) ;
#104 = ORGANIZATION ( 'UNSPECIFIED', 'UNSPECIFIED', '' ) ;
#105 = EDGE_LOOP ( 'NONE', ( #230, #220, #110, #368 ) ) ;
#106 = DIRECTION ( 'NONE',  ( -2.445458718540169308E-29, 3.491495784924891770E-15, 1.000000000000000000 ) ) ;
#107 = ORIENTED_EDGE ( 'NONE', *, *, #66, .T. ) ;
#108 = EDGE_CURVE ( 'NONE', #279, #345, #19, .T. ) ;
#109 = CARTESIAN_POINT ( 'NONE',  ( -9.273374435966959904E-16, -0.1328000000000057190, -1.640599999999999392 ) ) ;
#110 = ORIENTED_EDGE ( 'NONE', *, *, #37, .F. ) ;
#111 = CYLINDRICAL_SURFACE ( 'NONE', #382, 0.1328000000000000846 ) ;
#112 = ORIENTED_EDGE ( 'NONE', *, *, #339, .F. ) ;
#113 = DIRECTION ( 'NONE',  ( -6.982962677686265133E-15, -1.000000000000000000, 4.114228906120878260E-15 ) ) ;
#114 = PLANE ( 'NONE',  #277 ) ;
#115 = AXIS2_PLACEMENT_3D ( 'NONE', #57, #265, #49 ) ;
#116 = CARTESIAN_POINT ( 'NONE',  ( -0.1323000000000003895, -4.785427017921340357E-15, -1.640600000000000280 ) ) ;
#117 = ORIENTED_EDGE ( 'NONE', *, *, #339, .T. ) ;
#118 = CARTESIAN_POINT ( 'NONE',  ( 0.1328000000000001957, -6.653715987433381393E-15, -1.640100000000000113 ) ) ;
#119 = DIRECTION ( 'NONE',  ( 6.090539988449774491E-15, 0.8571673007021132218, 0.5150380749100526012 ) ) ;
#120 = AXIS2_PLACEMENT_3D ( 'NONE', #4, #246, #29 ) ;
#121 = CC_DESIGN_APPROVAL ( #312, ( #98 ) ) ;
#122 = DIRECTION ( 'NONE',  ( 0.000000000000000000, 0.000000000000000000, 1.000000000000000000 ) ) ;
#123 = FACE_OUTER_BOUND ( 'NONE', #166, .T. ) ;
#124 = PLANE ( 'NONE',  #120 ) ;
#125 = CLOSED_SHELL ( 'NONE', ( #248, #9, #195, #79, #364 ) ) ;
#126 = CARTESIAN_POINT ( 'NONE',  ( 4.010813389024242512E-29, -5.726378543836643987E-15, -1.640100000000000113 ) ) ;
#127 = ORIENTED_EDGE ( 'NONE', *, *, #216, .T. ) ;
#128 = CONICAL_SURFACE ( 'NONE', #237, 0.1328000000000000014, 0.7853981633974449483 ) ;
#129 = ORIENTED_EDGE ( 'NONE', *, *, #37, .T. ) ;
#130 = CC_DESIGN_SECURITY_CLASSIFICATION ( #98, ( #233 ) ) ;
#131 = DIRECTION ( 'NONE',  ( -6.982962677686265133E-15, -1.000000000000000000, 4.114228906120878260E-15 ) ) ;
#132 = VERTEX_POINT ( 'NONE', #58 ) ;
#133 = ADVANCED_FACE ( 'NONE', ( #270 ), #128, .T. ) ;
#134 = DIRECTION ( 'NONE',  ( -6.982962677686265133E-15, -1.000000000000000000, 4.114228906120878260E-15 ) ) ;
#135 = ORIENTED_EDGE ( 'NONE', *, *, #31, .F. ) ;
#136 = ADVANCED_BREP_SHAPE_REPRESENTATION ( '57179', ( #196, #329, #80 ), #388 ) ;
#137 = CARTESIAN_POINT ( 'NONE',  ( 0.000000000000000000, 0.000000000000000000, 0.000000000000000000 ) ) ;
#138 = ORIENTED_EDGE ( 'NONE', *, *, #164, .F. ) ;
#139 = AXIS2_PLACEMENT_3D ( 'NONE', #363, #334, #358 ) ;
#140 = DIRECTION ( 'NONE',  ( 1.000000000000000000, -6.982962677686266711E-15, 4.876176775795935793E-29 ) ) ;
#141 = DIRECTION ( 'NONE',  ( 2.438088387897960049E-29, -3.491481338843145188E-15, -1.000000000000000000 ) ) ;
#142 = DIRECTION ( 'NONE',  ( -6.982962677686266711E-15, -1.000000000000000000, 3.468864327941607625E-15 ) ) ;
#143 = VECTOR ( 'NONE', #244, 39.37007874015748854 ) ;
#144 = ADVANCED_FACE ( 'NONE', ( #123 ), #271, .T. ) ;
#145 = DATE_TIME_ROLE ( 'classification_date' ) ;
#146 = LINE ( 'NONE', #267, #143 ) ;
#147 =( NAMED_UNIT ( * ) PLANE_ANGLE_UNIT ( ) SI_UNIT ( $, .RADIAN. ) );
#148 = SHAPE_DEFINITION_REPRESENTATION ( #342, #136 ) ;
#149 = FACE_OUTER_BOUND ( 'NONE', #255, .T. ) ;
#150 = CONICAL_SURFACE ( 'NONE', #115, 0.1328000000000001957, 0.7853981633970726906 ) ;
#151 = VECTOR ( 'NONE', #313, 39.37007874015748143 ) ;
#152 = CC_DESIGN_APPROVAL ( #60, ( #233 ) ) ;
#153 = EDGE_CURVE ( 'NONE', #228, #168, #25, .T. ) ;
#154 = DIRECTION ( 'NONE',  ( 2.445458718540169028E-29, -3.491495784924891770E-15, -1.000000000000000000 ) ) ;
#155 = PERSON_AND_ORGANIZATION ( #193, #104 ) ;
#156 = CALENDAR_DATE ( 2024, 22, 4 ) ;
#157 = DIRECTION ( 'NONE',  ( -1.000000000000000000, 6.982962677686268288E-15, 0.000000000000000000 ) ) ;
#158 = DIRECTION ( 'NONE',  ( -6.982962677686265133E-15, -1.000000000000000000, 4.114228906120878260E-15 ) ) ;
#159 = AXIS2_PLACEMENT_3D ( 'NONE', #259, #224, #134 ) ;
#160 = CC_DESIGN_PERSON_AND_ORGANIZATION_ASSIGNMENT ( #180, #197, ( #233 ) ) ;
#161 = CALENDAR_DATE ( 2024, 22, 4 ) ;
#162 = ORIENTED_EDGE ( 'NONE', *, *, #216, .F. ) ;
#163 = ORIENTED_EDGE ( 'NONE', *, *, #261, .T. ) ;
#164 = EDGE_CURVE ( 'NONE', #251, #132, #72, .T. ) ;
#165 = AXIS2_PLACEMENT_3D ( 'NONE', #254, #379, #131 ) ;
#166 = EDGE_LOOP ( 'NONE', ( #68, #370, #107, #338 ) ) ;
#167 = CYLINDRICAL_SURFACE ( 'NONE', #46, 0.1328000000000000846 ) ;
#168 = VERTEX_POINT ( 'NONE', #380 ) ;
#169 = DIRECTION ( 'NONE',  ( -2.445468806185136597E-29, 3.491481338843145583E-15, 1.000000000000000000 ) ) ;
#170 = ORIENTED_EDGE ( 'NONE', *, *, #387, .F. ) ;
#172 = CIRCLE ( 'NONE', #45, 0.1328000000000000014 ) ;
#171 = CARTESIAN_POINT ( 'NONE',  ( 8.363988422004833992E-29, -1.194161011907708123E-14, -3.420205709793139537 ) ) ;
#173 = VECTOR ( 'NONE', #42, 39.37007874015748143 ) ;
#174 = DIRECTION ( 'NONE',  ( -6.982962677686266711E-15, -1.000000000000000000, 3.468864327941607625E-15 ) ) ;
#175 = EDGE_LOOP ( 'NONE', ( #135, #117, #253 ) ) ;
#176 = DIRECTION ( 'NONE',  ( 1.000000000000000000, -6.982962677686266711E-15, 4.876200871943107274E-29 ) ) ;
#177 = VECTOR ( 'NONE', #194, 39.37007874015748143 ) ;
#178 =( LENGTH_UNIT ( ) NAMED_UNIT ( * ) SI_UNIT ( $, .METRE. ) );
#179 = APPROVAL_PERSON_ORGANIZATION ( #155, #234, #274 ) ;
#180 = PERSON_AND_ORGANIZATION ( #193, #104 ) ;
#181 = DIRECTION ( 'NONE',  ( 2.445468806185136597E-29, -3.491481338843145583E-15, -1.000000000000000000 ) ) ;
#182 = CIRCLE ( 'NONE', #362, 0.1328000000000000014 ) ;
#183 = APPLICATION_PROTOCOL_DEFINITION ( 'international standard', 'config_control_design', 1994, #371 ) ;
#184 = CARTESIAN_POINT ( 'NONE',  ( 4.010813389024242512E-29, -5.726378543836643987E-15, -1.640100000000000113 ) ) ;
#185 = DIRECTION ( 'NONE',  ( -2.445468806185136597E-29, 3.491481338843145583E-15, 1.000000000000000000 ) ) ;
#186 = ORIENTED_EDGE ( 'NONE', *, *, #268, .T. ) ;
#187 = PRODUCT_DEFINITION ( 'UNKNOWN', '', #233, #63 ) ;
#188 = ORIENTED_EDGE ( 'NONE', *, *, #73, .T. ) ;
#189 = AXIS2_PLACEMENT_3D ( 'NONE', #206, #295, #236 ) ;
#190 = DIRECTION ( 'NONE',  ( -2.445468806185136597E-29, 3.491481338843145583E-15, 1.000000000000000000 ) ) ;
#191 = EDGE_LOOP ( 'NONE', ( #222, #354, #10, #376 ) ) ;
#192 = DIRECTION ( 'NONE',  ( -2.445458718540169308E-29, 3.491495784924891770E-15, 1.000000000000000000 ) ) ;
#193 = PERSON ( 'UNSPECIFIED', 'UNSPECIFIED', 'UNSPECIFIED', ('UNSPECIFIED'), ('UNSPECIFIED'), ('UNSPECIFIED') ) ;
#194 = DIRECTION ( 'NONE',  ( -2.445468806185136877E-29, 3.491481338843145188E-15, 1.000000000000000000 ) ) ;
#195 = ADVANCED_FACE ( 'NONE', ( #76 ), #296, .T. ) ;
#196 = MANIFOLD_SOLID_BREP ( 'Body-Move/Copy2[1]', #125 ) ;
#197 = PERSON_AND_ORGANIZATION_ROLE ( 'design_supplier' ) ;
#198 = CARTESIAN_POINT ( 'NONE',  ( 0.000000000000000000, 0.000000000000000000, 0.000000000000000000 ) ) ;
#199 = DIRECTION ( 'NONE',  ( -2.445468806185136597E-29, 3.491481338843145583E-15, 1.000000000000000000 ) ) ;
#200 = AXIS2_PLACEMENT_3D ( 'NONE', #357, #308, #158 ) ;
#201 = LOCAL_TIME ( 19, 29, 13.00000000000000000, #264 ) ;
#202 = LINE ( 'NONE', #30, #59 ) ;
#203 = CARTESIAN_POINT ( 'NONE',  ( 8.559105514890591036E-29, -1.222023524723711962E-14, -3.500000000000000000 ) ) ;
#204 = ADVANCED_FACE ( 'NONE', ( #290 ), #111, .T. ) ;
#205 = PERSON_AND_ORGANIZATION ( #193, #104 ) ;
#206 = CARTESIAN_POINT ( 'NONE',  ( 4.010813389024242512E-29, -5.726378543836643987E-15, -1.640100000000000113 ) ) ;
#207 = CARTESIAN_POINT ( 'NONE',  ( -8.771878024005014620E-28, 1.252402524264255246E-13, 35.87007874015748143 ) ) ;
#208 = DIRECTION ( 'NONE',  ( 0.7071067811862817853, -2.468850131079474354E-15, 0.7071067811868130271 ) ) ;
#209 =( CONVERSION_BASED_UNIT ( 'INCH', #21 ) LENGTH_UNIT ( ) NAMED_UNIT ( #8 ) );
#210 = CARTESIAN_POINT ( 'NONE',  ( -6.888121755591419898E-48, 9.834412325562995085E-34, 2.816687638038899688E-19 ) ) ;
#211 = CALENDAR_DATE ( 2024, 22, 4 ) ;
#212 = CARTESIAN_POINT ( 'NONE',  ( 0.1328000000000000014, -1.036446235435585126E-15, -0.03125000000000020123 ) ) ;
#213 = CARTESIAN_POINT ( 'NONE',  ( 7.642090019328601786E-31, -1.091087918388490144E-16, -0.03125000000000020123 ) ) ;
#214 = APPROVAL_STATUS ( 'not_yet_approved' ) ;
#215 = DIRECTION ( 'NONE',  ( -2.445468806185136597E-29, 3.491481338843145583E-15, 1.000000000000000000 ) ) ;
#216 = EDGE_CURVE ( 'NONE', #282, #316, #288, .T. ) ;
#217 = DIRECTION ( 'NONE',  ( -2.445468806185136597E-29, 3.491481338843145583E-15, 1.000000000000000000 ) ) ;
#218 = ORIENTED_EDGE ( 'NONE', *, *, #326, .T. ) ;
#219 = EDGE_CURVE ( 'NONE', #316, #286, #48, .T. ) ;
#220 = ORIENTED_EDGE ( 'NONE', *, *, #275, .T. ) ;
#221 = CARTESIAN_POINT ( 'NONE',  ( 0.1328000000000000846, -9.273374435967368140E-16, 6.475562758257006511E-30 ) ) ;
#222 = ORIENTED_EDGE ( 'NONE', *, *, #309, .T. ) ;
#223 = VECTOR ( 'NONE', #323, 39.37007874015748143 ) ;
#224 = DIRECTION ( 'NONE',  ( -2.445458718540169308E-29, 3.491495784924891770E-15, 1.000000000000000000 ) ) ;
#225 = EDGE_LOOP ( 'NONE', ( #17, #90, #129, #257 ) ) ;
#226 = CC_DESIGN_PERSON_AND_ORGANIZATION_ASSIGNMENT ( #35, #240, ( #187 ) ) ;
#227 = CARTESIAN_POINT ( 'NONE',  ( -0.1328000000000000014, -1.974142914748332501E-15, -0.03125000000000020123 ) ) ;
#228 = VERTEX_POINT ( 'NONE', #281 ) ;
#229 = CARTESIAN_POINT ( 'NONE',  ( 9.436007530894966759E-16, 0.1327999999999880942, -3.420205709793139981 ) ) ;
#230 = ORIENTED_EDGE ( 'NONE', *, *, #350, .T. ) ;
#231 = CARTESIAN_POINT ( 'NONE',  ( 4.012036123427335313E-29, -5.728124284506064702E-15, -1.640600000000000058 ) ) ;
#232 = ORIENTED_EDGE ( 'NONE', *, *, #108, .T. ) ;
#233 = PRODUCT_DEFINITION_FORMATION_WITH_SPECIFIED_SOURCE ( 'ANY', '', #377, .NOT_KNOWN. ) ;
#234 = APPROVAL ( #214, 'UNSPECIFIED' ) ;
#235 = FACE_OUTER_BOUND ( 'NONE', #225, .T. ) ;
#236 = DIRECTION ( 'NONE',  ( 1.000000000000000000, -6.982962677686268288E-15, 0.000000000000000000 ) ) ;
#237 = AXIS2_PLACEMENT_3D ( 'NONE', #213, #181, #157 ) ;
#238 = CC_DESIGN_PERSON_AND_ORGANIZATION_ASSIGNMENT ( #27, #321, ( #98 ) ) ;
#239 = CYLINDRICAL_SURFACE ( 'NONE', #328, 0.1328000000000000014 ) ;
#240 = PERSON_AND_ORGANIZATION_ROLE ( 'creator' ) ;
#241 = DIRECTION ( 'NONE',  ( -6.982962677686265133E-15, -1.000000000000000000, 4.114228906120878260E-15 ) ) ;
#242 = FACE_OUTER_BOUND ( 'NONE', #69, .T. ) ;
#243 = PERSON_AND_ORGANIZATION ( #193, #104 ) ;
#244 = DIRECTION ( 'NONE',  ( -0.7071067811862817853, 7.493145998869393328E-15, 0.7071067811868130271 ) ) ;
#245 = CIRCLE ( 'NONE', #343, 0.1015500000000000014 ) ;
#246 = DIRECTION ( 'NONE',  ( -2.438088387897960049E-29, 3.491481338843145188E-15, 1.000000000000000000 ) ) ;
#247 = DATE_AND_TIME ( #211, #258 ) ;
#248 = ADVANCED_FACE ( 'NONE', ( #70 ), #315, .T. ) ;
#249 = ORIENTED_EDGE ( 'NONE', *, *, #219, .T. ) ;
#250 = AXIS2_PLACEMENT_3D ( 'NONE', #171, #192, #12 ) ;
#251 = VERTEX_POINT ( 'NONE', #324 ) ;
#252 = DIRECTION ( 'NONE',  ( 1.000000000000000000, -6.982962677686269866E-15, 0.000000000000000000 ) ) ;
#253 = ORIENTED_EDGE ( 'NONE', *, *, #309, .F. ) ;
#254 = CARTESIAN_POINT ( 'NONE',  ( 4.012036123427335313E-29, -5.728124284506064702E-15, -1.640600000000000058 ) ) ;
#255 = EDGE_LOOP ( 'NONE', ( #278, #127, #249, #71 ) ) ;
#256 = CARTESIAN_POINT ( 'NONE',  ( -0.1328000000000000014, 8.182286517578873189E-16, -0.03125000000000020123 ) ) ;
#257 = ORIENTED_EDGE ( 'NONE', *, *, #326, .F. ) ;
#258 = LOCAL_TIME ( 19, 29, 13.00000000000000000, #61 ) ;
#259 = CARTESIAN_POINT ( 'NONE',  ( 8.363988422004833992E-29, -1.194161011907708123E-14, -3.420205709793139537 ) ) ;
#260 = EDGE_LOOP ( 'NONE', ( #170, #138, #218, #232 ) ) ;
#261 = EDGE_CURVE ( 'NONE', #311, #347, #32, .T. ) ;
#262 = DIRECTION ( 'NONE',  ( -0.7071067811865451302, 2.468850131082231817E-15, -0.7071067811865499042 ) ) ;
#263 = VECTOR ( 'NONE', #346, 39.37007874015748143 ) ;
#264 = COORDINATED_UNIVERSAL_TIME_OFFSET ( 5, 0, .BEHIND. ) ;
#265 = DIRECTION ( 'NONE',  ( -2.445468806185136597E-29, 3.491481338843145583E-15, 1.000000000000000000 ) ) ;
#266 = APPROVAL_DATE_TIME ( #28, #234 ) ;
#267 = CARTESIAN_POINT ( 'NONE',  ( -0.1328000000000001957, -4.782777790747229156E-15, -1.640100000000000113 ) ) ;
#268 = EDGE_CURVE ( 'NONE', #286, #103, #182, .T. ) ;
#269 = DIRECTION ( 'NONE',  ( 1.000000000000000000, -6.982962677686268288E-15, 0.000000000000000000 ) ) ;
#270 = FACE_OUTER_BOUND ( 'NONE', #260, .T. ) ;
#271 = CONICAL_SURFACE ( 'NONE', #55, 0.1328000000000001957, 0.7853981633970726906 ) ;
#272 = PERSON_AND_ORGANIZATION_ROLE ( 'design_owner' ) ;
#273 = DIRECTION ( 'NONE',  ( -2.445458718540169308E-29, 3.491495784924891770E-15, 1.000000000000000000 ) ) ;
#274 = APPROVAL_ROLE ( '' ) ;
#275 = EDGE_CURVE ( 'NONE', #228, #279, #322, .T. ) ;
#276 = FACE_OUTER_BOUND ( 'NONE', #341, .T. ) ;
#277 = AXIS2_PLACEMENT_3D ( 'NONE', #348, #141, #344 ) ;
#278 = ORIENTED_EDGE ( 'NONE', *, *, #330, .F. ) ;
#279 = VERTEX_POINT ( 'NONE', #227 ) ;
#280 = ORIENTED_EDGE ( 'NONE', *, *, #300, .F. ) ;
#281 = CARTESIAN_POINT ( 'NONE',  ( -0.1328000000000001957, -4.782777790747229156E-15, -1.640100000000000113 ) ) ;
#282 = VERTEX_POINT ( 'NONE', #229 ) ;
#283 = CC_DESIGN_PERSON_AND_ORGANIZATION_ASSIGNMENT ( #331, #100, ( #233 ) ) ;
#284 = APPLICATION_CONTEXT ( 'configuration controlled 3d designs of mechanical parts and assemblies' ) ;
#285 = CARTESIAN_POINT ( 'NONE',  ( 0.1323000000000003895, -6.651970246763962256E-15, -1.640600000000000280 ) ) ;
#286 = VERTEX_POINT ( 'NONE', #109 ) ;
#287 = AXIS2_PLACEMENT_3D ( 'NONE', #207, #86, #142 ) ;
#288 = CIRCLE ( 'NONE', #250, 0.1328000000000000014 ) ;
#289 = LOCAL_TIME ( 19, 29, 13.00000000000000000, #305 ) ;
#290 = FACE_OUTER_BOUND ( 'NONE', #7, .T. ) ;
#291 = EDGE_CURVE ( 'NONE', #168, #345, #369, .T. ) ;
#292 = DIRECTION ( 'NONE',  ( -2.445468806185136597E-29, 3.491481338843145583E-15, 1.000000000000000000 ) ) ;
#293 = ORIENTED_EDGE ( 'NONE', *, *, #359, .T. ) ;
#294 =( NAMED_UNIT ( * ) SI_UNIT ( $, .STERADIAN. ) SOLID_ANGLE_UNIT ( ) );
#295 = DIRECTION ( 'NONE',  ( -2.445468806185136597E-29, 3.491481338843145583E-15, 1.000000000000000000 ) ) ;
#296 = CONICAL_SURFACE ( 'NONE', #88, 65.52281426576817580, 1.029744258676652757 ) ;
#297 = LOCAL_TIME ( 19, 29, 13.00000000000000000, #53 ) ;
#298 = SECURITY_CLASSIFICATION_LEVEL ( 'unclassified' ) ;
#299 = FACE_OUTER_BOUND ( 'NONE', #175, .T. ) ;
#300 = EDGE_CURVE ( 'NONE', #347, #311, #367, .T. ) ;
#301 = APPROVAL_STATUS ( 'not_yet_approved' ) ;
#302 = CARTESIAN_POINT ( 'NONE',  ( 4.012036123427335313E-29, -5.728124284506064702E-15, -1.640600000000000058 ) ) ;
#303 = APPROVAL_PERSON_ORGANIZATION ( #205, #312, #386 ) ;
#304 = ADVANCED_FACE ( 'NONE', ( #40 ), #167, .T. ) ;
#305 = COORDINATED_UNIVERSAL_TIME_OFFSET ( 5, 0, .BEHIND. ) ;
#306 = AXIS2_PLACEMENT_3D ( 'NONE', #23, #325, #349 ) ;
#307 = AXIS2_PLACEMENT_3D ( 'NONE', #340, #292, #44 ) ;
#308 = DIRECTION ( 'NONE',  ( -2.445458718540169308E-29, 3.491495784924891770E-15, 1.000000000000000000 ) ) ;
#309 = EDGE_CURVE ( 'NONE', #316, #282, #102, .T. ) ;
#310 = EDGE_LOOP ( 'NONE', ( #163, #188, #38, #39 ) ) ;
#311 = VERTEX_POINT ( 'NONE', #285 ) ;
#312 = APPROVAL ( #301, 'UNSPECIFIED' ) ;
#313 = DIRECTION ( 'NONE',  ( -2.445468806185136877E-29, 3.491481338843145188E-15, 1.000000000000000000 ) ) ;
#314 = ORIENTED_EDGE ( 'NONE', *, *, #153, .T. ) ;
#315 = CYLINDRICAL_SURFACE ( 'NONE', #165, 0.1328000000000000014 ) ;
#316 = VERTEX_POINT ( 'NONE', #22 ) ;
#317 = CARTESIAN_POINT ( 'NONE',  ( -0.1328000000000000846, 9.436007530894136483E-16, -6.532345799858519537E-30 ) ) ;
#318 = ORIENTED_EDGE ( 'NONE', *, *, #261, .F. ) ;
#319 = ADVANCED_FACE ( 'NONE', ( #372 ), #114, .F. ) ;
#320 = VECTOR ( 'NONE', #208, 39.37007874015748854 ) ;
#321 = PERSON_AND_ORGANIZATION_ROLE ( 'classification_officer' ) ;
#322 = LINE ( 'NONE', #317, #177 ) ;
#323 = DIRECTION ( 'NONE',  ( 0.7071067811865451302, -7.319954787623248157E-15, -0.7071067811865499042 ) ) ;
#324 = CARTESIAN_POINT ( 'NONE',  ( -0.1015500000000000014, 7.636742558384638533E-16, 2.816687637987402247E-19 ) ) ;
#325 = DIRECTION ( 'NONE',  ( 2.445468806185136597E-29, -3.491481338843145583E-15, -1.000000000000000000 ) ) ;
#326 = EDGE_CURVE ( 'NONE', #251, #279, #74, .T. ) ;
#327 = CONICAL_SURFACE ( 'NONE', #306, 0.1328000000000000014, 0.7853981633974449483 ) ;
#328 = AXIS2_PLACEMENT_3D ( 'NONE', #302, #273, #241 ) ;
#329 = MANIFOLD_SOLID_BREP ( 'Body-Move/Copy2[2]', #361 ) ;
#330 = EDGE_CURVE ( 'NONE', #282, #103, #375, .T. ) ;
#331 = PERSON_AND_ORGANIZATION ( #193, #104 ) ;
#332 = AXIS2_PLACEMENT_3D ( 'NONE', #20, #190, #252 ) ;
#333 = APPROVAL_ROLE ( '' ) ;
#334 = DIRECTION ( 'NONE',  ( -2.445468806185136597E-29, 3.491481338843145583E-15, 1.000000000000000000 ) ) ;
#335 = UNCERTAINTY_MEASURE_WITH_UNIT (LENGTH_MEASURE( 1.000000000000000082E-05 ), #209, 'distance_accuracy_value', 'NONE');
#336 = DIRECTION ( 'NONE',  ( 1.000000000000000000, -6.982962677686266711E-15, 4.876200871943107274E-29 ) ) ;
#337 = ORIENTED_EDGE ( 'NONE', *, *, #275, .F. ) ;
#338 = ORIENTED_EDGE ( 'NONE', *, *, #153, .F. ) ;
#339 = EDGE_CURVE ( 'NONE', #43, #282, #202, .T. ) ;
#340 = CARTESIAN_POINT ( 'NONE',  ( 4.012036123427335313E-29, -5.728124284506066280E-15, -1.640600000000000280 ) ) ;
#341 = EDGE_LOOP ( 'NONE', ( #186, #293 ) ) ;
#342 = PRODUCT_DEFINITION_SHAPE ( 'NONE', 'NONE',  #187 ) ;
#343 = AXIS2_PLACEMENT_3D ( 'NONE', #210, #215, #336 ) ;
#344 = DIRECTION ( 'NONE',  ( -1.000000000000000000, 6.982962677686265922E-15, -4.876176775795935793E-29 ) ) ;
#345 = VERTEX_POINT ( 'NONE', #212 ) ;
#346 = DIRECTION ( 'NONE',  ( -2.445458718540169308E-29, 3.491495784924891770E-15, 1.000000000000000000 ) ) ;
#347 = VERTEX_POINT ( 'NONE', #116 ) ;
#348 = CARTESIAN_POINT ( 'NONE',  ( -3.444060877795709949E-48, 4.917206162781497542E-34, 1.408343819019449844E-19 ) ) ;
#349 = DIRECTION ( 'NONE',  ( -1.000000000000000000, 6.982962677686268288E-15, 0.000000000000000000 ) ) ;
#350 = EDGE_CURVE ( 'NONE', #168, #228, #374, .T. ) ;
#351 = DATE_AND_TIME ( #87, #297 ) ;
#352 = APPROVAL_PERSON_ORGANIZATION ( #92, #60, #333 ) ;
#353 = CARTESIAN_POINT ( 'NONE',  ( 9.436007530894530913E-16, 0.1327999999999942837, -1.640600000000000502 ) ) ;
#354 = ORIENTED_EDGE ( 'NONE', *, *, #330, .T. ) ;
#355 = VECTOR ( 'NONE', #83, 39.37007874015748143 ) ;
#356 = VECTOR ( 'NONE', #262, 39.37007874015748143 ) ;
#357 = CARTESIAN_POINT ( 'NONE',  ( 4.012036123427335313E-29, -5.728124284506064702E-15, -1.640600000000000058 ) ) ;
#358 = DIRECTION ( 'NONE',  ( 1.000000000000000000, -6.982962677686265133E-15, 0.000000000000000000 ) ) ;
#359 = EDGE_CURVE ( 'NONE', #103, #286, #1, .T. ) ;
#360 = DATE_TIME_ROLE ( 'creation_date' ) ;
#361 = CLOSED_SHELL ( 'NONE', ( #3, #304, #50, #378, #144, #204, #133, #319 ) ) ;
#362 = AXIS2_PLACEMENT_3D ( 'NONE', #231, #82, #113 ) ;
#363 = CARTESIAN_POINT ( 'NONE',  ( 7.642090019328601786E-31, -1.091087918388490144E-16, -0.03125000000000020123 ) ) ;
#364 = ADVANCED_FACE ( 'NONE', ( #276 ), #95, .F. ) ;
#365 = APPROVAL_DATE_TIME ( #247, #60 ) ;
#366 = ORIENTED_EDGE ( 'NONE', *, *, #291, .T. ) ;
#367 = CIRCLE ( 'NONE', #307, 0.1323000000000003895 ) ;
#368 = ORIENTED_EDGE ( 'NONE', *, *, #291, .F. ) ;
#369 = LINE ( 'NONE', #221, #151 ) ;
#370 = ORIENTED_EDGE ( 'NONE', *, *, #300, .T. ) ;
#371 = APPLICATION_CONTEXT ( 'configuration controlled 3d designs of mechanical parts and assemblies' ) ;
#372 = FACE_OUTER_BOUND ( 'NONE', #41, .T. ) ;
#373 = EDGE_LOOP ( 'NONE', ( #112, #15, #162 ) ) ;
#374 = CIRCLE ( 'NONE', #189, 0.1328000000000001957 ) ;
#375 = LINE ( 'NONE', #353, #263 ) ;
#376 = ORIENTED_EDGE ( 'NONE', *, *, #219, .F. ) ;
#377 = PRODUCT ( '57179', '57179', '', ( #56 ) ) ;
#378 = ADVANCED_FACE ( 'NONE', ( #242 ), #124, .F. ) ;
#379 = DIRECTION ( 'NONE',  ( -2.445458718540169308E-29, 3.491495784924891770E-15, 1.000000000000000000 ) ) ;
#380 = CARTESIAN_POINT ( 'NONE',  ( 0.1328000000000001957, -6.653715987433381393E-15, -1.640100000000000113 ) ) ;
#381 = APPROVAL_DATE_TIME ( #351, #312 ) ;
#382 = AXIS2_PLACEMENT_3D ( 'NONE', #198, #169, #16 ) ;
#383 = FACE_OUTER_BOUND ( 'NONE', #310, .T. ) ;
#384 = DIRECTION ( 'NONE',  ( 1.000000000000000000, 0.000000000000000000, 0.000000000000000000 ) ) ;
#385 = LINE ( 'NONE', #118, #320 ) ;
#386 = APPROVAL_ROLE ( '' ) ;
#387 = EDGE_CURVE ( 'NONE', #132, #345, #84, .T. ) ;
#388 =( GEOMETRIC_REPRESENTATION_CONTEXT ( 3 ) GLOBAL_UNCERTAINTY_ASSIGNED_CONTEXT ( ( #335 ) ) GLOBAL_UNIT_ASSIGNED_CONTEXT ( ( #209, #147, #294 ) ) REPRESENTATION_CONTEXT ( 'NONE', 'WORKASPACE' ) );
#389 = COORDINATED_UNIVERSAL_TIME_OFFSET ( 5, 0, .BEHIND. ) ;
#390 = DIRECTION ( 'NONE',  ( 6.982962677686265922E-15, 1.000000000000000000, -3.491495784924891770E-15 ) ) ;
ENDSEC;
END-ISO-10303-21;
