ISO-10303-21;
HEADER;
FILE_DESCRIPTION (( 'STEP AP203' ),
    '1' );
FILE_NAME ('58017.STEP',
    '2024-04-23T00:16:04',
    ( '' ),
    ( '' ),
    'SwSTEP 2.0',
    'SolidWorks 2023',
    '' );
FILE_SCHEMA (( 'CONFIG_CONTROL_DESIGN' ));
ENDSEC;

DATA;
#1 = FACE_OUTER_BOUND ( 'NONE', #307, .T. ) ;
#2 = CARTESIAN_POINT ( 'NONE',  ( 7.642090019328602662E-31, -1.091087918388490267E-16, -0.03125000000000020817 ) ) ;
#3 = CIRCLE ( 'NONE', #184, 0.06000000000000014350 ) ;
#4 =( GEOMETRIC_REPRESENTATION_CONTEXT ( 3 ) GLOBAL_UNCERTAINTY_ASSIGNED_CONTEXT ( ( #262 ) ) GLOBAL_UNIT_ASSIGNED_CONTEXT ( ( #265, #330, #360 ) ) REPRESENTATION_CONTEXT ( 'NONE', 'WORKASPACE' ) );
#5 = FACE_OUTER_BOUND ( 'NONE', #377, .T. ) ;
#6 = ORIENTED_EDGE ( 'NONE', *, *, #315, .F. ) ;
#7 = EDGE_CURVE ( 'NONE', #277, #102, #288, .T. ) ;
#8 = APPROVAL_STATUS ( 'not_yet_approved' ) ;
#9 = VECTOR ( 'NONE', #272, 39.37007874015748143 ) ;
#10 = CIRCLE ( 'NONE', #326, 0.05950000000000021244 ) ;
#11 = ORIENTED_EDGE ( 'NONE', *, *, #147, .F. ) ;
#12 = ORIENTED_EDGE ( 'NONE', *, *, #198, .T. ) ;
#13 = DATE_AND_TIME ( #311, #59 ) ;
#14 = DIRECTION ( 'NONE',  ( 1.000000000000000000, -6.982962677686268288E-15, 0.000000000000000000 ) ) ;
#15 = FACE_OUTER_BOUND ( 'NONE', #68, .T. ) ;
#16 = PERSON_AND_ORGANIZATION ( #100, #229 ) ;
#17 = AXIS2_PLACEMENT_3D ( 'NONE', #359, #183, #92 ) ;
#18 = DIRECTION ( 'NONE',  ( 2.445468806185136597E-29, -3.491481338843145583E-15, -1.000000000000000000 ) ) ;
#19 = EDGE_CURVE ( 'NONE', #248, #52, #220, .T. ) ;
#20 = DIRECTION ( 'NONE',  ( 2.438088387897960049E-29, -3.491481338843145188E-15, -1.000000000000000000 ) ) ;
#21 = DATE_TIME_ROLE ( 'classification_date' ) ;
#22 = CARTESIAN_POINT ( 'NONE',  ( 5.463950927451695787E-29, -7.798323287987107286E-15, -2.233923048454132587 ) ) ;
#23 = ADVANCED_FACE ( 'NONE', ( #15 ), #135, .T. ) ;
#24 =( LENGTH_UNIT ( ) NAMED_UNIT ( * ) SI_UNIT ( $, .METRE. ) );
#25 = ORIENTED_EDGE ( 'NONE', *, *, #379, .T. ) ;
#26 = CC_DESIGN_APPROVAL ( #332, ( #339 ) ) ;
#27 = CARTESIAN_POINT ( 'NONE',  ( 0.06000000000000014350, -4.327691119496078530E-15, -1.119499999999999940 ) ) ;
#28 = PERSON_AND_ORGANIZATION ( #100, #229 ) ;
#29 = DIRECTION ( 'NONE',  ( -2.446332238394787037E-29, 3.490244854775416827E-15, 1.000000000000000000 ) ) ;
#30 = CYLINDRICAL_SURFACE ( 'NONE', #164, 0.06000000000000007411 ) ;
#31 = AXIS2_PLACEMENT_3D ( 'NONE', #22, #140, #264 ) ;
#32 = FACE_OUTER_BOUND ( 'NONE', #252, .T. ) ;
#33 = FACE_OUTER_BOUND ( 'NONE', #305, .T. ) ;
#34 = LINE ( 'NONE', #249, #190 ) ;
#35 = ORIENTED_EDGE ( 'NONE', *, *, #181, .T. ) ;
#36 = AXIS2_PLACEMENT_3D ( 'NONE', #291, #20, #195 ) ;
#37 = COORDINATED_UNIVERSAL_TIME_OFFSET ( 5, 0, .BEHIND. ) ;
#38 = LINE ( 'NONE', #101, #361 ) ;
#39 = ORIENTED_EDGE ( 'NONE', *, *, #19, .F. ) ;
#40 = EDGE_CURVE ( 'NONE', #102, #95, #51, .T. ) ;
#41 = DIRECTION ( 'NONE',  ( 1.000000000000000000, -6.982962677686268288E-15, 0.000000000000000000 ) ) ;
#42 = ORIENTED_EDGE ( 'NONE', *, *, #321, .T. ) ;
#43 = CLOSED_SHELL ( 'NONE', ( #275, #368, #110, #67, #222, #242, #23, #49 ) ) ;
#44 = VECTOR ( 'NONE', #331, 39.37007874015748143 ) ;
#45 = LOCAL_TIME ( 20, 16, 4.000000000000000000, #387 ) ;
#46 = ORIENTED_EDGE ( 'NONE', *, *, #19, .T. ) ;
#47 = CARTESIAN_POINT ( 'NONE',  ( 9.434998788455068931E-30, -6.481610152364800675E-15, -1.120000000000000107 ) ) ;
#48 = APPROVAL_ROLE ( '' ) ;
#49 = ADVANCED_FACE ( 'NONE', ( #323 ), #171, .F. ) ;
#50 = CARTESIAN_POINT ( 'NONE',  ( -0.05950000000000021244, -3.485036944552951424E-15, -1.120000000000000107 ) ) ;
#51 = CIRCLE ( 'NONE', #170, 0.05999999999999999778 ) ;
#52 = VERTEX_POINT ( 'NONE', #233 ) ;
#53 = APPROVAL_PERSON_ORGANIZATION ( #139, #213, #356 ) ;
#54 = CARTESIAN_POINT ( 'NONE',  ( 2.738925062927352899E-29, -3.910459099504322611E-15, -1.119999999999999885 ) ) ;
#55 = DIRECTION ( 'NONE',  ( -6.982962677686266711E-15, -1.000000000000000000, 3.510303681827577719E-15 ) ) ;
#56 = CARTESIAN_POINT ( 'NONE',  ( 0.05950000000000021244, -4.325945378826657815E-15, -1.120000000000000107 ) ) ;
#57 = DIRECTION ( 'NONE',  ( 2.446332238394786757E-29, -3.490244854775416827E-15, -1.000000000000000000 ) ) ;
#58 = CIRCLE ( 'NONE', #290, 0.06000000000000014350 ) ;
#59 = LOCAL_TIME ( 20, 16, 4.000000000000000000, #37 ) ;
#60 = DIRECTION ( 'NONE',  ( 1.000000000000000000, -6.982962677686265922E-15, 4.876225828469308321E-29 ) ) ;
#61 = FACE_OUTER_BOUND ( 'NONE', #96, .T. ) ;
#62 = EDGE_CURVE ( 'NONE', #283, #137, #113, .T. ) ;
#63 = DIRECTION ( 'NONE',  ( -6.745023994389845444E-15, -0.9659258262890685343, 0.2588190451025198513 ) ) ;
#64 = SHAPE_DEFINITION_REPRESENTATION ( #382, #299 ) ;
#65 = VECTOR ( 'NONE', #295, 39.37007874015748854 ) ;
#66 = LINE ( 'NONE', #304, #260 ) ;
#67 = ADVANCED_FACE ( 'NONE', ( #376 ), #138, .F. ) ;
#68 = EDGE_LOOP ( 'NONE', ( #71, #250, #163, #375 ) ) ;
#69 = LOCAL_TIME ( 20, 16, 4.000000000000000000, #267 ) ;
#70 = DIRECTION ( 'NONE',  ( 1.000000000000000000, -6.982962677686266711E-15, 0.000000000000000000 ) ) ;
#71 = ORIENTED_EDGE ( 'NONE', *, *, #246, .F. ) ;
#72 = LINE ( 'NONE', #124, #93 ) ;
#73 = VERTEX_POINT ( 'NONE', #50 ) ;
#74 = CALENDAR_DATE ( 2024, 22, 4 ) ;
#75 = CARTESIAN_POINT ( 'NONE',  ( 0.06000000000000007411, -4.189777606611765351E-16, 2.925706065477565259E-30 ) ) ;
#76 = APPROVAL_ROLE ( '' ) ;
#77 = EDGE_CURVE ( 'NONE', #95, #102, #289, .T. ) ;
#78 = DIRECTION ( 'NONE',  ( -6.982962677686265922E-15, -1.000000000000000000, 4.553079989440439092E-15 ) ) ;
#79 = DIRECTION ( 'NONE',  ( -6.982962677686265922E-15, -1.000000000000000000, 4.553079989440439092E-15 ) ) ;
#80 = AXIS2_PLACEMENT_3D ( 'NONE', #186, #243, #241 ) ;
#81 = VERTEX_POINT ( 'NONE', #351 ) ;
#82 = CALENDAR_DATE ( 2024, 22, 4 ) ;
#83 = DIRECTION ( 'NONE',  ( -2.446332238394787037E-29, 3.490244854775416827E-15, 1.000000000000000000 ) ) ;
#84 = LINE ( 'NONE', #91, #9 ) ;
#85 = MANIFOLD_SOLID_BREP ( 'Body-Move/Copy2[2]', #43 ) ;
#86 = CARTESIAN_POINT ( 'NONE',  ( 4.263256414561147737E-16, 0.05999999999999608424, -1.120000000000000107 ) ) ;
#87 = CIRCLE ( 'NONE', #306, 0.02875000000000000125 ) ;
#88 = CC_DESIGN_APPROVAL ( #213, ( #143 ) ) ;
#89 = DIRECTION ( 'NONE',  ( -2.445468806185136597E-29, 3.491481338843145583E-15, 1.000000000000000000 ) ) ;
#90 = MANIFOLD_SOLID_BREP ( 'Body-Move/Copy2[1]', #208 ) ;
#91 = CARTESIAN_POINT ( 'NONE',  ( -0.06000000000000007411, 4.263256414560606381E-16, -2.951361054152947267E-30 ) ) ;
#92 = DIRECTION ( 'NONE',  ( 1.000000000000000000, -6.982962677686265922E-15, 4.876225828469308321E-29 ) ) ;
#93 = VECTOR ( 'NONE', #191, 39.37007874015748143 ) ;
#94 = FACE_OUTER_BOUND ( 'NONE', #314, .T. ) ;
#95 = VERTEX_POINT ( 'NONE', #173 ) ;
#96 = EDGE_LOOP ( 'NONE', ( #347, #12 ) ) ;
#97 = VECTOR ( 'NONE', #211, 39.37007874015748143 ) ;
#98 = CARTESIAN_POINT ( 'NONE',  ( 4.263256414560874594E-16, 0.05999999999999609118, -1.120000000000000107 ) ) ;
#99 = ORIENTED_EDGE ( 'NONE', *, *, #188, .T. ) ;
#100 = PERSON ( 'UNSPECIFIED', 'UNSPECIFIED', 'UNSPECIFIED', ('UNSPECIFIED'), ('UNSPECIFIED'), ('UNSPECIFIED') ) ;
#101 = CARTESIAN_POINT ( 'NONE',  ( 0.06000000000000014350, -4.327691119496078530E-15, -1.119499999999999940 ) ) ;
#102 = VERTEX_POINT ( 'NONE', #292 ) ;
#103 = PERSON_AND_ORGANIZATION ( #100, #229 ) ;
#104 = ORIENTED_EDGE ( 'NONE', *, *, #285, .T. ) ;
#105 = EDGE_CURVE ( 'NONE', #52, #248, #344, .T. ) ;
#106 = AXIS2_PLACEMENT_3D ( 'NONE', #282, #255, #373 ) ;
#107 = VERTEX_POINT ( 'NONE', #56 ) ;
#108 = PERSON_AND_ORGANIZATION_ROLE ( 'design_owner' ) ;
#109 = DIRECTION ( 'NONE',  ( 1.000000000000000000, -6.982962677686267499E-15, 0.000000000000000000 ) ) ;
#110 = ADVANCED_FACE ( 'NONE', ( #174 ), #142, .T. ) ;
#111 = DIRECTION ( 'NONE',  ( -2.445468806185136597E-29, 3.491481338843145583E-15, 1.000000000000000000 ) ) ;
#112 = APPROVAL_DATE_TIME ( #115, #332 ) ;
#113 = CIRCLE ( 'NONE', #333, 0.05999999999999999778 ) ;
#114 = EDGE_LOOP ( 'NONE', ( #372, #342, #192 ) ) ;
#115 = DATE_AND_TIME ( #287, #177 ) ;
#116 = DIRECTION ( 'NONE',  ( -2.445468806185136597E-29, 3.491481338843145583E-15, 1.000000000000000000 ) ) ;
#117 = DIRECTION ( 'NONE',  ( -2.445468806185136597E-29, 3.491481338843145583E-15, 1.000000000000000000 ) ) ;
#118 = EDGE_CURVE ( 'NONE', #81, #95, #84, .T. ) ;
#119 = CARTESIAN_POINT ( 'NONE',  ( -5.989671091818642381E-48, 8.551662891793931527E-34, 2.449293598294701954E-19 ) ) ;
#120 = AXIS2_PLACEMENT_3D ( 'NONE', #244, #148, #334 ) ;
#121 = CC_DESIGN_APPROVAL ( #270, ( #337 ) ) ;
#122 = DIRECTION ( 'NONE',  ( -6.982962677686265922E-15, -1.000000000000000000, 4.553079989440439092E-15 ) ) ;
#123 = DIRECTION ( 'NONE',  ( 2.445468806185136597E-29, -3.491481338843145583E-15, -1.000000000000000000 ) ) ;
#124 = CARTESIAN_POINT ( 'NONE',  ( -0.05999999999999999778, 3.098689688223269907E-16, -0.03125000000000020817 ) ) ;
#125 = DIRECTION ( 'NONE',  ( -2.446332238394786757E-29, 3.490244854775416827E-15, 1.000000000000000000 ) ) ;
#126 = MECHANICAL_CONTEXT ( 'NONE', #294, 'mechanical' ) ;
#127 = CC_DESIGN_DATE_AND_TIME_ASSIGNMENT ( #166, #227, ( #337 ) ) ;
#128 = CYLINDRICAL_SURFACE ( 'NONE', #366, 0.05999999999999999778 ) ;
#129 = EDGE_LOOP ( 'NONE', ( #383, #46, #42, #193 ) ) ;
#130 = CONICAL_SURFACE ( 'NONE', #353, 0.05999999999999999778, 0.7853981633974449483 ) ;
#131 = LOCAL_TIME ( 20, 16, 4.000000000000000000, #224 ) ;
#132 = EDGE_CURVE ( 'NONE', #369, #256, #389, .T. ) ;
#133 = EDGE_LOOP ( 'NONE', ( #322, #189 ) ) ;
#134 = ORIENTED_EDGE ( 'NONE', *, *, #246, .T. ) ;
#135 = CONICAL_SURFACE ( 'NONE', #210, 0.05999999999999999778, 0.7853981633974449483 ) ;
#136 = DESIGN_CONTEXT ( 'detailed design', #158, 'design' ) ;
#137 = VERTEX_POINT ( 'NONE', #86 ) ;
#138 = PLANE ( 'NONE',  #371 ) ;
#139 = PERSON_AND_ORGANIZATION ( #100, #229 ) ;
#140 = DIRECTION ( 'NONE',  ( -2.446332238394787037E-29, 3.490244854775416827E-15, 1.000000000000000000 ) ) ;
#141 = PERSON_AND_ORGANIZATION ( #100, #229 ) ;
#142 = CONICAL_SURFACE ( 'NONE', #154, 0.06000000000000014350, 0.7853981633972092480 ) ;
#143 = SECURITY_CLASSIFICATION ( '', '', #350 ) ;
#144 = VERTEX_POINT ( 'NONE', #206 ) ;
#145 = PERSON_AND_ORGANIZATION_ROLE ( 'classification_officer' ) ;
#146 = CARTESIAN_POINT ( 'NONE',  ( -4.189777606611485306E-16, -0.06000000000000391132, -1.119999999999999662 ) ) ;
#147 = EDGE_CURVE ( 'NONE', #73, #81, #303, .T. ) ;
#148 = DIRECTION ( 'NONE',  ( -2.445468806185136597E-29, 3.491481338843145583E-15, 1.000000000000000000 ) ) ;
#149 = CARTESIAN_POINT ( 'NONE',  ( 5.504264496058334135E-29, -7.853050923244688156E-15, -2.249999999999999556 ) ) ;
#150 = CC_DESIGN_PERSON_AND_ORGANIZATION_ASSIGNMENT ( #28, #145, ( #143 ) ) ;
#151 = FACE_OUTER_BOUND ( 'NONE', #278, .T. ) ;
#152 = CARTESIAN_POINT ( 'NONE',  ( -9.080901235787501223E-28, 1.295567789695371310E-13, 37.12007874015748143 ) ) ;
#153 = ORIENTED_EDGE ( 'NONE', *, *, #132, .F. ) ;
#154 = AXIS2_PLACEMENT_3D ( 'NONE', #293, #117, #269 ) ;
#155 = APPROVAL_PERSON_ORGANIZATION ( #168, #332, #76 ) ;
#156 = CC_DESIGN_PERSON_AND_ORGANIZATION_ASSIGNMENT ( #16, #108, ( #162 ) ) ;
#157 = PERSON_AND_ORGANIZATION ( #100, #229 ) ;
#158 = APPLICATION_CONTEXT ( 'configuration controlled 3d designs of mechanical parts and assemblies' ) ;
#159 = DIRECTION ( 'NONE',  ( 0.7071067811863784858, -2.468850131080486462E-15, 0.7071067811867165487 ) ) ;
#160 = ORIENTED_EDGE ( 'NONE', *, *, #297, .T. ) ;
#161 = CYLINDRICAL_SURFACE ( 'NONE', #106, 0.06000000000000007411 ) ;
#162 = PRODUCT ( '58017', '58017', '', ( #126 ) ) ;
#163 = ORIENTED_EDGE ( 'NONE', *, *, #343, .T. ) ;
#164 = AXIS2_PLACEMENT_3D ( 'NONE', #357, #89, #215 ) ;
#165 = EDGE_LOOP ( 'NONE', ( #35, #219, #341, #6 ) ) ;
#166 = DATE_AND_TIME ( #74, #131 ) ;
#167 = DIRECTION ( 'NONE',  ( -2.438088387897960049E-29, 3.491481338843145188E-15, 1.000000000000000000 ) ) ;
#168 = PERSON_AND_ORGANIZATION ( #100, #229 ) ;
#169 = CARTESIAN_POINT ( 'NONE',  ( 7.642090019328602662E-31, -1.091087918388490267E-16, -0.03125000000000020817 ) ) ;
#170 = AXIS2_PLACEMENT_3D ( 'NONE', #261, #202, #109 ) ;
#171 = PLANE ( 'NONE',  #36 ) ;
#172 = CC_DESIGN_PERSON_AND_ORGANIZATION_ASSIGNMENT ( #141, #207, ( #339 ) ) ;
#173 = CARTESIAN_POINT ( 'NONE',  ( -0.05999999999999999778, -1.582585433880813430E-15, -0.03125000000000020817 ) ) ;
#174 = FACE_OUTER_BOUND ( 'NONE', #165, .T. ) ;
#175 = ADVANCED_FACE ( 'NONE', ( #324 ), #329, .T. ) ;
#176 = VECTOR ( 'NONE', #125, 39.37007874015748143 ) ;
#177 = LOCAL_TIME ( 20, 16, 4.000000000000000000, #317 ) ;
#178 = LINE ( 'NONE', #149, #65 ) ;
#179 = DIRECTION ( 'NONE',  ( -6.982962677686265922E-15, -1.000000000000000000, 4.553079989440439092E-15 ) ) ;
#180 = DIRECTION ( 'NONE',  ( 6.982962677686265922E-15, 1.000000000000000000, -3.490244854775416827E-15 ) ) ;
#181 = EDGE_CURVE ( 'NONE', #107, #73, #239, .T. ) ;
#182 = FACE_OUTER_BOUND ( 'NONE', #114, .T. ) ;
#183 = DIRECTION ( 'NONE',  ( -2.445468806185136597E-29, 3.491481338843145583E-15, 1.000000000000000000 ) ) ;
#184 = AXIS2_PLACEMENT_3D ( 'NONE', #367, #310, #41 ) ;
#185 = CONICAL_SURFACE ( 'NONE', #80, 0.06000000000000014350, 0.7853981633972092480 ) ;
#186 = CARTESIAN_POINT ( 'NONE',  ( 2.737702328524260097E-29, -3.908713358834901107E-15, -1.119499999999999940 ) ) ;
#187 = ORIENTED_EDGE ( 'NONE', *, *, #315, .T. ) ;
#188 = EDGE_CURVE ( 'NONE', #144, #52, #66, .T. ) ;
#189 = ORIENTED_EDGE ( 'NONE', *, *, #285, .F. ) ;
#190 = VECTOR ( 'NONE', #276, 39.37007874015748143 ) ;
#191 = DIRECTION ( 'NONE',  ( -0.7071067811865451302, 2.468850131082231817E-15, -0.7071067811865499042 ) ) ;
#192 = ORIENTED_EDGE ( 'NONE', *, *, #105, .F. ) ;
#193 = ORIENTED_EDGE ( 'NONE', *, *, #198, .F. ) ;
#194 = AXIS2_PLACEMENT_3D ( 'NONE', #212, #216, #55 ) ;
#195 = DIRECTION ( 'NONE',  ( -1.000000000000000000, 6.982962677686265922E-15, -4.876176775795935793E-29 ) ) ;
#196 = ORIENTED_EDGE ( 'NONE', *, *, #105, .T. ) ;
#197 = DIRECTION ( 'NONE',  ( -2.445468806185136597E-29, 3.491481338843145583E-15, 1.000000000000000000 ) ) ;
#198 = EDGE_CURVE ( 'NONE', #137, #283, #245, .T. ) ;
#199 = CARTESIAN_POINT ( 'NONE',  ( 5.463950927451695787E-29, -7.798323287987107286E-15, -2.233923048454132587 ) ) ;
#200 = DATE_AND_TIME ( #235, #45 ) ;
#201 = VECTOR ( 'NONE', #236, 39.37007874015748143 ) ;
#202 = DIRECTION ( 'NONE',  ( -2.445468806185136597E-29, 3.491481338843145583E-15, 1.000000000000000000 ) ) ;
#203 = DATE_AND_TIME ( #82, #69 ) ;
#204 = CARTESIAN_POINT ( 'NONE',  ( 7.642090019328602662E-31, -1.091087918388490267E-16, -0.03125000000000020817 ) ) ;
#205 = ADVANCED_FACE ( 'NONE', ( #33 ), #218, .T. ) ;
#206 = CARTESIAN_POINT ( 'NONE',  ( 5.504247536388270063E-29, -7.853050923244688156E-15, -2.249999999999999556 ) ) ;
#207 = PERSON_AND_ORGANIZATION_ROLE ( 'creator' ) ;
#208 = CLOSED_SHELL ( 'NONE', ( #327, #385, #205, #175, #251 ) ) ;
#209 = LENGTH_MEASURE_WITH_UNIT ( LENGTH_MEASURE( 0.02539999999999999897 ), #24 );
#210 = AXIS2_PLACEMENT_3D ( 'NONE', #204, #18, #258 ) ;
#211 = DIRECTION ( 'NONE',  ( -0.7071067811863784858, 7.493145998869743582E-15, 0.7071067811867165487 ) ) ;
#212 = CARTESIAN_POINT ( 'NONE',  ( -9.080901235787501223E-28, 1.295567789695371310E-13, 37.12007874015748143 ) ) ;
#213 = APPROVAL ( #352, 'UNSPECIFIED' ) ;
#214 = LINE ( 'NONE', #238, #44 ) ;
#215 = DIRECTION ( 'NONE',  ( 1.000000000000000000, -6.982962677686266711E-15, 4.876176775795936353E-29 ) ) ;
#216 = DIRECTION ( 'NONE',  ( -2.446332238394787037E-29, 3.490244854775416827E-15, 1.000000000000000000 ) ) ;
#217 = CARTESIAN_POINT ( 'NONE',  ( -0.06000000000000014350, -3.482387717378840223E-15, -1.119499999999999940 ) ) ;
#218 = CONICAL_SURFACE ( 'NONE', #338, 146.9311341562576274, 1.308996938995751647 ) ;
#219 = ORIENTED_EDGE ( 'NONE', *, *, #147, .T. ) ;
#220 = CIRCLE ( 'NONE', #228, 0.05999999999999999778 ) ;
#221 = CARTESIAN_POINT ( 'NONE',  ( 0.000000000000000000, 0.000000000000000000, 0.000000000000000000 ) ) ;
#222 = ADVANCED_FACE ( 'NONE', ( #151 ), #185, .T. ) ;
#223 = ORIENTED_EDGE ( 'NONE', *, *, #379, .F. ) ;
#224 = COORDINATED_UNIVERSAL_TIME_OFFSET ( 5, 0, .BEHIND. ) ;
#225 = CARTESIAN_POINT ( 'NONE',  ( 2.737702328524260097E-29, -3.908713358834901107E-15, -1.119499999999999940 ) ) ;
#226 = ORIENTED_EDGE ( 'NONE', *, *, #358, .T. ) ;
#227 = DATE_TIME_ROLE ( 'creation_date' ) ;
#228 = AXIS2_PLACEMENT_3D ( 'NONE', #199, #83, #78 ) ;
#229 = ORGANIZATION ( 'UNSPECIFIED', 'UNSPECIFIED', '' ) ;
#230 = ORIENTED_EDGE ( 'NONE', *, *, #77, .F. ) ;
#231 = APPLICATION_PROTOCOL_DEFINITION ( 'international standard', 'config_control_design', 1994, #158 ) ;
#232 = EDGE_CURVE ( 'NONE', #256, #369, #87, .T. ) ;
#233 = CARTESIAN_POINT ( 'NONE',  ( -4.189777606611212655E-16, -0.06000000000000778322, -2.233923048454132587 ) ) ;
#234 = DIRECTION ( 'NONE',  ( 1.000000000000000000, -6.982962677686267499E-15, 0.000000000000000000 ) ) ;
#235 = CALENDAR_DATE ( 2024, 22, 4 ) ;
#236 = DIRECTION ( 'NONE',  ( -2.445468806185136877E-29, 3.491481338843145188E-15, 1.000000000000000000 ) ) ;
#237 = CARTESIAN_POINT ( 'NONE',  ( 2.738925062927352899E-29, -3.910459099504322611E-15, -1.119999999999999885 ) ) ;
#238 = CARTESIAN_POINT ( 'NONE',  ( 0.05999999999999999778, -5.207386717051408918E-16, -0.03125000000000020817 ) ) ;
#239 = CIRCLE ( 'NONE', #120, 0.05950000000000021244 ) ;
#240 = APPROVAL_PERSON_ORGANIZATION ( #103, #270, #48 ) ;
#241 = DIRECTION ( 'NONE',  ( 1.000000000000000000, -6.982962677686268288E-15, 0.000000000000000000 ) ) ;
#242 = ADVANCED_FACE ( 'NONE', ( #32 ), #30, .T. ) ;
#243 = DIRECTION ( 'NONE',  ( -2.445468806185136597E-29, 3.491481338843145583E-15, 1.000000000000000000 ) ) ;
#244 = CARTESIAN_POINT ( 'NONE',  ( 2.738925062927352899E-29, -3.910459099504323400E-15, -1.120000000000000107 ) ) ;
#245 = CIRCLE ( 'NONE', #271, 0.05999999999999999778 ) ;
#246 = EDGE_CURVE ( 'NONE', #369, #102, #214, .T. ) ;
#247 = CARTESIAN_POINT ( 'NONE',  ( 2.738925062927352899E-29, -3.910459099504322611E-15, -1.119999999999999885 ) ) ;
#248 = VERTEX_POINT ( 'NONE', #362 ) ;
#249 = CARTESIAN_POINT ( 'NONE',  ( -4.189777606611485306E-16, -0.06000000000000391132, -1.119999999999999662 ) ) ;
#250 = ORIENTED_EDGE ( 'NONE', *, *, #232, .F. ) ;
#251 = ADVANCED_FACE ( 'NONE', ( #61 ), #364, .F. ) ;
#252 = EDGE_LOOP ( 'NONE', ( #266, #25, #316, #230 ) ) ;
#253 = AXIS2_PLACEMENT_3D ( 'NONE', #296, #328, #179 ) ;
#254 = APPROVAL_STATUS ( 'not_yet_approved' ) ;
#255 = DIRECTION ( 'NONE',  ( -2.445468806185136597E-29, 3.491481338843145583E-15, 1.000000000000000000 ) ) ;
#256 = VERTEX_POINT ( 'NONE', #298 ) ;
#257 = APPROVAL_DATE_TIME ( #13, #270 ) ;
#258 = DIRECTION ( 'NONE',  ( -1.000000000000000000, 6.982962677686267499E-15, 0.000000000000000000 ) ) ;
#259 = EDGE_CURVE ( 'NONE', #144, #248, #178, .T. ) ;
#260 = VECTOR ( 'NONE', #63, 39.37007874015748143 ) ;
#261 = CARTESIAN_POINT ( 'NONE',  ( 7.642090019328602662E-31, -1.091087918388490267E-16, -0.03125000000000020817 ) ) ;
#262 = UNCERTAINTY_MEASURE_WITH_UNIT (LENGTH_MEASURE( 1.000000000000000082E-05 ), #265, 'distance_accuracy_value', 'NONE');
#263 = ORIENTED_EDGE ( 'NONE', *, *, #118, .T. ) ;
#264 = DIRECTION ( 'NONE',  ( -6.982962677686265922E-15, -1.000000000000000000, 4.553079989440439092E-15 ) ) ;
#265 =( CONVERSION_BASED_UNIT ( 'INCH', #209 ) LENGTH_UNIT ( ) NAMED_UNIT ( #381 ) );
#266 = ORIENTED_EDGE ( 'NONE', *, *, #118, .F. ) ;
#267 = COORDINATED_UNIVERSAL_TIME_OFFSET ( 5, 0, .BEHIND. ) ;
#268 = CARTESIAN_POINT ( 'NONE',  ( 2.738925062927352899E-29, -3.910459099504323400E-15, -1.120000000000000107 ) ) ;
#269 = DIRECTION ( 'NONE',  ( 1.000000000000000000, -6.982962677686268288E-15, 0.000000000000000000 ) ) ;
#270 = APPROVAL ( #254, 'UNSPECIFIED' ) ;
#271 = AXIS2_PLACEMENT_3D ( 'NONE', #237, #29, #122 ) ;
#272 = DIRECTION ( 'NONE',  ( -2.445468806185136877E-29, 3.491481338843145188E-15, 1.000000000000000000 ) ) ;
#273 = CARTESIAN_POINT ( 'NONE',  ( 2.738925062927352899E-29, -3.910459099504322611E-15, -1.119999999999999885 ) ) ;
#274 = APPROVAL_DATE_TIME ( #203, #213 ) ;
#275 = ADVANCED_FACE ( 'NONE', ( #1 ), #130, .T. ) ;
#276 = DIRECTION ( 'NONE',  ( -2.446332238394786757E-29, 3.490244854775416827E-15, 1.000000000000000000 ) ) ;
#277 = VERTEX_POINT ( 'NONE', #27 ) ;
#278 = EDGE_LOOP ( 'NONE', ( #11, #104, #187, #223 ) ) ;
#279 = PERSON_AND_ORGANIZATION_ROLE ( 'creator' ) ;
#280 = CC_DESIGN_PERSON_AND_ORGANIZATION_ASSIGNMENT ( #325, #378, ( #339 ) ) ;
#281 = APPLICATION_PROTOCOL_DEFINITION ( 'international standard', 'config_control_design', 1994, #294 ) ;
#282 = CARTESIAN_POINT ( 'NONE',  ( 0.000000000000000000, 0.000000000000000000, 0.000000000000000000 ) ) ;
#283 = VERTEX_POINT ( 'NONE', #146 ) ;
#284 = ORIENTED_EDGE ( 'NONE', *, *, #232, .T. ) ;
#285 = EDGE_CURVE ( 'NONE', #73, #107, #10, .T. ) ;
#286 = EDGE_LOOP ( 'NONE', ( #284, #355 ) ) ;
#287 = CALENDAR_DATE ( 2024, 22, 4 ) ;
#288 = LINE ( 'NONE', #75, #201 ) ;
#289 = CIRCLE ( 'NONE', #313, 0.05999999999999999778 ) ;
#290 = AXIS2_PLACEMENT_3D ( 'NONE', #225, #197, #14 ) ;
#291 = CARTESIAN_POINT ( 'NONE',  ( -2.994835545909321190E-48, 4.275831445896965764E-34, 1.224646799147350977E-19 ) ) ;
#292 = CARTESIAN_POINT ( 'NONE',  ( 0.05999999999999999778, -5.280865525000250441E-16, -0.03125000000000020817 ) ) ;
#293 = CARTESIAN_POINT ( 'NONE',  ( 2.737702328524260097E-29, -3.908713358834901107E-15, -1.119499999999999940 ) ) ;
#294 = APPLICATION_CONTEXT ( 'configuration controlled 3d designs of mechanical parts and assemblies' ) ;
#295 = DIRECTION ( 'NONE',  ( 6.863315791527699781E-15, 0.9659258262890704216, 0.2588190451025130789 ) ) ;
#296 = CARTESIAN_POINT ( 'NONE',  ( 2.738925062927352899E-29, -3.910459099504322611E-15, -1.119999999999999885 ) ) ;
#297 = EDGE_CURVE ( 'NONE', #248, #137, #335, .T. ) ;
#298 = CARTESIAN_POINT ( 'NONE',  ( -0.02875000000000000125, 2.553145729029036237E-16, 2.449293598278756698E-19 ) ) ;
#299 = ADVANCED_BREP_SHAPE_REPRESENTATION ( '58017', ( #90, #85, #354 ), #4 ) ;
#300 = DIRECTION ( 'NONE',  ( 1.000000000000000000, 0.000000000000000000, 0.000000000000000000 ) ) ;
#301 = AXIS2_PLACEMENT_3D ( 'NONE', #273, #57, #180 ) ;
#302 = CC_DESIGN_SECURITY_CLASSIFICATION ( #143, ( #339 ) ) ;
#303 = LINE ( 'NONE', #217, #97 ) ;
#304 = CARTESIAN_POINT ( 'NONE',  ( 5.502313448238652224E-29, -7.855820647556399812E-15, -2.249999999999999556 ) ) ;
#305 = EDGE_LOOP ( 'NONE', ( #320, #99, #39 ) ) ;
#306 = AXIS2_PLACEMENT_3D ( 'NONE', #119, #116, #60 ) ;
#307 = EDGE_LOOP ( 'NONE', ( #153, #134, #380, #374 ) ) ;
#308 = ORIENTED_EDGE ( 'NONE', *, *, #321, .F. ) ;
#309 = CC_DESIGN_PERSON_AND_ORGANIZATION_ASSIGNMENT ( #157, #279, ( #337 ) ) ;
#310 = DIRECTION ( 'NONE',  ( -2.445468806185136597E-29, 3.491481338843145583E-15, 1.000000000000000000 ) ) ;
#311 = CALENDAR_DATE ( 2024, 22, 4 ) ;
#312 = DIRECTION ( 'NONE',  ( -2.446332238394787037E-29, 3.490244854775416827E-15, 1.000000000000000000 ) ) ;
#313 = AXIS2_PLACEMENT_3D ( 'NONE', #169, #111, #234 ) ;
#314 = EDGE_LOOP ( 'NONE', ( #226, #263, #345, #336 ) ) ;
#315 = EDGE_CURVE ( 'NONE', #107, #277, #38, .T. ) ;
#316 = ORIENTED_EDGE ( 'NONE', *, *, #7, .T. ) ;
#317 = COORDINATED_UNIVERSAL_TIME_OFFSET ( 5, 0, .BEHIND. ) ;
#318 = DIRECTION ( 'NONE',  ( 1.000000000000000000, -6.982962677686265922E-15, 4.876176775795935793E-29 ) ) ;
#319 = DIRECTION ( 'NONE',  ( 0.000000000000000000, 0.000000000000000000, 1.000000000000000000 ) ) ;
#320 = ORIENTED_EDGE ( 'NONE', *, *, #259, .F. ) ;
#321 = EDGE_CURVE ( 'NONE', #52, #283, #34, .T. ) ;
#322 = ORIENTED_EDGE ( 'NONE', *, *, #181, .F. ) ;
#323 = FACE_OUTER_BOUND ( 'NONE', #286, .T. ) ;
#324 = FACE_OUTER_BOUND ( 'NONE', #129, .T. ) ;
#325 = PERSON_AND_ORGANIZATION ( #100, #229 ) ;
#326 = AXIS2_PLACEMENT_3D ( 'NONE', #268, #386, #70 ) ;
#327 = ADVANCED_FACE ( 'NONE', ( #5 ), #128, .T. ) ;
#328 = DIRECTION ( 'NONE',  ( -2.446332238394787037E-29, 3.490244854775416827E-15, 1.000000000000000000 ) ) ;
#329 = CYLINDRICAL_SURFACE ( 'NONE', #253, 0.05999999999999999778 ) ;
#330 =( NAMED_UNIT ( * ) PLANE_ANGLE_UNIT ( ) SI_UNIT ( $, .RADIAN. ) );
#331 = DIRECTION ( 'NONE',  ( 0.7071067811865451302, -7.319954787623248157E-15, -0.7071067811865499042 ) ) ;
#332 = APPROVAL ( #8, 'UNSPECIFIED' ) ;
#333 = AXIS2_PLACEMENT_3D ( 'NONE', #54, #349, #79 ) ;
#334 = DIRECTION ( 'NONE',  ( 1.000000000000000000, -6.982962677686266711E-15, 0.000000000000000000 ) ) ;
#335 = LINE ( 'NONE', #98, #176 ) ;
#336 = ORIENTED_EDGE ( 'NONE', *, *, #7, .F. ) ;
#337 = PRODUCT_DEFINITION ( 'UNKNOWN', '', #339, #136 ) ;
#338 = AXIS2_PLACEMENT_3D ( 'NONE', #152, #388, #384 ) ;
#339 = PRODUCT_DEFINITION_FORMATION_WITH_SPECIFIED_SOURCE ( 'ANY', '', #162, .NOT_KNOWN. ) ;
#340 = ORIENTED_EDGE ( 'NONE', *, *, #62, .F. ) ;
#341 = ORIENTED_EDGE ( 'NONE', *, *, #358, .F. ) ;
#342 = ORIENTED_EDGE ( 'NONE', *, *, #259, .T. ) ;
#343 = EDGE_CURVE ( 'NONE', #256, #95, #72, .T. ) ;
#344 = CIRCLE ( 'NONE', #31, 0.05999999999999999778 ) ;
#345 = ORIENTED_EDGE ( 'NONE', *, *, #40, .F. ) ;
#346 = CONICAL_SURFACE ( 'NONE', #194, 146.9311341562576274, 1.308996938995751647 ) ;
#347 = ORIENTED_EDGE ( 'NONE', *, *, #62, .T. ) ;
#348 = CARTESIAN_POINT ( 'NONE',  ( 0.02875000000000000125, -3.589889945705362595E-16, 2.449293598314266995E-19 ) ) ;
#349 = DIRECTION ( 'NONE',  ( -2.446332238394787037E-29, 3.490244854775416827E-15, 1.000000000000000000 ) ) ;
#350 = SECURITY_CLASSIFICATION_LEVEL ( 'unclassified' ) ;
#351 = CARTESIAN_POINT ( 'NONE',  ( -0.06000000000000014350, -3.482387717378840223E-15, -1.119499999999999940 ) ) ;
#352 = APPROVAL_STATUS ( 'not_yet_approved' ) ;
#353 = AXIS2_PLACEMENT_3D ( 'NONE', #2, #123, #365 ) ;
#354 = AXIS2_PLACEMENT_3D ( 'NONE', #221, #319, #300 ) ;
#355 = ORIENTED_EDGE ( 'NONE', *, *, #132, .T. ) ;
#356 = APPROVAL_ROLE ( '' ) ;
#357 = CARTESIAN_POINT ( 'NONE',  ( 0.000000000000000000, 0.000000000000000000, 0.000000000000000000 ) ) ;
#358 = EDGE_CURVE ( 'NONE', #277, #81, #3, .T. ) ;
#359 = CARTESIAN_POINT ( 'NONE',  ( -5.989671091818642381E-48, 8.551662891793931527E-34, 2.449293598294701954E-19 ) ) ;
#360 =( NAMED_UNIT ( * ) SI_UNIT ( $, .STERADIAN. ) SOLID_ANGLE_UNIT ( ) );
#361 = VECTOR ( 'NONE', #159, 39.37007874015748143 ) ;
#362 = CARTESIAN_POINT ( 'NONE',  ( 4.263256414561146258E-16, 0.05999999999999219846, -2.233923048454133031 ) ) ;
#363 = PRODUCT_RELATED_PRODUCT_CATEGORY ( 'detail', '', ( #162 ) ) ;
#364 = PLANE ( 'NONE',  #301 ) ;
#365 = DIRECTION ( 'NONE',  ( -1.000000000000000000, 6.982962677686267499E-15, 0.000000000000000000 ) ) ;
#366 = AXIS2_PLACEMENT_3D ( 'NONE', #247, #312, #370 ) ;
#367 = CARTESIAN_POINT ( 'NONE',  ( 2.737702328524260097E-29, -3.908713358834901107E-15, -1.119499999999999940 ) ) ;
#368 = ADVANCED_FACE ( 'NONE', ( #94 ), #161, .T. ) ;
#369 = VERTEX_POINT ( 'NONE', #348 ) ;
#370 = DIRECTION ( 'NONE',  ( -6.982962677686265922E-15, -1.000000000000000000, 4.553079989440439092E-15 ) ) ;
#371 = AXIS2_PLACEMENT_3D ( 'NONE', #47, #167, #318 ) ;
#372 = ORIENTED_EDGE ( 'NONE', *, *, #188, .F. ) ;
#373 = DIRECTION ( 'NONE',  ( 1.000000000000000000, -6.982962677686266711E-15, 4.876176775795936353E-29 ) ) ;
#374 = ORIENTED_EDGE ( 'NONE', *, *, #343, .F. ) ;
#375 = ORIENTED_EDGE ( 'NONE', *, *, #77, .T. ) ;
#376 = FACE_OUTER_BOUND ( 'NONE', #133, .T. ) ;
#377 = EDGE_LOOP ( 'NONE', ( #196, #160, #340, #308 ) ) ;
#378 = PERSON_AND_ORGANIZATION_ROLE ( 'design_supplier' ) ;
#379 = EDGE_CURVE ( 'NONE', #81, #277, #58, .T. ) ;
#380 = ORIENTED_EDGE ( 'NONE', *, *, #40, .T. ) ;
#381 = DIMENSIONAL_EXPONENTS ( 1.000000000000000000, 0.000000000000000000, 0.000000000000000000, 0.000000000000000000, 0.000000000000000000, 0.000000000000000000, 0.000000000000000000 ) ;
#382 = PRODUCT_DEFINITION_SHAPE ( 'NONE', 'NONE',  #337 ) ;
#383 = ORIENTED_EDGE ( 'NONE', *, *, #297, .F. ) ;
#384 = DIRECTION ( 'NONE',  ( -6.982962677686266711E-15, -1.000000000000000000, 3.510303681827577719E-15 ) ) ;
#385 = ADVANCED_FACE ( 'NONE', ( #182 ), #346, .T. ) ;
#386 = DIRECTION ( 'NONE',  ( -2.445468806185136597E-29, 3.491481338843145583E-15, 1.000000000000000000 ) ) ;
#387 = COORDINATED_UNIVERSAL_TIME_OFFSET ( 5, 0, .BEHIND. ) ;
#388 = DIRECTION ( 'NONE',  ( -2.446332238394787037E-29, 3.490244854775416827E-15, 1.000000000000000000 ) ) ;
#389 = CIRCLE ( 'NONE', #17, 0.02875000000000000125 ) ;
#390 = CC_DESIGN_DATE_AND_TIME_ASSIGNMENT ( #200, #21, ( #143 ) ) ;
ENDSEC;
END-ISO-10303-21;
