ISO-10303-21;
HEADER;
FILE_DESCRIPTION (( 'STEP AP203' ),
    '1' );
FILE_NAME ('58078.STEP',
    '2024-04-23T01:30:38',
    ( '' ),
    ( '' ),
    'SwSTEP 2.0',
    'SolidWorks 2023',
    '' );
FILE_SCHEMA (( 'CONFIG_CONTROL_DESIGN' ));
ENDSEC;

DATA;
#1 = DIRECTION ( 'NONE',  ( 2.445468806185136597E-29, -3.491481338843145583E-15, -1.000000000000000000 ) ) ;
#2 = CIRCLE ( 'NONE', #54, 0.1660000000000002307 ) ;
#3 = LOCAL_TIME ( 21, 30, 38.00000000000000000, #355 ) ;
#4 = ORIENTED_EDGE ( 'NONE', *, *, #286, .T. ) ;
#5 = DIRECTION ( 'NONE',  ( -2.445468806185136597E-29, 3.491481338843145583E-15, 1.000000000000000000 ) ) ;
#6 = CALENDAR_DATE ( 2024, 22, 4 ) ;
#7 = CARTESIAN_POINT ( 'NONE',  ( -0.1660000000000000642, 1.050063012657071473E-15, -0.03125000000000021511 ) ) ;
#8 = CARTESIAN_POINT ( 'NONE',  ( -0.1655000000000004523, -5.217796357903563064E-15, -1.832000000000000073 ) ) ;
#9 = EDGE_CURVE ( 'NONE', #24, #371, #40, .T. ) ;
#10 = DIRECTION ( 'NONE',  ( -6.745023994389835189E-15, -0.9659258262890670910, 0.2588190451025252359 ) ) ;
#11 = CIRCLE ( 'NONE', #256, 0.1660000000000002307 ) ;
#12 = AXIS2_PLACEMENT_3D ( 'NONE', #29, #243, #324 ) ;
#13 = CALENDAR_DATE ( 2024, 22, 4 ) ;
#14 = PERSON ( 'UNSPECIFIED', 'UNSPECIFIED', 'UNSPECIFIED', ('UNSPECIFIED'), ('UNSPECIFIED'), ('UNSPECIFIED') ) ;
#15 = ORIENTED_EDGE ( 'NONE', *, *, #242, .F. ) ;
#16 = VERTEX_POINT ( 'NONE', #182 ) ;
#17 = PERSON_AND_ORGANIZATION ( #14, #189 ) ;
#18 = PRODUCT ( '58078', '58078', '', ( #338 ) ) ;
#19 = PERSON_AND_ORGANIZATION_ROLE ( 'design_supplier' ) ;
#20 = VECTOR ( 'NONE', #32, 39.37007874015748143 ) ;
#21 = ORIENTED_EDGE ( 'NONE', *, *, #191, .T. ) ;
#22 = APPROVAL ( #280, 'UNSPECIFIED' ) ;
#23 = ORIENTED_EDGE ( 'NONE', *, *, #374, .T. ) ;
#24 = VERTEX_POINT ( 'NONE', #219 ) ;
#25 = DIMENSIONAL_EXPONENTS ( 1.000000000000000000, 0.000000000000000000, 0.000000000000000000, 0.000000000000000000, 0.000000000000000000, 0.000000000000000000, 0.000000000000000000 ) ;
#26 = CARTESIAN_POINT ( 'NONE',  ( -0.1347500000000000087, 9.955086167376481060E-16, 2.388061258269675258E-19 ) ) ;
#27 = DIRECTION ( 'NONE',  ( -2.445468806185136597E-29, 3.491481338843145583E-15, 1.000000000000000000 ) ) ;
#28 = EDGE_CURVE ( 'NONE', #210, #136, #188, .T. ) ;
#29 = CARTESIAN_POINT ( 'NONE',  ( 7.642090019328603538E-31, -1.091087918388490390E-16, -0.03125000000000021511 ) ) ;
#30 = CONICAL_SURFACE ( 'NONE', #83, 0.1660000000000000642, 0.7853981633974456145 ) ;
#31 =( GEOMETRIC_REPRESENTATION_CONTEXT ( 3 ) GLOBAL_UNCERTAINTY_ASSIGNED_CONTEXT ( ( #109 ) ) GLOBAL_UNIT_ASSIGNED_CONTEXT ( ( #128, #367, #97 ) ) REPRESENTATION_CONTEXT ( 'NONE', 'WORKASPACE' ) );
#32 = DIRECTION ( 'NONE',  ( -2.445468806185136877E-29, 3.491481338843145188E-15, 1.000000000000000000 ) ) ;
#33 = FACE_OUTER_BOUND ( 'NONE', #198, .T. ) ;
#34 = ADVANCED_FACE ( 'NONE', ( #298 ), #42, .T. ) ;
#35 = FACE_OUTER_BOUND ( 'NONE', #184, .T. ) ;
#36 = CC_DESIGN_SECURITY_CLASSIFICATION ( #352, ( #359 ) ) ;
#37 = CARTESIAN_POINT ( 'NONE',  ( -5.839929314523303030E-48, 8.337871319499263790E-34, 2.388061258337386140E-19 ) ) ;
#38 = CC_DESIGN_PERSON_AND_ORGANIZATION_ASSIGNMENT ( #236, #19, ( #359 ) ) ;
#39 = ORIENTED_EDGE ( 'NONE', *, *, #191, .F. ) ;
#40 = LINE ( 'NONE', #155, #339 ) ;
#41 = LENGTH_MEASURE_WITH_UNIT ( LENGTH_MEASURE( 0.02539999999999999897 ), #76 );
#42 = CYLINDRICAL_SURFACE ( 'NONE', #171, 0.1660000000000000087 ) ;
#43 = AXIS2_PLACEMENT_3D ( 'NONE', #196, #238, #66 ) ;
#44 = AXIS2_PLACEMENT_3D ( 'NONE', #390, #94, #118 ) ;
#45 = CARTESIAN_POINT ( 'NONE',  ( -5.839929314523303030E-48, 8.337871319499263790E-34, 2.388061258337386140E-19 ) ) ;
#46 = CARTESIAN_POINT ( 'NONE',  ( 9.673131121137968745E-29, -1.381058383966114063E-14, -3.955520434056433388 ) ) ;
#47 = DIRECTION ( 'NONE',  ( -2.445468806185136597E-29, 3.491481338843145583E-15, 1.000000000000000000 ) ) ;
#48 = EDGE_CURVE ( 'NONE', #331, #95, #81, .T. ) ;
#49 = EDGE_LOOP ( 'NONE', ( #222, #252 ) ) ;
#50 = PERSON_AND_ORGANIZATION_ROLE ( 'creator' ) ;
#51 = VERTEX_POINT ( 'NONE', #165 ) ;
#52 = FACE_OUTER_BOUND ( 'NONE', #377, .T. ) ;
#53 = CYLINDRICAL_SURFACE ( 'NONE', #235, 0.1660000000000001474 ) ;
#54 = AXIS2_PLACEMENT_3D ( 'NONE', #225, #311, #309 ) ;
#55 = EDGE_CURVE ( 'NONE', #51, #95, #2, .T. ) ;
#56 = DIRECTION ( 'NONE',  ( -0.7071067811865455743, 2.468850131082236945E-15, -0.7071067811865493491 ) ) ;
#57 = LINE ( 'NONE', #239, #304 ) ;
#58 = DATE_AND_TIME ( #104, #3 ) ;
#59 = DIRECTION ( 'NONE',  ( -2.438088387897960049E-29, 3.491481338843145188E-15, 1.000000000000000000 ) ) ;
#60 = FACE_OUTER_BOUND ( 'NONE', #351, .T. ) ;
#61 = VECTOR ( 'NONE', #176, 39.37007874015748854 ) ;
#62 = MANIFOLD_SOLID_BREP ( 'Body-Move/Copy2[1]', #223 ) ;
#63 = CARTESIAN_POINT ( 'NONE',  ( 4.480098852931170371E-29, -6.396393812760643089E-15, -1.832000000000000073 ) ) ;
#64 = ORIENTED_EDGE ( 'NONE', *, *, #28, .T. ) ;
#65 = CARTESIAN_POINT ( 'NONE',  ( -8.649693731948068704E-28, 1.234932351032908381E-13, 35.37007874015748143 ) ) ;
#66 = DIRECTION ( 'NONE',  ( -6.982962677686266711E-15, -1.000000000000000000, 3.291383124896702687E-15 ) ) ;
#67 = ORIENTED_EDGE ( 'NONE', *, *, #80, .F. ) ;
#68 = ORIENTED_EDGE ( 'NONE', *, *, #317, .T. ) ;
#69 = FACE_OUTER_BOUND ( 'NONE', #141, .T. ) ;
#70 = CIRCLE ( 'NONE', #43, 0.1660000000000000087 ) ;
#71 = EDGE_CURVE ( 'NONE', #16, #220, #215, .T. ) ;
#72 = APPLICATION_PROTOCOL_DEFINITION ( 'international standard', 'config_control_design', 1994, #333 ) ;
#73 = ORIENTED_EDGE ( 'NONE', *, *, #121, .F. ) ;
#74 = ORIENTED_EDGE ( 'NONE', *, *, #71, .F. ) ;
#75 = DIRECTION ( 'NONE',  ( -6.982962677686265133E-15, -1.000000000000000000, 3.510303681827655421E-15 ) ) ;
#76 =( LENGTH_UNIT ( ) NAMED_UNIT ( * ) SI_UNIT ( $, .METRE. ) );
#77 = AXIS2_PLACEMENT_3D ( 'NONE', #150, #148, #363 ) ;
#78 = ORIENTED_EDGE ( 'NONE', *, *, #178, .F. ) ;
#79 = DIRECTION ( 'NONE',  ( -2.445482598105665737E-29, 3.491461588027960395E-15, 1.000000000000000000 ) ) ;
#80 = EDGE_CURVE ( 'NONE', #123, #103, #87, .T. ) ;
#81 = LINE ( 'NONE', #277, #318 ) ;
#82 = ADVANCED_FACE ( 'NONE', ( #52 ), #53, .T. ) ;
#83 = AXIS2_PLACEMENT_3D ( 'NONE', #175, #1, #151 ) ;
#84 = VECTOR ( 'NONE', #119, 39.37007874015748143 ) ;
#85 = CARTESIAN_POINT ( 'NONE',  ( 4.480098852931169250E-29, -6.396393812760642300E-15, -1.831999999999999851 ) ) ;
#86 = CARTESIAN_POINT ( 'NONE',  ( 0.1660000000000001474, -1.159171804495921363E-15, 8.094453447821260591E-30 ) ) ;
#87 = CIRCLE ( 'NONE', #181, 0.1347500000000000087 ) ;
#88 = DIRECTION ( 'NONE',  ( 0.7071067811862576935, -2.468850131079221129E-15, 0.7071067811868373409 ) ) ;
#89 = APPROVAL_DATE_TIME ( #205, #312 ) ;
#90 = CYLINDRICAL_SURFACE ( 'NONE', #269, 0.1660000000000000087 ) ;
#91 = CC_DESIGN_PERSON_AND_ORGANIZATION_ASSIGNMENT ( #17, #335, ( #18 ) ) ;
#92 = PLANE ( 'NONE',  #237 ) ;
#93 = APPROVAL_PERSON_ORGANIZATION ( #310, #312, #134 ) ;
#94 = DIRECTION ( 'NONE',  ( -2.445482598105665737E-29, 3.491461588027960395E-15, 1.000000000000000000 ) ) ;
#95 = VERTEX_POINT ( 'NONE', #315 ) ;
#96 = CARTESIAN_POINT ( 'NONE',  ( 4.480098852931169250E-29, -6.396393812760642300E-15, -1.831999999999999851 ) ) ;
#97 =( NAMED_UNIT ( * ) SI_UNIT ( $, .STERADIAN. ) SOLID_ANGLE_UNIT ( ) );
#98 = DIRECTION ( 'NONE',  ( 1.000000000000000000, -6.982962677686265922E-15, 0.000000000000000000 ) ) ;
#99 = LINE ( 'NONE', #372, #385 ) ;
#100 = AXIS2_PLACEMENT_3D ( 'NONE', #330, #192, #306 ) ;
#101 = AXIS2_PLACEMENT_3D ( 'NONE', #152, #59, #290 ) ;
#102 = ORIENTED_EDGE ( 'NONE', *, *, #28, .F. ) ;
#103 = VERTEX_POINT ( 'NONE', #26 ) ;
#104 = CALENDAR_DATE ( 2024, 22, 4 ) ;
#105 = CALENDAR_DATE ( 2024, 22, 4 ) ;
#106 = VECTOR ( 'NONE', #259, 39.37007874015748143 ) ;
#107 = VECTOR ( 'NONE', #88, 39.37007874015748143 ) ;
#108 = LINE ( 'NONE', #7, #113 ) ;
#109 = UNCERTAINTY_MEASURE_WITH_UNIT (LENGTH_MEASURE( 1.000000000000000082E-05 ), #128, 'distance_accuracy_value', 'NONE');
#110 = DIRECTION ( 'NONE',  ( 1.000000000000000000, -6.982962677686266711E-15, 4.876176775795935793E-29 ) ) ;
#111 = CARTESIAN_POINT ( 'NONE',  ( 0.000000000000000000, 0.000000000000000000, 0.000000000000000000 ) ) ;
#112 = PERSON_AND_ORGANIZATION ( #14, #189 ) ;
#113 = VECTOR ( 'NONE', #56, 39.37007874015748854 ) ;
#114 = AXIS2_PLACEMENT_3D ( 'NONE', #65, #177, #320 ) ;
#115 = DIRECTION ( 'NONE',  ( -2.445468806185136597E-29, 3.491481338843145583E-15, 1.000000000000000000 ) ) ;
#116 = CARTESIAN_POINT ( 'NONE',  ( 4.478876118528077569E-29, -6.394648072091220797E-15, -1.831499999999999906 ) ) ;
#117 = APPROVAL_DATE_TIME ( #322, #22 ) ;
#118 = DIRECTION ( 'NONE',  ( -6.982962677686266711E-15, -1.000000000000000000, 3.291383124896702687E-15 ) ) ;
#119 = DIRECTION ( 'NONE',  ( -2.445482598105666018E-29, 3.491461588027960395E-15, 1.000000000000000000 ) ) ;
#120 = APPROVAL_PERSON_ORGANIZATION ( #193, #251, #158 ) ;
#121 = EDGE_CURVE ( 'NONE', #51, #136, #143, .T. ) ;
#122 = DIRECTION ( 'NONE',  ( 1.000000000000000000, -6.982962677686263555E-15, 0.000000000000000000 ) ) ;
#123 = VERTEX_POINT ( 'NONE', #200 ) ;
#124 = DATE_AND_TIME ( #6, #340 ) ;
#125 = ORIENTED_EDGE ( 'NONE', *, *, #48, .F. ) ;
#126 = DIRECTION ( 'NONE',  ( 1.000000000000000000, -6.982962677686265133E-15, 0.000000000000000000 ) ) ;
#127 = CIRCLE ( 'NONE', #344, 0.1655000000000004523 ) ;
#128 =( CONVERSION_BASED_UNIT ( 'INCH', #41 ) LENGTH_UNIT ( ) NAMED_UNIT ( #25 ) );
#129 = ORIENTED_EDGE ( 'NONE', *, *, #55, .T. ) ;
#130 = PRODUCT_DEFINITION ( 'UNKNOWN', '', #359, #284 ) ;
#131 = PERSON_AND_ORGANIZATION_ROLE ( 'creator' ) ;
#132 = EDGE_LOOP ( 'NONE', ( #361, #254, #316, #336 ) ) ;
#133 = ORIENTED_EDGE ( 'NONE', *, *, #9, .T. ) ;
#134 = APPROVAL_ROLE ( '' ) ;
#135 = EDGE_CURVE ( 'NONE', #382, #371, #70, .T. ) ;
#136 = VERTEX_POINT ( 'NONE', #334 ) ;
#137 = ORIENTED_EDGE ( 'NONE', *, *, #185, .T. ) ;
#138 = ORIENTED_EDGE ( 'NONE', *, *, #135, .T. ) ;
#139 = CIRCLE ( 'NONE', #44, 0.1660000000000000087 ) ;
#140 = EDGE_CURVE ( 'NONE', #103, #210, #108, .T. ) ;
#141 = EDGE_LOOP ( 'NONE', ( #263, #142 ) ) ;
#142 = ORIENTED_EDGE ( 'NONE', *, *, #185, .F. ) ;
#143 = LINE ( 'NONE', #86, #106 ) ;
#144 = CARTESIAN_POINT ( 'NONE',  ( 4.478876118528077569E-29, -6.394648072091220797E-15, -1.831499999999999906 ) ) ;
#145 = DIRECTION ( 'NONE',  ( 6.982962677686265922E-15, 1.000000000000000000, -3.491461588027960395E-15 ) ) ;
#146 = PERSON_AND_ORGANIZATION ( #14, #189 ) ;
#147 = LOCAL_TIME ( 21, 30, 38.00000000000000000, #302 ) ;
#148 = DIRECTION ( 'NONE',  ( 2.438088387897960049E-29, -3.491481338843145188E-15, -1.000000000000000000 ) ) ;
#149 = SECURITY_CLASSIFICATION_LEVEL ( 'unclassified' ) ;
#150 = CARTESIAN_POINT ( 'NONE',  ( -2.919964657261651515E-48, 4.168935659749631895E-34, 1.194030629168693070E-19 ) ) ;
#151 = DIRECTION ( 'NONE',  ( -1.000000000000000000, 6.982962677686265922E-15, 0.000000000000000000 ) ) ;
#152 = CARTESIAN_POINT ( 'NONE',  ( 2.368440169659076569E-29, -9.420409235354554037E-15, -1.832000000000000073 ) ) ;
#153 = CIRCLE ( 'NONE', #208, 0.1660000000000000087 ) ;
#154 = CARTESIAN_POINT ( 'NONE',  ( -8.649693731948068704E-28, 1.234932351032908381E-13, 35.37007874015748143 ) ) ;
#155 = CARTESIAN_POINT ( 'NONE',  ( 9.781879858825843986E-29, -1.396591871909868124E-14, -4.000000000000000000 ) ) ;
#156 = DIRECTION ( 'NONE',  ( -2.445468806185136597E-29, 3.491481338843145583E-15, 1.000000000000000000 ) ) ;
#157 = ORIENTED_EDGE ( 'NONE', *, *, #289, .F. ) ;
#158 = APPROVAL_ROLE ( '' ) ;
#159 = ADVANCED_FACE ( 'NONE', ( #60 ), #265, .T. ) ;
#160 = DIRECTION ( 'NONE',  ( 1.000000000000000000, -6.982962677686265133E-15, 0.000000000000000000 ) ) ;
#161 = CIRCLE ( 'NONE', #366, 0.1655000000000004523 ) ;
#162 = PERSON_AND_ORGANIZATION ( #14, #189 ) ;
#163 = EDGE_LOOP ( 'NONE', ( #23, #380, #157, #39 ) ) ;
#164 = DIRECTION ( 'NONE',  ( -2.445482598105665737E-29, 3.491461588027960395E-15, 1.000000000000000000 ) ) ;
#165 = CARTESIAN_POINT ( 'NONE',  ( 0.1660000000000002307, -7.553819876587141765E-15, -1.831499999999999906 ) ) ;
#166 = EDGE_CURVE ( 'NONE', #95, #51, #11, .T. ) ;
#167 = AXIS2_PLACEMENT_3D ( 'NONE', #37, #156, #190 ) ;
#168 = SHAPE_DEFINITION_REPRESENTATION ( #224, #206 ) ;
#169 = CALENDAR_DATE ( 2024, 22, 4 ) ;
#170 = ADVANCED_FACE ( 'NONE', ( #230 ), #30, .T. ) ;
#171 = AXIS2_PLACEMENT_3D ( 'NONE', #85, #253, #376 ) ;
#172 = LOCAL_TIME ( 21, 30, 38.00000000000000000, #357 ) ;
#173 = ADVANCED_FACE ( 'NONE', ( #212 ), #231, .T. ) ;
#174 = CARTESIAN_POINT ( 'NONE',  ( 4.480098852931169250E-29, -6.396393812760642300E-15, -1.831999999999999851 ) ) ;
#175 = CARTESIAN_POINT ( 'NONE',  ( 7.642090019328603538E-31, -1.091087918388490390E-16, -0.03125000000000021511 ) ) ;
#176 = DIRECTION ( 'NONE',  ( 6.863315791527689526E-15, 0.9659258262890689783, 0.2588190451025184080 ) ) ;
#177 = DIRECTION ( 'NONE',  ( -2.445482598105665737E-29, 3.491461588027960395E-15, 1.000000000000000000 ) ) ;
#178 = EDGE_CURVE ( 'NONE', #382, #16, #57, .T. ) ;
#179 = ORIENTED_EDGE ( 'NONE', *, *, #294, .T. ) ;
#180 = PLANE ( 'NONE',  #101 ) ;
#181 = AXIS2_PLACEMENT_3D ( 'NONE', #45, #47, #379 ) ;
#182 = CARTESIAN_POINT ( 'NONE',  ( 1.179500941361863400E-15, 0.1659999999999936249, -1.832000000000000295 ) ) ;
#183 = APPROVAL_DATE_TIME ( #124, #251 ) ;
#184 = EDGE_LOOP ( 'NONE', ( #78, #138, #21, #74 ) ) ;
#185 = EDGE_CURVE ( 'NONE', #331, #369, #127, .T. ) ;
#186 = APPROVAL_STATUS ( 'not_yet_approved' ) ;
#187 = MANIFOLD_SOLID_BREP ( 'Body-Move/Copy2[2]', #295 ) ;
#188 = CIRCLE ( 'NONE', #267, 0.1660000000000000642 ) ;
#189 = ORGANIZATION ( 'UNSPECIFIED', 'UNSPECIFIED', '' ) ;
#190 = DIRECTION ( 'NONE',  ( 1.000000000000000000, -6.982962677686266711E-15, 4.876181294017527852E-29 ) ) ;
#191 = EDGE_CURVE ( 'NONE', #371, #220, #287, .T. ) ;
#192 = DIRECTION ( 'NONE',  ( -2.445482598105665737E-29, 3.491461588027960395E-15, 1.000000000000000000 ) ) ;
#193 = PERSON_AND_ORGANIZATION ( #14, #189 ) ;
#194 = ORIENTED_EDGE ( 'NONE', *, *, #317, .F. ) ;
#195 = CIRCLE ( 'NONE', #167, 0.1347500000000000087 ) ;
#196 = CARTESIAN_POINT ( 'NONE',  ( 9.673131121137968745E-29, -1.381058383966114063E-14, -3.955520434056433388 ) ) ;
#197 = ADVANCED_FACE ( 'NONE', ( #33 ), #305, .T. ) ;
#198 = EDGE_LOOP ( 'NONE', ( #194, #133, #350 ) ) ;
#199 = AXIS2_PLACEMENT_3D ( 'NONE', #264, #354, #291 ) ;
#200 = CARTESIAN_POINT ( 'NONE',  ( 0.1347500000000000087, -1.086201782334318753E-15, 2.388061258408263251E-19 ) ) ;
#201 = CONICAL_SURFACE ( 'NONE', #12, 0.1660000000000000642, 0.7853981633974456145 ) ;
#202 = CC_DESIGN_DATE_AND_TIME_ASSIGNMENT ( #58, #386, ( #352 ) ) ;
#203 = CARTESIAN_POINT ( 'NONE',  ( -0.1660000000000001474, 1.179500941361767356E-15, -8.165432249823151524E-30 ) ) ;
#204 = EDGE_LOOP ( 'NONE', ( #314, #347 ) ) ;
#205 = DATE_AND_TIME ( #105, #226 ) ;
#206 = ADVANCED_BREP_SHAPE_REPRESENTATION ( '58078', ( #62, #187, #261 ), #31 ) ;
#207 = FACE_OUTER_BOUND ( 'NONE', #325, .T. ) ;
#208 = AXIS2_PLACEMENT_3D ( 'NONE', #46, #164, #246 ) ;
#209 = LINE ( 'NONE', #326, #61 ) ;
#210 = VERTEX_POINT ( 'NONE', #384 ) ;
#211 = ADVANCED_FACE ( 'NONE', ( #35 ), #90, .T. ) ;
#212 = FACE_OUTER_BOUND ( 'NONE', #132, .T. ) ;
#213 = ORIENTED_EDGE ( 'NONE', *, *, #166, .F. ) ;
#214 = CARTESIAN_POINT ( 'NONE',  ( -1.159171804495875411E-15, -0.1660000000000063924, -1.831999999999999185 ) ) ;
#215 = CIRCLE ( 'NONE', #100, 0.1660000000000000087 ) ;
#216 = AXIS2_PLACEMENT_3D ( 'NONE', #373, #221, #126 ) ;
#217 = PRODUCT_RELATED_PRODUCT_CATEGORY ( 'detail', '', ( #18 ) ) ;
#218 = APPLICATION_PROTOCOL_DEFINITION ( 'international standard', 'config_control_design', 1994, #342 ) ;
#219 = CARTESIAN_POINT ( 'NONE',  ( 9.781930392422662950E-29, -1.396584635211184158E-14, -4.000000000000000000 ) ) ;
#220 = VERTEX_POINT ( 'NONE', #214 ) ;
#221 = DIRECTION ( 'NONE',  ( -2.445468806185136597E-29, 3.491481338843145583E-15, 1.000000000000000000 ) ) ;
#222 = ORIENTED_EDGE ( 'NONE', *, *, #329, .T. ) ;
#223 = CLOSED_SHELL ( 'NONE', ( #34, #362, #197, #211, #283 ) ) ;
#224 = PRODUCT_DEFINITION_SHAPE ( 'NONE', 'NONE',  #130 ) ;
#225 = CARTESIAN_POINT ( 'NONE',  ( 4.478876118528077569E-29, -6.394648072091220797E-15, -1.831499999999999906 ) ) ;
#226 = LOCAL_TIME ( 21, 30, 38.00000000000000000, #353 ) ;
#227 = ORIENTED_EDGE ( 'NONE', *, *, #349, .T. ) ;
#228 = ADVANCED_FACE ( 'NONE', ( #207 ), #201, .T. ) ;
#229 = ORIENTED_EDGE ( 'NONE', *, *, #286, .F. ) ;
#230 = FACE_OUTER_BOUND ( 'NONE', #337, .T. ) ;
#231 = CONICAL_SURFACE ( 'NONE', #288, 0.1660000000000002307, 0.7853981633970383847 ) ;
#232 = CC_DESIGN_APPROVAL ( #312, ( #352 ) ) ;
#233 = ADVANCED_FACE ( 'NONE', ( #360 ), #262, .F. ) ;
#234 = ADVANCED_FACE ( 'NONE', ( #69 ), #180, .F. ) ;
#235 = AXIS2_PLACEMENT_3D ( 'NONE', #111, #348, #110 ) ;
#236 = PERSON_AND_ORGANIZATION ( #14, #189 ) ;
#237 = AXIS2_PLACEMENT_3D ( 'NONE', #96, #297, #145 ) ;
#238 = DIRECTION ( 'NONE',  ( -2.445482598105665737E-29, 3.491461588027960395E-15, 1.000000000000000000 ) ) ;
#239 = CARTESIAN_POINT ( 'NONE',  ( 1.179500941361811138E-15, 0.1659999999999936249, -1.832000000000000295 ) ) ;
#240 = CARTESIAN_POINT ( 'NONE',  ( 4.480098852931170371E-29, -6.396393812760643089E-15, -1.832000000000000073 ) ) ;
#241 = DIRECTION ( 'NONE',  ( -2.445482598105665737E-29, 3.491461588027960395E-15, 1.000000000000000000 ) ) ;
#242 = EDGE_CURVE ( 'NONE', #95, #210, #270, .T. ) ;
#243 = DIRECTION ( 'NONE',  ( 2.445468806185136597E-29, -3.491481338843145583E-15, -1.000000000000000000 ) ) ;
#244 = FACE_OUTER_BOUND ( 'NONE', #204, .T. ) ;
#245 = FACE_OUTER_BOUND ( 'NONE', #307, .T. ) ;
#246 = DIRECTION ( 'NONE',  ( -6.982962677686266711E-15, -1.000000000000000000, 3.291383124896702687E-15 ) ) ;
#247 = CONICAL_SURFACE ( 'NONE', #216, 0.1660000000000002307, 0.7853981633970383847 ) ;
#248 = DIRECTION ( 'NONE',  ( -2.445468806185136597E-29, 3.491481338843145583E-15, 1.000000000000000000 ) ) ;
#249 = DIRECTION ( 'NONE',  ( 0.000000000000000000, 0.000000000000000000, 1.000000000000000000 ) ) ;
#250 = DATE_AND_TIME ( #13, #147 ) ;
#251 = APPROVAL ( #186, 'UNSPECIFIED' ) ;
#252 = ORIENTED_EDGE ( 'NONE', *, *, #80, .T. ) ;
#253 = DIRECTION ( 'NONE',  ( -2.445482598105665737E-29, 3.491461588027960395E-15, 1.000000000000000000 ) ) ;
#254 = ORIENTED_EDGE ( 'NONE', *, *, #48, .T. ) ;
#255 = APPROVAL_STATUS ( 'not_yet_approved' ) ;
#256 = AXIS2_PLACEMENT_3D ( 'NONE', #144, #27, #160 ) ;
#257 = APPROVAL_PERSON_ORGANIZATION ( #389, #22, #343 ) ;
#258 = EDGE_CURVE ( 'NONE', #369, #331, #161, .T. ) ;
#259 = DIRECTION ( 'NONE',  ( -2.445468806185136877E-29, 3.491481338843145188E-15, 1.000000000000000000 ) ) ;
#260 = CARTESIAN_POINT ( 'NONE',  ( 0.1660000000000002307, -7.553819876587141765E-15, -1.831499999999999906 ) ) ;
#261 = AXIS2_PLACEMENT_3D ( 'NONE', #303, #249, #365 ) ;
#262 = PLANE ( 'NONE',  #77 ) ;
#263 = ORIENTED_EDGE ( 'NONE', *, *, #258, .F. ) ;
#264 = CARTESIAN_POINT ( 'NONE',  ( 7.642090019328603538E-31, -1.091087918388490390E-16, -0.03125000000000021511 ) ) ;
#265 = CYLINDRICAL_SURFACE ( 'NONE', #313, 0.1660000000000001474 ) ;
#266 = DIRECTION ( 'NONE',  ( -6.982962677686266711E-15, -1.000000000000000000, 3.291383124896702687E-15 ) ) ;
#267 = AXIS2_PLACEMENT_3D ( 'NONE', #368, #248, #98 ) ;
#268 = ORIENTED_EDGE ( 'NONE', *, *, #121, .T. ) ;
#269 = AXIS2_PLACEMENT_3D ( 'NONE', #174, #241, #266 ) ;
#270 = LINE ( 'NONE', #203, #20 ) ;
#271 = CC_DESIGN_PERSON_AND_ORGANIZATION_ASSIGNMENT ( #146, #282, ( #352 ) ) ;
#272 = ORIENTED_EDGE ( 'NONE', *, *, #140, .F. ) ;
#273 = CARTESIAN_POINT ( 'NONE',  ( -1.159171804495823347E-15, -0.1660000000000138032, -3.955520434056432943 ) ) ;
#274 = FACE_OUTER_BOUND ( 'NONE', #275, .T. ) ;
#275 = EDGE_LOOP ( 'NONE', ( #327, #68, #387 ) ) ;
#276 = CARTESIAN_POINT ( 'NONE',  ( 1.179500941361862808E-15, 0.1659999999999861864, -3.955520434056433832 ) ) ;
#277 = CARTESIAN_POINT ( 'NONE',  ( -0.1660000000000002307, -5.215147130729452652E-15, -1.831499999999999906 ) ) ;
#278 = CC_DESIGN_PERSON_AND_ORGANIZATION_ASSIGNMENT ( #162, #131, ( #130 ) ) ;
#279 = CARTESIAN_POINT ( 'NONE',  ( 0.1655000000000004523, -7.552074135917722628E-15, -1.832000000000000073 ) ) ;
#280 = APPROVAL_STATUS ( 'not_yet_approved' ) ;
#281 = DIRECTION ( 'NONE',  ( 1.000000000000000000, -6.982962677686266711E-15, 4.876176775795935793E-29 ) ) ;
#282 = PERSON_AND_ORGANIZATION_ROLE ( 'classification_officer' ) ;
#283 = ADVANCED_FACE ( 'NONE', ( #244 ), #92, .F. ) ;
#284 = DESIGN_CONTEXT ( 'detailed design', #333, 'design' ) ;
#285 = CIRCLE ( 'NONE', #199, 0.1660000000000000642 ) ;
#286 = EDGE_CURVE ( 'NONE', #136, #210, #285, .T. ) ;
#287 = LINE ( 'NONE', #328, #84 ) ;
#288 = AXIS2_PLACEMENT_3D ( 'NONE', #116, #115, #388 ) ;
#289 = EDGE_CURVE ( 'NONE', #220, #16, #139, .T. ) ;
#290 = DIRECTION ( 'NONE',  ( 1.000000000000000000, -6.982962677686265922E-15, 4.876176775795935793E-29 ) ) ;
#291 = DIRECTION ( 'NONE',  ( 1.000000000000000000, -6.982962677686265922E-15, 0.000000000000000000 ) ) ;
#292 = ORIENTED_EDGE ( 'NONE', *, *, #166, .T. ) ;
#293 = DIRECTION ( 'NONE',  ( -2.445482598105666018E-29, 3.491461588027960395E-15, 1.000000000000000000 ) ) ;
#294 = EDGE_CURVE ( 'NONE', #369, #51, #358, .T. ) ;
#295 = CLOSED_SHELL ( 'NONE', ( #228, #82, #173, #234, #323, #159, #170, #233 ) ) ;
#296 = ORIENTED_EDGE ( 'NONE', *, *, #242, .T. ) ;
#297 = DIRECTION ( 'NONE',  ( 2.445482598105665457E-29, -3.491461588027960395E-15, -1.000000000000000000 ) ) ;
#298 = FACE_OUTER_BOUND ( 'NONE', #163, .T. ) ;
#299 = ORIENTED_EDGE ( 'NONE', *, *, #140, .T. ) ;
#300 = COORDINATED_UNIVERSAL_TIME_OFFSET ( 5, 0, .BEHIND. ) ;
#301 = ORIENTED_EDGE ( 'NONE', *, *, #329, .F. ) ;
#302 = COORDINATED_UNIVERSAL_TIME_OFFSET ( 5, 0, .BEHIND. ) ;
#303 = CARTESIAN_POINT ( 'NONE',  ( 0.000000000000000000, 0.000000000000000000, 0.000000000000000000 ) ) ;
#304 = VECTOR ( 'NONE', #293, 39.37007874015748143 ) ;
#305 = CONICAL_SURFACE ( 'NONE', #114, 146.9311341562543873, 1.308996938995746095 ) ;
#306 = DIRECTION ( 'NONE',  ( -6.982962677686266711E-15, -1.000000000000000000, 3.291383124896702687E-15 ) ) ;
#307 = EDGE_LOOP ( 'NONE', ( #125, #137, #179, #213 ) ) ;
#308 = DIRECTION ( 'NONE',  ( 0.7071067811865455743, -7.319954787623248157E-15, -0.7071067811865493491 ) ) ;
#309 = DIRECTION ( 'NONE',  ( 1.000000000000000000, -6.982962677686265133E-15, 0.000000000000000000 ) ) ;
#310 = PERSON_AND_ORGANIZATION ( #14, #189 ) ;
#311 = DIRECTION ( 'NONE',  ( -2.445468806185136597E-29, 3.491481338843145583E-15, 1.000000000000000000 ) ) ;
#312 = APPROVAL ( #255, 'UNSPECIFIED' ) ;
#313 = AXIS2_PLACEMENT_3D ( 'NONE', #364, #321, #281 ) ;
#314 = ORIENTED_EDGE ( 'NONE', *, *, #289, .T. ) ;
#315 = CARTESIAN_POINT ( 'NONE',  ( -0.1660000000000002307, -5.215147130729452652E-15, -1.831499999999999906 ) ) ;
#316 = ORIENTED_EDGE ( 'NONE', *, *, #55, .F. ) ;
#317 = EDGE_CURVE ( 'NONE', #24, #382, #209, .T. ) ;
#318 = VECTOR ( 'NONE', #378, 39.37007874015748143 ) ;
#319 = AXIS2_PLACEMENT_3D ( 'NONE', #154, #79, #75 ) ;
#320 = DIRECTION ( 'NONE',  ( -6.982962677686265133E-15, -1.000000000000000000, 3.510303681827655421E-15 ) ) ;
#321 = DIRECTION ( 'NONE',  ( -2.445468806185136597E-29, 3.491481338843145583E-15, 1.000000000000000000 ) ) ;
#322 = DATE_AND_TIME ( #169, #172 ) ;
#323 = ADVANCED_FACE ( 'NONE', ( #245 ), #247, .T. ) ;
#324 = DIRECTION ( 'NONE',  ( -1.000000000000000000, 6.982962677686265922E-15, 0.000000000000000000 ) ) ;
#325 = EDGE_LOOP ( 'NONE', ( #67, #227, #4, #272 ) ) ;
#326 = CARTESIAN_POINT ( 'NONE',  ( 9.781930835542656790E-29, -1.396584635211184316E-14, -4.000000000000000000 ) ) ;
#327 = ORIENTED_EDGE ( 'NONE', *, *, #9, .F. ) ;
#328 = CARTESIAN_POINT ( 'NONE',  ( -1.159171804495875411E-15, -0.1660000000000063924, -1.831999999999999185 ) ) ;
#329 = EDGE_CURVE ( 'NONE', #103, #123, #195, .T. ) ;
#330 = CARTESIAN_POINT ( 'NONE',  ( 4.480098852931169250E-29, -6.396393812760642300E-15, -1.831999999999999851 ) ) ;
#331 = VERTEX_POINT ( 'NONE', #8 ) ;
#332 = DIRECTION ( 'NONE',  ( -2.445468806185136597E-29, 3.491481338843145583E-15, 1.000000000000000000 ) ) ;
#333 = APPLICATION_CONTEXT ( 'configuration controlled 3d designs of mechanical parts and assemblies' ) ;
#334 = CARTESIAN_POINT ( 'NONE',  ( 0.1660000000000000642, -1.268280596334769674E-15, -0.03125000000000021511 ) ) ;
#335 = PERSON_AND_ORGANIZATION_ROLE ( 'design_owner' ) ;
#336 = ORIENTED_EDGE ( 'NONE', *, *, #294, .F. ) ;
#337 = EDGE_LOOP ( 'NONE', ( #345, #301, #299, #64 ) ) ;
#338 = MECHANICAL_CONTEXT ( 'NONE', #342, 'mechanical' ) ;
#339 = VECTOR ( 'NONE', #10, 39.37007874015748854 ) ;
#340 = LOCAL_TIME ( 21, 30, 38.00000000000000000, #300 ) ;
#341 = CC_DESIGN_DATE_AND_TIME_ASSIGNMENT ( #250, #370, ( #130 ) ) ;
#342 = APPLICATION_CONTEXT ( 'configuration controlled 3d designs of mechanical parts and assemblies' ) ;
#343 = APPROVAL_ROLE ( '' ) ;
#344 = AXIS2_PLACEMENT_3D ( 'NONE', #240, #332, #356 ) ;
#345 = ORIENTED_EDGE ( 'NONE', *, *, #349, .F. ) ;
#346 = CC_DESIGN_APPROVAL ( #251, ( #130 ) ) ;
#347 = ORIENTED_EDGE ( 'NONE', *, *, #71, .T. ) ;
#348 = DIRECTION ( 'NONE',  ( -2.445468806185136597E-29, 3.491481338843145583E-15, 1.000000000000000000 ) ) ;
#349 = EDGE_CURVE ( 'NONE', #123, #136, #99, .T. ) ;
#350 = ORIENTED_EDGE ( 'NONE', *, *, #135, .F. ) ;
#351 = EDGE_LOOP ( 'NONE', ( #15, #292, #268, #102 ) ) ;
#352 = SECURITY_CLASSIFICATION ( '', '', #149 ) ;
#353 = COORDINATED_UNIVERSAL_TIME_OFFSET ( 5, 0, .BEHIND. ) ;
#354 = DIRECTION ( 'NONE',  ( -2.445468806185136597E-29, 3.491481338843145583E-15, 1.000000000000000000 ) ) ;
#355 = COORDINATED_UNIVERSAL_TIME_OFFSET ( 5, 0, .BEHIND. ) ;
#356 = DIRECTION ( 'NONE',  ( 1.000000000000000000, -6.982962677686263555E-15, 0.000000000000000000 ) ) ;
#357 = COORDINATED_UNIVERSAL_TIME_OFFSET ( 5, 0, .BEHIND. ) ;
#358 = LINE ( 'NONE', #260, #107 ) ;
#359 = PRODUCT_DEFINITION_FORMATION_WITH_SPECIFIED_SOURCE ( 'ANY', '', #18, .NOT_KNOWN. ) ;
#360 = FACE_OUTER_BOUND ( 'NONE', #49, .T. ) ;
#361 = ORIENTED_EDGE ( 'NONE', *, *, #258, .T. ) ;
#362 = ADVANCED_FACE ( 'NONE', ( #274 ), #381, .T. ) ;
#363 = DIRECTION ( 'NONE',  ( -1.000000000000000000, 6.982962677686265922E-15, -4.876176775795935793E-29 ) ) ;
#364 = CARTESIAN_POINT ( 'NONE',  ( 0.000000000000000000, 0.000000000000000000, 0.000000000000000000 ) ) ;
#365 = DIRECTION ( 'NONE',  ( 1.000000000000000000, 0.000000000000000000, 0.000000000000000000 ) ) ;
#366 = AXIS2_PLACEMENT_3D ( 'NONE', #63, #5, #122 ) ;
#367 =( NAMED_UNIT ( * ) PLANE_ANGLE_UNIT ( ) SI_UNIT ( $, .RADIAN. ) );
#368 = CARTESIAN_POINT ( 'NONE',  ( 7.642090019328603538E-31, -1.091087918388490390E-16, -0.03125000000000021511 ) ) ;
#369 = VERTEX_POINT ( 'NONE', #279 ) ;
#370 = DATE_TIME_ROLE ( 'creation_date' ) ;
#371 = VERTEX_POINT ( 'NONE', #273 ) ;
#372 = CARTESIAN_POINT ( 'NONE',  ( 0.1660000000000000642, -1.247951459468923681E-15, -0.03125000000000021511 ) ) ;
#373 = CARTESIAN_POINT ( 'NONE',  ( 4.478876118528077569E-29, -6.394648072091220797E-15, -1.831499999999999906 ) ) ;
#374 = EDGE_CURVE ( 'NONE', #371, #382, #153, .T. ) ;
#375 = CC_DESIGN_APPROVAL ( #22, ( #359 ) ) ;
#376 = DIRECTION ( 'NONE',  ( -6.982962677686266711E-15, -1.000000000000000000, 3.291383124896702687E-15 ) ) ;
#377 = EDGE_LOOP ( 'NONE', ( #129, #296, #229, #73 ) ) ;
#378 = DIRECTION ( 'NONE',  ( -0.7071067811862576935, 7.493145998869306553E-15, 0.7071067811868373409 ) ) ;
#379 = DIRECTION ( 'NONE',  ( 1.000000000000000000, -6.982962677686266711E-15, 4.876181294017527852E-29 ) ) ;
#380 = ORIENTED_EDGE ( 'NONE', *, *, #178, .T. ) ;
#381 = CONICAL_SURFACE ( 'NONE', #319, 146.9311341562543873, 1.308996938995746095 ) ;
#382 = VERTEX_POINT ( 'NONE', #276 ) ;
#383 = CC_DESIGN_PERSON_AND_ORGANIZATION_ASSIGNMENT ( #112, #50, ( #359 ) ) ;
#384 = CARTESIAN_POINT ( 'NONE',  ( -0.1660000000000000642, -2.072377490603266804E-15, -0.03125000000000021511 ) ) ;
#385 = VECTOR ( 'NONE', #308, 39.37007874015748854 ) ;
#386 = DATE_TIME_ROLE ( 'classification_date' ) ;
#387 = ORIENTED_EDGE ( 'NONE', *, *, #374, .F. ) ;
#388 = DIRECTION ( 'NONE',  ( 1.000000000000000000, -6.982962677686265133E-15, 0.000000000000000000 ) ) ;
#389 = PERSON_AND_ORGANIZATION ( #14, #189 ) ;
#390 = CARTESIAN_POINT ( 'NONE',  ( 4.480098852931169250E-29, -6.396393812760642300E-15, -1.831999999999999851 ) ) ;
ENDSEC;
END-ISO-10303-21;
