ISO-10303-21;
HEADER;
FILE_DESCRIPTION (( 'STEP AP203' ),
    '1' );
FILE_NAME ('58083.STEP',
    '2024-04-23T01:37:10',
    ( '' ),
    ( '' ),
    'SwSTEP 2.0',
    'SolidWorks 2023',
    '' );
FILE_SCHEMA (( 'CONFIG_CONTROL_DESIGN' ));
ENDSEC;

DATA;
#1 = ORIENTED_EDGE ( 'NONE', *, *, #61, .T. ) ;
#2 = VECTOR ( 'NONE', #228, 39.37007874015748143 ) ;
#3 = AXIS2_PLACEMENT_3D ( 'NONE', #128, #244, #64 ) ;
#4 = VERTEX_POINT ( 'NONE', #194 ) ;
#5 = ORIENTED_EDGE ( 'NONE', *, *, #132, .F. ) ;
#6 = FACE_OUTER_BOUND ( 'NONE', #71, .T. ) ;
#7 = PERSON ( 'UNSPECIFIED', 'UNSPECIFIED', 'UNSPECIFIED', ('UNSPECIFIED'), ('UNSPECIFIED'), ('UNSPECIFIED') ) ;
#8 = LENGTH_MEASURE_WITH_UNIT ( LENGTH_MEASURE( 0.02539999999999999897 ), #193 );
#9 = CIRCLE ( 'NONE', #211, 0.1484499999999999986 ) ;
#10 = ORIENTED_EDGE ( 'NONE', *, *, #15, .T. ) ;
#11 = VECTOR ( 'NONE', #237, 39.37007874015748143 ) ;
#12 = CALENDAR_DATE ( 2024, 22, 4 ) ;
#13 = CARTESIAN_POINT ( 'NONE',  ( 4.547104698220641654E-29, -6.492060401444943851E-15, -1.859399999999999498 ) ) ;
#14 = PERSON_AND_ORGANIZATION_ROLE ( 'creator' ) ;
#15 = EDGE_CURVE ( 'NONE', #305, #4, #200, .T. ) ;
#16 = CARTESIAN_POINT ( 'NONE',  ( 0.1796999999999999986, -1.363947185019071028E-15, -0.03125000000000024286 ) ) ;
#17 = DIRECTION ( 'NONE',  ( -2.445495016740290815E-29, 3.491443803836352754E-15, 1.000000000000000000 ) ) ;
#18 = VECTOR ( 'NONE', #384, 39.37007874015748143 ) ;
#19 =( CONVERSION_BASED_UNIT ( 'INCH', #8 ) LENGTH_UNIT ( ) NAMED_UNIT ( #236 ) );
#20 = VERTEX_POINT ( 'NONE', #279 ) ;
#21 = EDGE_CURVE ( 'NONE', #98, #373, #62, .T. ) ;
#22 = CARTESIAN_POINT ( 'NONE',  ( -0.1797000000000001929, -5.213469364614620154E-15, -1.858899999999999775 ) ) ;
#23 = UNCERTAINTY_MEASURE_WITH_UNIT (LENGTH_MEASURE( 1.000000000000000082E-05 ), #19, 'distance_accuracy_value', 'NONE');
#24 = CARTESIAN_POINT ( 'NONE',  ( 7.642090019328611420E-31, -1.091087918388491499E-16, -0.03125000000000024286 ) ) ;
#25 = PRODUCT_DEFINITION_SHAPE ( 'NONE', 'NONE',  #190 ) ;
#26 = AXIS2_PLACEMENT_3D ( 'NONE', #182, #206, #144 ) ;
#27 = LINE ( 'NONE', #356, #52 ) ;
#28 = DIRECTION ( 'NONE',  ( -2.445468806185136597E-29, 3.491481338843145583E-15, 1.000000000000000000 ) ) ;
#29 = ORIENTED_EDGE ( 'NONE', *, *, #67, .F. ) ;
#30 = ADVANCED_BREP_SHAPE_REPRESENTATION ( '58083', ( #239, #109, #341 ), #306 ) ;
#31 = CARTESIAN_POINT ( 'NONE',  ( 1.039325634933372811E-28, -1.483877575148776097E-14, -4.250000000000000000 ) ) ;
#32 = CONICAL_SURFACE ( 'NONE', #93, 146.9311341562556663, 1.308996938995748316 ) ;
#33 = DIRECTION ( 'NONE',  ( -2.445468806185136597E-29, 3.491481338843145583E-15, 1.000000000000000000 ) ) ;
#34 = ADVANCED_FACE ( 'NONE', ( #76 ), #288, .T. ) ;
#35 = ORIENTED_EDGE ( 'NONE', *, *, #90, .T. ) ;
#36 = ORIENTED_EDGE ( 'NONE', *, *, #342, .F. ) ;
#37 = CARTESIAN_POINT ( 'NONE',  ( 7.642090019328611420E-31, -1.091087918388491499E-16, -0.03125000000000024286 ) ) ;
#38 = ADVANCED_FACE ( 'NONE', ( #44 ), #202, .T. ) ;
#39 = ORIENTED_EDGE ( 'NONE', *, *, #215, .T. ) ;
#40 = ORIENTED_EDGE ( 'NONE', *, *, #67, .T. ) ;
#41 = PERSON_AND_ORGANIZATION ( #7, #133 ) ;
#42 = DIRECTION ( 'NONE',  ( -2.445468806185136597E-29, 3.491481338843145583E-15, 1.000000000000000000 ) ) ;
#43 = PERSON_AND_ORGANIZATION_ROLE ( 'classification_officer' ) ;
#44 = FACE_OUTER_BOUND ( 'NONE', #343, .T. ) ;
#45 = CC_DESIGN_APPROVAL ( #126, ( #335 ) ) ;
#46 = PERSON_AND_ORGANIZATION ( #7, #133 ) ;
#47 = ORIENTED_EDGE ( 'NONE', *, *, #365, .T. ) ;
#48 = APPLICATION_PROTOCOL_DEFINITION ( 'international standard', 'config_control_design', 1994, #226 ) ;
#49 = LINE ( 'NONE', #165, #359 ) ;
#50 = CALENDAR_DATE ( 2024, 22, 4 ) ;
#51 = PLANE ( 'NONE',  #183 ) ;
#52 = VECTOR ( 'NONE', #149, 39.37007874015748143 ) ;
#53 = APPROVAL_ROLE ( '' ) ;
#54 = PLANE ( 'NONE',  #173 ) ;
#55 = PRODUCT ( '58083', '58083', '', ( #220 ) ) ;
#56 = CARTESIAN_POINT ( 'NONE',  ( 2.567716061788221322E-29, -9.326657588620905887E-15, -1.859399999999999942 ) ) ;
#57 = DIRECTION ( 'NONE',  ( -2.445468806185136597E-29, 3.491481338843145583E-15, 1.000000000000000000 ) ) ;
#58 = CIRCLE ( 'NONE', #348, 0.1792000000000003590 ) ;
#59 = FACE_OUTER_BOUND ( 'NONE', #95, .T. ) ;
#60 = DIRECTION ( 'NONE',  ( 1.000000000000000000, -6.982962677686265922E-15, 0.000000000000000000 ) ) ;
#61 = EDGE_CURVE ( 'NONE', #66, #258, #350, .T. ) ;
#62 = CIRCLE ( 'NONE', #87, 0.1796999999999999986 ) ;
#63 = CIRCLE ( 'NONE', #223, 0.1792000000000003590 ) ;
#64 = DIRECTION ( 'NONE',  ( -1.000000000000000000, 6.982962677686265922E-15, 0.000000000000000000 ) ) ;
#65 = ORIENTED_EDGE ( 'NONE', *, *, #365, .F. ) ;
#66 = VERTEX_POINT ( 'NONE', #219 ) ;
#67 = EDGE_CURVE ( 'NONE', #4, #373, #49, .T. ) ;
#68 = PLANE ( 'NONE',  #247 ) ;
#69 = CIRCLE ( 'NONE', #178, 0.1796999999999999986 ) ;
#70 = CC_DESIGN_APPROVAL ( #282, ( #190 ) ) ;
#71 = EDGE_LOOP ( 'NONE', ( #277, #248, #379, #29 ) ) ;
#72 = ORIENTED_EDGE ( 'NONE', *, *, #358, .T. ) ;
#73 = PERSON_AND_ORGANIZATION_ROLE ( 'design_supplier' ) ;
#74 = ORIENTED_EDGE ( 'NONE', *, *, #132, .T. ) ;
#75 = CONICAL_SURFACE ( 'NONE', #3, 0.1796999999999999986, 0.7853981633974445042 ) ;
#76 = FACE_OUTER_BOUND ( 'NONE', #100, .T. ) ;
#77 = DIRECTION ( 'NONE',  ( -6.982962677686265922E-15, -1.000000000000000000, 3.040454083098790380E-15 ) ) ;
#78 = CARTESIAN_POINT ( 'NONE',  ( 1.039335467585897555E-28, -1.483863616630449348E-14, -4.250000000000000000 ) ) ;
#79 = CARTESIAN_POINT ( 'NONE',  ( 0.000000000000000000, 0.000000000000000000, 0.000000000000000000 ) ) ;
#80 = AXIS2_PLACEMENT_3D ( 'NONE', #372, #42, #262 ) ;
#81 = AXIS2_PLACEMENT_3D ( 'NONE', #142, #170, #286 ) ;
#82 = DATE_AND_TIME ( #323, #212 ) ;
#83 = DIRECTION ( 'NONE',  ( -6.982962677686265922E-15, -1.000000000000000000, 3.040454083098790380E-15 ) ) ;
#84 = DIRECTION ( 'NONE',  ( -1.000000000000000000, 6.982962677686265922E-15, 0.000000000000000000 ) ) ;
#85 = EDGE_CURVE ( 'NONE', #258, #263, #69, .T. ) ;
#86 = FACE_OUTER_BOUND ( 'NONE', #294, .T. ) ;
#87 = AXIS2_PLACEMENT_3D ( 'NONE', #143, #284, #169 ) ;
#88 = PERSON_AND_ORGANIZATION ( #7, #133 ) ;
#89 = DIRECTION ( 'NONE',  ( 2.445468806185136597E-29, -3.491481338843145583E-15, -1.000000000000000000 ) ) ;
#90 = EDGE_CURVE ( 'NONE', #339, #98, #317, .T. ) ;
#91 = CARTESIAN_POINT ( 'NONE',  ( 4.547104698220642215E-29, -6.492060401444944640E-15, -1.859399999999999942 ) ) ;
#92 = ORIENTED_EDGE ( 'NONE', *, *, #318, .T. ) ;
#93 = AXIS2_PLACEMENT_3D ( 'NONE', #118, #240, #361 ) ;
#94 = DIRECTION ( 'NONE',  ( -2.445468806185136597E-29, 3.491481338843145583E-15, 1.000000000000000000 ) ) ;
#95 = EDGE_LOOP ( 'NONE', ( #198, #1, #366, #127 ) ) ;
#96 = ORIENTED_EDGE ( 'NONE', *, *, #61, .F. ) ;
#97 = DIRECTION ( 'NONE',  ( 1.000000000000000000, -6.982962677686265922E-15, 0.000000000000000000 ) ) ;
#98 = VERTEX_POINT ( 'NONE', #16 ) ;
#99 = APPROVAL_PERSON_ORGANIZATION ( #278, #115, #137 ) ;
#100 = EDGE_LOOP ( 'NONE', ( #72, #303, #231, #353 ) ) ;
#101 = DIRECTION ( 'NONE',  ( 1.000000000000000000, 0.000000000000000000, 0.000000000000000000 ) ) ;
#102 = ADVANCED_FACE ( 'NONE', ( #135 ), #259, .T. ) ;
#103 = DIRECTION ( 'NONE',  ( -0.7071067811865447972, 2.468850131082228662E-15, -0.7071067811865501263 ) ) ;
#104 = CARTESIAN_POINT ( 'NONE',  ( 0.000000000000000000, 0.000000000000000000, 0.000000000000000000 ) ) ;
#105 = CARTESIAN_POINT ( 'NONE',  ( 1.276845296160945187E-15, 0.1796999999999935038, -1.859400000000000164 ) ) ;
#106 = CALENDAR_DATE ( 2024, 22, 4 ) ;
#107 = DIRECTION ( 'NONE',  ( -2.445468806185136597E-29, 3.491481338843145583E-15, 1.000000000000000000 ) ) ;
#108 = COORDINATED_UNIVERSAL_TIME_OFFSET ( 5, 0, .BEHIND. ) ;
#109 = MANIFOLD_SOLID_BREP ( 'Body-Move/Copy2[2]', #334 ) ;
#110 = DIRECTION ( 'NONE',  ( -2.445468806185136597E-29, 3.491481338843145583E-15, 1.000000000000000000 ) ) ;
#111 = DATE_AND_TIME ( #12, #166 ) ;
#112 = EDGE_LOOP ( 'NONE', ( #273, #187 ) ) ;
#113 = CARTESIAN_POINT ( 'NONE',  ( 1.276845296161002971E-15, 0.1796999999999935038, -1.859400000000000164 ) ) ;
#114 = CC_DESIGN_APPROVAL ( #115, ( #217 ) ) ;
#115 = APPROVAL ( #197, 'UNSPECIFIED' ) ;
#116 = CARTESIAN_POINT ( 'NONE',  ( 0.1484499999999999986, -1.180190604903788595E-15, 8.572527594806786642E-20 ) ) ;
#117 = CARTESIAN_POINT ( 'NONE',  ( -0.1797000000000001929, -5.213469364614620154E-15, -1.858899999999999775 ) ) ;
#118 = CARTESIAN_POINT ( 'NONE',  ( -8.588602628248801926E-28, 1.226197115149760168E-13, 35.12007874015748143 ) ) ;
#119 = VECTOR ( 'NONE', #199, 39.37007874015748854 ) ;
#120 = CC_DESIGN_DATE_AND_TIME_ASSIGNMENT ( #111, #327, ( #335 ) ) ;
#121 = LINE ( 'NONE', #117, #11 ) ;
#122 = ORIENTED_EDGE ( 'NONE', *, *, #215, .F. ) ;
#123 = CARTESIAN_POINT ( 'NONE',  ( 4.545881963817549414E-29, -6.490314660775522348E-15, -1.858899999999999775 ) ) ;
#124 = VERTEX_POINT ( 'NONE', #377 ) ;
#125 = CIRCLE ( 'NONE', #207, 0.1797000000000001929 ) ;
#126 = APPROVAL ( #234, 'UNSPECIFIED' ) ;
#127 = ORIENTED_EDGE ( 'NONE', *, *, #243, .F. ) ;
#128 = CARTESIAN_POINT ( 'NONE',  ( 7.642090019328611420E-31, -1.091087918388491499E-16, -0.03125000000000024286 ) ) ;
#129 = EDGE_LOOP ( 'NONE', ( #5, #131, #122 ) ) ;
#130 = DIRECTION ( 'NONE',  ( 1.000000000000000000, -6.982962677686265922E-15, 0.000000000000000000 ) ) ;
#131 = ORIENTED_EDGE ( 'NONE', *, *, #274, .T. ) ;
#132 = EDGE_CURVE ( 'NONE', #168, #66, #352, .T. ) ;
#133 = ORGANIZATION ( 'UNSPECIFIED', 'UNSPECIFIED', '' ) ;
#134 = DATE_AND_TIME ( #346, #184 ) ;
#135 = FACE_OUTER_BOUND ( 'NONE', #159, .T. ) ;
#136 = ORIENTED_EDGE ( 'NONE', *, *, #85, .F. ) ;
#137 = APPROVAL_ROLE ( '' ) ;
#138 = PRODUCT_RELATED_PRODUCT_CATEGORY ( 'detail', '', ( #55 ) ) ;
#139 = CARTESIAN_POINT ( 'NONE',  ( -2.096384882136583174E-48, 2.993082012127959938E-34, 8.572527594031696135E-20 ) ) ;
#140 = APPROVAL_STATUS ( 'not_yet_approved' ) ;
#141 = CARTESIAN_POINT ( 'NONE',  ( 4.547104698220641654E-29, -6.492060401444943851E-15, -1.859399999999999498 ) ) ;
#142 = CARTESIAN_POINT ( 'NONE',  ( 4.545881963817549414E-29, -6.490314660775522348E-15, -1.858899999999999775 ) ) ;
#143 = CARTESIAN_POINT ( 'NONE',  ( 7.642090019328611420E-31, -1.091087918388491499E-16, -0.03125000000000024286 ) ) ;
#144 = DIRECTION ( 'NONE',  ( -6.982962677686265133E-15, -1.000000000000000000, 3.510303681827624656E-15 ) ) ;
#145 = ADVANCED_FACE ( 'NONE', ( #321 ), #51, .F. ) ;
#146 = DIRECTION ( 'NONE',  ( -2.445468806185136597E-29, 3.491481338843145583E-15, 1.000000000000000000 ) ) ;
#147 = VECTOR ( 'NONE', #367, 39.37007874015748143 ) ;
#148 = CONICAL_SURFACE ( 'NONE', #26, 146.9311341562556663, 1.308996938995748316 ) ;
#149 = DIRECTION ( 'NONE',  ( -2.445468806185136877E-29, 3.491481338843145188E-15, 1.000000000000000000 ) ) ;
#150 = LINE ( 'NONE', #266, #201 ) ;
#151 = DESIGN_CONTEXT ( 'detailed design', #267, 'design' ) ;
#152 = CARTESIAN_POINT ( 'NONE',  ( 4.547104698220642215E-29, -6.492060401444944640E-15, -1.859399999999999942 ) ) ;
#153 = CLOSED_SHELL ( 'NONE', ( #326, #222, #300, #102, #354 ) ) ;
#154 = AXIS2_PLACEMENT_3D ( 'NONE', #24, #89, #84 ) ;
#155 = CARTESIAN_POINT ( 'NONE',  ( 4.545881963817549414E-29, -6.490314660775522348E-15, -1.858899999999999775 ) ) ;
#156 = FACE_OUTER_BOUND ( 'NONE', #112, .T. ) ;
#157 = ORIENTED_EDGE ( 'NONE', *, *, #249, .F. ) ;
#158 = CC_DESIGN_PERSON_AND_ORGANIZATION_ASSIGNMENT ( #192, #164, ( #217 ) ) ;
#159 = EDGE_LOOP ( 'NONE', ( #96, #39, #246, #136 ) ) ;
#160 = AXIS2_PLACEMENT_3D ( 'NONE', #264, #269, #60 ) ;
#161 = ORIENTED_EDGE ( 'NONE', *, *, #176, .F. ) ;
#162 = DIRECTION ( 'NONE',  ( 6.982962677686265922E-15, 1.000000000000000000, -3.491443803836352754E-15 ) ) ;
#163 = ORIENTED_EDGE ( 'NONE', *, *, #295, .F. ) ;
#164 = PERSON_AND_ORGANIZATION_ROLE ( 'creator' ) ;
#165 = CARTESIAN_POINT ( 'NONE',  ( -0.1796999999999999986, 1.145729601341373024E-15, -0.03125000000000024286 ) ) ;
#166 = LOCAL_TIME ( 21, 37, 10.00000000000000000, #167 ) ;
#167 = COORDINATED_UNIVERSAL_TIME_OFFSET ( 5, 0, .BEHIND. ) ;
#168 = VERTEX_POINT ( 'NONE', #292 ) ;
#169 = DIRECTION ( 'NONE',  ( 1.000000000000000000, -6.982962677686265922E-15, 0.000000000000000000 ) ) ;
#170 = DIRECTION ( 'NONE',  ( -2.445468806185136597E-29, 3.491481338843145583E-15, 1.000000000000000000 ) ) ;
#171 = ORIENTED_EDGE ( 'NONE', *, *, #342, .T. ) ;
#172 = DATE_AND_TIME ( #50, #387 ) ;
#173 = AXIS2_PLACEMENT_3D ( 'NONE', #56, #177, #293 ) ;
#174 = CARTESIAN_POINT ( 'NONE',  ( -1.048192441068291587E-48, 1.496541006063979969E-34, 4.286263797015848068E-20 ) ) ;
#175 = DIRECTION ( 'NONE',  ( -2.445495016740291095E-29, 3.491443803836352359E-15, 1.000000000000000000 ) ) ;
#176 = EDGE_CURVE ( 'NONE', #4, #305, #9, .T. ) ;
#177 = DIRECTION ( 'NONE',  ( -2.438088387897960049E-29, 3.491481338843145188E-15, 1.000000000000000000 ) ) ;
#178 = AXIS2_PLACEMENT_3D ( 'NONE', #13, #347, #195 ) ;
#179 = DIRECTION ( 'NONE',  ( 1.000000000000000000, -6.982962677686266711E-15, 0.000000000000000000 ) ) ;
#180 = AXIS2_PLACEMENT_3D ( 'NONE', #37, #33, #97 ) ;
#181 = CARTESIAN_POINT ( 'NONE',  ( -2.096384882136583174E-48, 2.993082012127959938E-34, 8.572527594031696135E-20 ) ) ;
#182 = CARTESIAN_POINT ( 'NONE',  ( -8.588602628248801926E-28, 1.226197115149760168E-13, 35.12007874015748143 ) ) ;
#183 = AXIS2_PLACEMENT_3D ( 'NONE', #174, #268, #325 ) ;
#184 = LOCAL_TIME ( 21, 37, 10.00000000000000000, #376 ) ;
#185 = ORIENTED_EDGE ( 'NONE', *, *, #385, .F. ) ;
#186 = CC_DESIGN_PERSON_AND_ORGANIZATION_ASSIGNMENT ( #46, #370, ( #55 ) ) ;
#187 = ORIENTED_EDGE ( 'NONE', *, *, #85, .T. ) ;
#188 = AXIS2_PLACEMENT_3D ( 'NONE', #297, #175, #235 ) ;
#189 = DIRECTION ( 'NONE',  ( -6.982962677686265922E-15, -1.000000000000000000, 3.040454083098790380E-15 ) ) ;
#190 = PRODUCT_DEFINITION ( 'UNKNOWN', '', #217, #151 ) ;
#191 = ORIENTED_EDGE ( 'NONE', *, *, #295, .T. ) ;
#192 = PERSON_AND_ORGANIZATION ( #7, #133 ) ;
#193 =( LENGTH_UNIT ( ) NAMED_UNIT ( * ) SI_UNIT ( $, .METRE. ) );
#194 = CARTESIAN_POINT ( 'NONE',  ( -0.1484499999999999986, 1.091175205421949460E-15, 8.572527593287684120E-20 ) ) ;
#195 = DIRECTION ( 'NONE',  ( -6.982962677686265922E-15, -1.000000000000000000, 3.040454083098790380E-15 ) ) ;
#196 = CC_DESIGN_PERSON_AND_ORGANIZATION_ASSIGNMENT ( #41, #14, ( #190 ) ) ;
#197 = APPROVAL_STATUS ( 'not_yet_approved' ) ;
#198 = ORIENTED_EDGE ( 'NONE', *, *, #385, .T. ) ;
#199 = DIRECTION ( 'NONE',  ( 6.863315791527694259E-15, 0.9659258262890694224, 0.2588190451025162986 ) ) ;
#200 = CIRCLE ( 'NONE', #313, 0.1484499999999999986 ) ;
#201 = VECTOR ( 'NONE', #324, 39.37007874015748143 ) ;
#202 = CYLINDRICAL_SURFACE ( 'NONE', #80, 0.1797000000000001096 ) ;
#203 = DIRECTION ( 'NONE',  ( 1.000000000000000000, -6.982962677686265133E-15, 4.876180875728685732E-29 ) ) ;
#204 = LINE ( 'NONE', #31, #18 ) ;
#205 = CC_DESIGN_PERSON_AND_ORGANIZATION_ASSIGNMENT ( #349, #43, ( #335 ) ) ;
#206 = DIRECTION ( 'NONE',  ( -2.445495016740291095E-29, 3.491443803836352359E-15, 1.000000000000000000 ) ) ;
#207 = AXIS2_PLACEMENT_3D ( 'NONE', #155, #302, #209 ) ;
#208 = LINE ( 'NONE', #296, #315 ) ;
#209 = DIRECTION ( 'NONE',  ( 1.000000000000000000, -6.982962677686265922E-15, 0.000000000000000000 ) ) ;
#210 = ORIENTED_EDGE ( 'NONE', *, *, #229, .F. ) ;
#211 = AXIS2_PLACEMENT_3D ( 'NONE', #181, #57, #203 ) ;
#212 = LOCAL_TIME ( 21, 37, 10.00000000000000000, #378 ) ;
#213 = CARTESIAN_POINT ( 'NONE',  ( 1.027555335109505042E-28, -1.467059129918223817E-14, -4.201849530120127518 ) ) ;
#214 = EDGE_LOOP ( 'NONE', ( #272, #74, #185 ) ) ;
#215 = EDGE_CURVE ( 'NONE', #66, #20, #280, .T. ) ;
#216 = EDGE_LOOP ( 'NONE', ( #92, #191, #345, #36 ) ) ;
#217 = PRODUCT_DEFINITION_FORMATION_WITH_SPECIFIED_SOURCE ( 'ANY', '', #55, .NOT_KNOWN. ) ;
#218 = COORDINATED_UNIVERSAL_TIME_OFFSET ( 5, 0, .BEHIND. ) ;
#219 = CARTESIAN_POINT ( 'NONE',  ( 1.276845296161002182E-15, 0.1796999999999852327, -4.201849530120127518 ) ) ;
#220 = MECHANICAL_CONTEXT ( 'NONE', #226, 'mechanical' ) ;
#221 = ORIENTED_EDGE ( 'NONE', *, *, #238, .F. ) ;
#222 = ADVANCED_FACE ( 'NONE', ( #386 ), #32, .T. ) ;
#223 = AXIS2_PLACEMENT_3D ( 'NONE', #91, #28, #179 ) ;
#224 = APPROVAL_DATE_TIME ( #134, #282 ) ;
#225 = DIRECTION ( 'NONE',  ( 1.000000000000000000, -6.982962677686265133E-15, 4.876180875728685732E-29 ) ) ;
#226 = APPLICATION_CONTEXT ( 'configuration controlled 3d designs of mechanical parts and assemblies' ) ;
#227 = DATE_AND_TIME ( #106, #281 ) ;
#228 = DIRECTION ( 'NONE',  ( -2.445468806185136877E-29, 3.491481338843145188E-15, 1.000000000000000000 ) ) ;
#229 = EDGE_CURVE ( 'NONE', #245, #339, #260, .T. ) ;
#230 = APPROVAL_DATE_TIME ( #82, #126 ) ;
#231 = ORIENTED_EDGE ( 'NONE', *, *, #21, .F. ) ;
#232 = CIRCLE ( 'NONE', #314, 0.1796999999999999986 ) ;
#233 = CARTESIAN_POINT ( 'NONE',  ( 4.547104698220641654E-29, -6.492060401444943851E-15, -1.859399999999999498 ) ) ;
#234 = APPROVAL_STATUS ( 'not_yet_approved' ) ;
#235 = DIRECTION ( 'NONE',  ( -6.982962677686265922E-15, -1.000000000000000000, 3.040454083098790380E-15 ) ) ;
#236 = DIMENSIONAL_EXPONENTS ( 1.000000000000000000, 0.000000000000000000, 0.000000000000000000, 0.000000000000000000, 0.000000000000000000, 0.000000000000000000, 0.000000000000000000 ) ;
#237 = DIRECTION ( 'NONE',  ( -0.7071067811863059882, 7.493145998869481680E-15, 0.7071067811867890462 ) ) ;
#238 = EDGE_CURVE ( 'NONE', #363, #124, #63, .T. ) ;
#239 = MANIFOLD_SOLID_BREP ( 'Body-Move/Copy2[1]', #153 ) ;
#240 = DIRECTION ( 'NONE',  ( -2.445495016740291095E-29, 3.491443803836352359E-15, 1.000000000000000000 ) ) ;
#241 = AXIS2_PLACEMENT_3D ( 'NONE', #213, #336, #189 ) ;
#242 = DIRECTION ( 'NONE',  ( 1.000000000000000000, -6.982962677686266711E-15, 0.000000000000000000 ) ) ;
#243 = EDGE_CURVE ( 'NONE', #20, #263, #150, .T. ) ;
#244 = DIRECTION ( 'NONE',  ( 2.445468806185136597E-29, -3.491481338843145583E-15, -1.000000000000000000 ) ) ;
#245 = VERTEX_POINT ( 'NONE', #22 ) ;
#246 = ORIENTED_EDGE ( 'NONE', *, *, #243, .T. ) ;
#247 = AXIS2_PLACEMENT_3D ( 'NONE', #390, #276, #162 ) ;
#248 = ORIENTED_EDGE ( 'NONE', *, *, #270, .T. ) ;
#249 = EDGE_CURVE ( 'NONE', #245, #373, #27, .T. ) ;
#250 = FACE_OUTER_BOUND ( 'NONE', #216, .T. ) ;
#251 = ORIENTED_EDGE ( 'NONE', *, *, #238, .T. ) ;
#252 = VECTOR ( 'NONE', #17, 39.37007874015748143 ) ;
#253 = CONICAL_SURFACE ( 'NONE', #154, 0.1796999999999999986, 0.7853981633974445042 ) ;
#254 = PERSON_AND_ORGANIZATION ( #7, #133 ) ;
#255 = DIRECTION ( 'NONE',  ( -2.445495016740291095E-29, 3.491443803836352359E-15, 1.000000000000000000 ) ) ;
#256 =( NAMED_UNIT ( * ) PLANE_ANGLE_UNIT ( ) SI_UNIT ( $, .RADIAN. ) );
#257 = ADVANCED_FACE ( 'NONE', ( #86 ), #253, .T. ) ;
#258 = VERTEX_POINT ( 'NONE', #113 ) ;
#259 = CYLINDRICAL_SURFACE ( 'NONE', #301, 0.1796999999999999986 ) ;
#260 = CIRCLE ( 'NONE', #160, 0.1797000000000001929 ) ;
#261 =( NAMED_UNIT ( * ) SI_UNIT ( $, .STERADIAN. ) SOLID_ANGLE_UNIT ( ) );
#262 = DIRECTION ( 'NONE',  ( 1.000000000000000000, -6.982962677686265922E-15, 4.876176775795935232E-29 ) ) ;
#263 = VERTEX_POINT ( 'NONE', #328 ) ;
#264 = CARTESIAN_POINT ( 'NONE',  ( 4.545881963817549414E-29, -6.490314660775522348E-15, -1.858899999999999775 ) ) ;
#265 = CARTESIAN_POINT ( 'NONE',  ( 0.1797000000000001929, -7.745153053955744867E-15, -1.858899999999999775 ) ) ;
#266 = CARTESIAN_POINT ( 'NONE',  ( -1.254838393180176568E-15, -0.1797000000000064934, -1.859399999999999054 ) ) ;
#267 = APPLICATION_CONTEXT ( 'configuration controlled 3d designs of mechanical parts and assemblies' ) ;
#268 = DIRECTION ( 'NONE',  ( 2.438088387897960049E-29, -3.491481338843145188E-15, -1.000000000000000000 ) ) ;
#269 = DIRECTION ( 'NONE',  ( -2.445468806185136597E-29, 3.491481338843145583E-15, 1.000000000000000000 ) ) ;
#270 = EDGE_CURVE ( 'NONE', #305, #98, #208, .T. ) ;
#271 = CARTESIAN_POINT ( 'NONE',  ( -0.1792000000000003590, -5.216118591788731355E-15, -1.859399999999999942 ) ) ;
#272 = ORIENTED_EDGE ( 'NONE', *, *, #274, .F. ) ;
#273 = ORIENTED_EDGE ( 'NONE', *, *, #310, .T. ) ;
#274 = EDGE_CURVE ( 'NONE', #168, #20, #204, .T. ) ;
#275 = AXIS2_PLACEMENT_3D ( 'NONE', #381, #355, #83 ) ;
#276 = DIRECTION ( 'NONE',  ( 2.445495016740290254E-29, -3.491443803836352754E-15, -1.000000000000000000 ) ) ;
#277 = ORIENTED_EDGE ( 'NONE', *, *, #15, .F. ) ;
#278 = PERSON_AND_ORGANIZATION ( #7, #133 ) ;
#279 = CARTESIAN_POINT ( 'NONE',  ( -1.254838393180118981E-15, -0.1797000000000146258, -4.201849530120126630 ) ) ;
#280 = CIRCLE ( 'NONE', #188, 0.1796999999999999986 ) ;
#281 = LOCAL_TIME ( 21, 37, 10.00000000000000000, #108 ) ;
#282 = APPROVAL ( #140, 'UNSPECIFIED' ) ;
#283 = DIRECTION ( 'NONE',  ( 0.000000000000000000, 0.000000000000000000, 1.000000000000000000 ) ) ;
#284 = DIRECTION ( 'NONE',  ( -2.445468806185136597E-29, 3.491481338843145583E-15, 1.000000000000000000 ) ) ;
#285 = CARTESIAN_POINT ( 'NONE',  ( 0.1797000000000001096, -1.254838393180222716E-15, 8.762489666105301250E-30 ) ) ;
#286 = DIRECTION ( 'NONE',  ( 1.000000000000000000, -6.982962677686265922E-15, 0.000000000000000000 ) ) ;
#287 = CC_DESIGN_DATE_AND_TIME_ASSIGNMENT ( #172, #309, ( #190 ) ) ;
#288 = CYLINDRICAL_SURFACE ( 'NONE', #304, 0.1797000000000001096 ) ;
#289 = CONICAL_SURFACE ( 'NONE', #81, 0.1797000000000001929, 0.7853981633971067744 ) ;
#290 = SECURITY_CLASSIFICATION_LEVEL ( 'unclassified' ) ;
#291 = EDGE_LOOP ( 'NONE', ( #319, #10 ) ) ;
#292 = CARTESIAN_POINT ( 'NONE',  ( 1.039335382114623701E-28, -1.483863616630449348E-14, -4.250000000000000000 ) ) ;
#293 = DIRECTION ( 'NONE',  ( 1.000000000000000000, -6.982962677686265922E-15, 4.876176775795935793E-29 ) ) ;
#294 = EDGE_LOOP ( 'NONE', ( #340, #161, #40, #47 ) ) ;
#295 = EDGE_CURVE ( 'NONE', #363, #245, #121, .T. ) ;
#296 = CARTESIAN_POINT ( 'NONE',  ( 0.1796999999999999986, -1.341940282038393326E-15, -0.03125000000000024286 ) ) ;
#297 = CARTESIAN_POINT ( 'NONE',  ( 1.027555335109505042E-28, -1.467059129918223817E-14, -4.201849530120127518 ) ) ;
#298 = SHAPE_DEFINITION_REPRESENTATION ( #25, #30 ) ;
#299 = DIRECTION ( 'NONE',  ( -6.982962677686265922E-15, -1.000000000000000000, 3.040454083098790380E-15 ) ) ;
#300 = ADVANCED_FACE ( 'NONE', ( #357 ), #148, .T. ) ;
#301 = AXIS2_PLACEMENT_3D ( 'NONE', #141, #255, #77 ) ;
#302 = DIRECTION ( 'NONE',  ( -2.445468806185136597E-29, 3.491481338843145583E-15, 1.000000000000000000 ) ) ;
#303 = ORIENTED_EDGE ( 'NONE', *, *, #249, .T. ) ;
#304 = AXIS2_PLACEMENT_3D ( 'NONE', #79, #110, #312 ) ;
#305 = VERTEX_POINT ( 'NONE', #116 ) ;
#306 =( GEOMETRIC_REPRESENTATION_CONTEXT ( 3 ) GLOBAL_UNCERTAINTY_ASSIGNED_CONTEXT ( ( #23 ) ) GLOBAL_UNIT_ASSIGNED_CONTEXT ( ( #19, #256, #261 ) ) REPRESENTATION_CONTEXT ( 'NONE', 'WORKASPACE' ) );
#307 = CC_DESIGN_SECURITY_CLASSIFICATION ( #335, ( #217 ) ) ;
#308 = ORIENTED_EDGE ( 'NONE', *, *, #318, .F. ) ;
#309 = DATE_TIME_ROLE ( 'creation_date' ) ;
#310 = EDGE_CURVE ( 'NONE', #263, #258, #232, .T. ) ;
#311 = APPROVAL_ROLE ( '' ) ;
#312 = DIRECTION ( 'NONE',  ( 1.000000000000000000, -6.982962677686265922E-15, 4.876176775795935232E-29 ) ) ;
#313 = AXIS2_PLACEMENT_3D ( 'NONE', #139, #107, #225 ) ;
#314 = AXIS2_PLACEMENT_3D ( 'NONE', #233, #331, #299 ) ;
#315 = VECTOR ( 'NONE', #333, 39.37007874015748854 ) ;
#316 = FACE_OUTER_BOUND ( 'NONE', #329, .T. ) ;
#317 = LINE ( 'NONE', #285, #2 ) ;
#318 = EDGE_CURVE ( 'NONE', #124, #363, #58, .T. ) ;
#319 = ORIENTED_EDGE ( 'NONE', *, *, #176, .T. ) ;
#320 = APPLICATION_PROTOCOL_DEFINITION ( 'international standard', 'config_control_design', 1994, #267 ) ;
#321 = FACE_OUTER_BOUND ( 'NONE', #291, .T. ) ;
#322 = CONICAL_SURFACE ( 'NONE', #330, 0.1797000000000001929, 0.7853981633971067744 ) ;
#323 = CALENDAR_DATE ( 2024, 22, 4 ) ;
#324 = DIRECTION ( 'NONE',  ( -2.445495016740290815E-29, 3.491443803836352754E-15, 1.000000000000000000 ) ) ;
#325 = DIRECTION ( 'NONE',  ( -1.000000000000000000, 6.982962677686265922E-15, -4.876176775795935793E-29 ) ) ;
#326 = ADVANCED_FACE ( 'NONE', ( #59 ), #388, .T. ) ;
#327 = DATE_TIME_ROLE ( 'classification_date' ) ;
#328 = CARTESIAN_POINT ( 'NONE',  ( -1.254838393180176568E-15, -0.1797000000000064934, -1.859399999999999054 ) ) ;
#329 = EDGE_LOOP ( 'NONE', ( #163, #251, #171, #210 ) ) ;
#330 = AXIS2_PLACEMENT_3D ( 'NONE', #123, #94, #130 ) ;
#331 = DIRECTION ( 'NONE',  ( -2.445495016740291095E-29, 3.491443803836352359E-15, 1.000000000000000000 ) ) ;
#332 = ADVANCED_FACE ( 'NONE', ( #362 ), #54, .F. ) ;
#333 = DIRECTION ( 'NONE',  ( 0.7071067811865447972, -7.319954787623245001E-15, -0.7071067811865501263 ) ) ;
#334 = CLOSED_SHELL ( 'NONE', ( #374, #34, #380, #332, #389, #38, #257, #145 ) ) ;
#335 = SECURITY_CLASSIFICATION ( '', '', #290 ) ;
#336 = DIRECTION ( 'NONE',  ( -2.445495016740291095E-29, 3.491443803836352359E-15, 1.000000000000000000 ) ) ;
#337 = CC_DESIGN_PERSON_AND_ORGANIZATION_ASSIGNMENT ( #344, #73, ( #217 ) ) ;
#338 = CARTESIAN_POINT ( 'NONE',  ( 0.1797000000000001929, -7.745153053955744867E-15, -1.858899999999999775 ) ) ;
#339 = VERTEX_POINT ( 'NONE', #265 ) ;
#340 = ORIENTED_EDGE ( 'NONE', *, *, #270, .F. ) ;
#341 = AXIS2_PLACEMENT_3D ( 'NONE', #104, #283, #101 ) ;
#342 = EDGE_CURVE ( 'NONE', #124, #339, #383, .T. ) ;
#343 = EDGE_LOOP ( 'NONE', ( #157, #368, #35, #65 ) ) ;
#344 = PERSON_AND_ORGANIZATION ( #7, #133 ) ;
#345 = ORIENTED_EDGE ( 'NONE', *, *, #358, .F. ) ;
#346 = CALENDAR_DATE ( 2024, 22, 4 ) ;
#347 = DIRECTION ( 'NONE',  ( -2.445495016740291095E-29, 3.491443803836352359E-15, 1.000000000000000000 ) ) ;
#348 = AXIS2_PLACEMENT_3D ( 'NONE', #152, #146, #242 ) ;
#349 = PERSON_AND_ORGANIZATION ( #7, #133 ) ;
#350 = LINE ( 'NONE', #105, #252 ) ;
#351 = APPROVAL_DATE_TIME ( #227, #115 ) ;
#352 = LINE ( 'NONE', #78, #119 ) ;
#353 = ORIENTED_EDGE ( 'NONE', *, *, #90, .F. ) ;
#354 = ADVANCED_FACE ( 'NONE', ( #156 ), #68, .F. ) ;
#355 = DIRECTION ( 'NONE',  ( -2.445495016740291095E-29, 3.491443803836352359E-15, 1.000000000000000000 ) ) ;
#356 = CARTESIAN_POINT ( 'NONE',  ( -0.1797000000000001096, 1.276845296160900813E-15, -8.839326357188071190E-30 ) ) ;
#357 = FACE_OUTER_BOUND ( 'NONE', #129, .T. ) ;
#358 = EDGE_CURVE ( 'NONE', #339, #245, #125, .T. ) ;
#359 = VECTOR ( 'NONE', #103, 39.37007874015748854 ) ;
#360 = APPROVAL_PERSON_ORGANIZATION ( #254, #282, #311 ) ;
#361 = DIRECTION ( 'NONE',  ( -6.982962677686265133E-15, -1.000000000000000000, 3.510303681827624656E-15 ) ) ;
#362 = FACE_OUTER_BOUND ( 'NONE', #371, .T. ) ;
#363 = VERTEX_POINT ( 'NONE', #271 ) ;
#364 = CARTESIAN_POINT ( 'NONE',  ( -0.1796999999999999986, -2.022866430146284319E-15, -0.03125000000000024286 ) ) ;
#365 = EDGE_CURVE ( 'NONE', #373, #98, #369, .T. ) ;
#366 = ORIENTED_EDGE ( 'NONE', *, *, #310, .F. ) ;
#367 = DIRECTION ( 'NONE',  ( 0.7071067811863059882, -2.468850131079726789E-15, 0.7071067811867890462 ) ) ;
#368 = ORIENTED_EDGE ( 'NONE', *, *, #229, .T. ) ;
#369 = CIRCLE ( 'NONE', #180, 0.1796999999999999986 ) ;
#370 = PERSON_AND_ORGANIZATION_ROLE ( 'design_owner' ) ;
#371 = EDGE_LOOP ( 'NONE', ( #308, #221 ) ) ;
#372 = CARTESIAN_POINT ( 'NONE',  ( 0.000000000000000000, 0.000000000000000000, 0.000000000000000000 ) ) ;
#373 = VERTEX_POINT ( 'NONE', #364 ) ;
#374 = ADVANCED_FACE ( 'NONE', ( #6 ), #75, .T. ) ;
#375 = CIRCLE ( 'NONE', #241, 0.1796999999999999986 ) ;
#376 = COORDINATED_UNIVERSAL_TIME_OFFSET ( 5, 0, .BEHIND. ) ;
#377 = CARTESIAN_POINT ( 'NONE',  ( 0.1792000000000003590, -7.743407313286325730E-15, -1.859399999999999942 ) ) ;
#378 = COORDINATED_UNIVERSAL_TIME_OFFSET ( 5, 0, .BEHIND. ) ;
#379 = ORIENTED_EDGE ( 'NONE', *, *, #21, .T. ) ;
#380 = ADVANCED_FACE ( 'NONE', ( #250 ), #322, .T. ) ;
#381 = CARTESIAN_POINT ( 'NONE',  ( 4.547104698220641654E-29, -6.492060401444943851E-15, -1.859399999999999498 ) ) ;
#382 = APPROVAL_PERSON_ORGANIZATION ( #88, #126, #53 ) ;
#383 = LINE ( 'NONE', #338, #147 ) ;
#384 = DIRECTION ( 'NONE',  ( -6.745023994389839133E-15, -0.9659258262890676461, 0.2588190451025230709 ) ) ;
#385 = EDGE_CURVE ( 'NONE', #20, #66, #375, .T. ) ;
#386 = FACE_OUTER_BOUND ( 'NONE', #214, .T. ) ;
#387 = LOCAL_TIME ( 21, 37, 10.00000000000000000, #218 ) ;
#388 = CYLINDRICAL_SURFACE ( 'NONE', #275, 0.1796999999999999986 ) ;
#389 = ADVANCED_FACE ( 'NONE', ( #316 ), #289, .T. ) ;
#390 = CARTESIAN_POINT ( 'NONE',  ( 4.547104698220641654E-29, -6.492060401444943851E-15, -1.859399999999999498 ) ) ;
ENDSEC;
END-ISO-10303-21;
