ISO-10303-21;
HEADER;
FILE_DESCRIPTION (( 'STEP AP203' ),
    '1' );
FILE_NAME ('58086.STEP',
    '2024-04-23T01:41:10',
    ( '' ),
    ( '' ),
    'SwSTEP 2.0',
    'SolidWorks 2023',
    '' );
FILE_SCHEMA (( 'CONFIG_CONTROL_DESIGN' ));
ENDSEC;

DATA;
#1 = ORIENTED_EDGE ( 'NONE', *, *, #97, .F. ) ;
#2 = EDGE_LOOP ( 'NONE', ( #367, #387, #99 ) ) ;
#3 = ORIENTED_EDGE ( 'NONE', *, *, #62, .F. ) ;
#4 = DIRECTION ( 'NONE',  ( -2.445468806185136597E-29, 3.491481338843145583E-15, 1.000000000000000000 ) ) ;
#5 = EDGE_LOOP ( 'NONE', ( #41, #244, #71, #61 ) ) ;
#6 = CIRCLE ( 'NONE', #37, 0.1885000000000002507 ) ;
#7 = ORIENTED_EDGE ( 'NONE', *, *, #25, .F. ) ;
#8 = EDGE_CURVE ( 'NONE', #16, #385, #326, .T. ) ;
#9 = DATE_TIME_ROLE ( 'classification_date' ) ;
#10 = CARTESIAN_POINT ( 'NONE',  ( 1.039335551653867854E-28, -1.483863498315299754E-14, -4.250000000000000000 ) ) ;
#11 = APPLICATION_PROTOCOL_DEFINITION ( 'international standard', 'config_control_design', 1994, #268 ) ;
#12 = DIRECTION ( 'NONE',  ( 1.000000000000000000, -6.982962677686266711E-15, 4.876179476867739168E-29 ) ) ;
#13 = AXIS2_PLACEMENT_3D ( 'NONE', #81, #344, #76 ) ;
#14 = ADVANCED_FACE ( 'NONE', ( #17 ), #341, .F. ) ;
#15 = CARTESIAN_POINT ( 'NONE',  ( -0.1885000000000001119, 1.339373056907789646E-15, -9.272192645130503377E-30 ) ) ;
#16 = VERTEX_POINT ( 'NONE', #132 ) ;
#17 = FACE_OUTER_BOUND ( 'NONE', #241, .T. ) ;
#18 = CIRCLE ( 'NONE', #279, 0.1880000000000002780 ) ;
#19 = DIRECTION ( 'NONE',  ( -6.982962677686266711E-15, -1.000000000000000000, 2.898512460121233908E-15 ) ) ;
#20 = ADVANCED_FACE ( 'NONE', ( #253 ), #193, .F. ) ;
#21 = APPLICATION_CONTEXT ( 'configuration controlled 3d designs of mechanical parts and assemblies' ) ;
#22 = DIRECTION ( 'NONE',  ( -2.445468806185136597E-29, 3.491481338843145583E-15, 1.000000000000000000 ) ) ;
#23 = DIRECTION ( 'NONE',  ( -2.445468806185136597E-29, 3.491481338843145583E-15, 1.000000000000000000 ) ) ;
#24 = DIRECTION ( 'NONE',  ( 0.7071067811865450192, -7.319954787623246579E-15, -0.7071067811865500152 ) ) ;
#25 = EDGE_CURVE ( 'NONE', #289, #165, #187, .T. ) ;
#26 = AXIS2_PLACEMENT_3D ( 'NONE', #342, #138, #311 ) ;
#27 = CARTESIAN_POINT ( 'NONE',  ( 4.588922214806407281E-29, -6.551764732339160851E-15, -1.876499999999999613 ) ) ;
#28 = CARTESIAN_POINT ( 'NONE',  ( 0.000000000000000000, 0.000000000000000000, 0.000000000000000000 ) ) ;
#29 = DIRECTION ( 'NONE',  ( 1.000000000000000000, -6.982962677686265922E-15, 0.000000000000000000 ) ) ;
#30 = AXIS2_PLACEMENT_3D ( 'NONE', #32, #384, #184 ) ;
#31 = SECURITY_CLASSIFICATION ( '', '', #186 ) ;
#32 = CARTESIAN_POINT ( 'NONE',  ( 1.026978697922582593E-28, -1.466235865322382892E-14, -4.199491577226733163 ) ) ;
#33 = LINE ( 'NONE', #300, #332 ) ;
#34 = CALENDAR_DATE ( 2024, 22, 4 ) ;
#35 = EDGE_CURVE ( 'NONE', #64, #46, #219, .T. ) ;
#36 = ORIENTED_EDGE ( 'NONE', *, *, #25, .T. ) ;
#37 = AXIS2_PLACEMENT_3D ( 'NONE', #274, #4, #210 ) ;
#38 = APPROVAL_DATE_TIME ( #335, #331 ) ;
#39 = DIRECTION ( 'NONE',  ( -6.982962677686266711E-15, -1.000000000000000000, 2.898512460121233908E-15 ) ) ;
#40 = PERSON_AND_ORGANIZATION_ROLE ( 'classification_officer' ) ;
#41 = ORIENTED_EDGE ( 'NONE', *, *, #116, .T. ) ;
#42 = DIRECTION ( 'NONE',  ( -2.445468806185136877E-29, 3.491481338843145188E-15, 1.000000000000000000 ) ) ;
#43 = COORDINATED_UNIVERSAL_TIME_OFFSET ( 5, 0, .BEHIND. ) ;
#44 = VECTOR ( 'NONE', #228, 39.37007874015748143 ) ;
#45 = LOCAL_TIME ( 21, 41, 10.00000000000000000, #337 ) ;
#46 = VERTEX_POINT ( 'NONE', #129 ) ;
#47 = ORIENTED_EDGE ( 'NONE', *, *, #275, .F. ) ;
#48 = CYLINDRICAL_SURFACE ( 'NONE', #368, 0.1885000000000000286 ) ;
#49 = ADVANCED_FACE ( 'NONE', ( #134 ), #133, .T. ) ;
#50 = AXIS2_PLACEMENT_3D ( 'NONE', #283, #75, #12 ) ;
#51 = CARTESIAN_POINT ( 'NONE',  ( 4.590144949209500083E-29, -6.553510473008582355E-15, -1.876999999999999336 ) ) ;
#52 = CARTESIAN_POINT ( 'NONE',  ( -1.316288464743815466E-15, -0.1885000000000065790, -1.876999999999998892 ) ) ;
#53 = ADVANCED_FACE ( 'NONE', ( #225 ), #240, .T. ) ;
#54 = FACE_OUTER_BOUND ( 'NONE', #271, .T. ) ;
#55 = DIRECTION ( 'NONE',  ( -6.982962677686266711E-15, -1.000000000000000000, 2.898512460121233908E-15 ) ) ;
#56 = CONICAL_SURFACE ( 'NONE', #297, 0.1885000000000000286, 0.7853981633974447263 ) ;
#57 = AXIS2_PLACEMENT_3D ( 'NONE', #299, #325, #379 ) ;
#58 = UNCERTAINTY_MEASURE_WITH_UNIT (LENGTH_MEASURE( 1.000000000000000082E-05 ), #357, 'distance_accuracy_value', 'NONE');
#59 = DIRECTION ( 'NONE',  ( -2.445468806185136597E-29, 3.491481338843145583E-15, 1.000000000000000000 ) ) ;
#60 = CARTESIAN_POINT ( 'NONE',  ( 0.1880000000000002780, -7.866307456413602737E-15, -1.876999999999999336 ) ) ;
#61 = ORIENTED_EDGE ( 'NONE', *, *, #340, .F. ) ;
#62 = EDGE_CURVE ( 'NONE', #177, #360, #315, .T. ) ;
#63 = CARTESIAN_POINT ( 'NONE',  ( 1.339373056907891211E-15, 0.1884999999999853459, -4.199491577226734051 ) ) ;
#64 = VERTEX_POINT ( 'NONE', #258 ) ;
#65 = AXIS2_PLACEMENT_3D ( 'NONE', #259, #114, #55 ) ;
#66 = MANIFOLD_SOLID_BREP ( 'Body-Move/Copy2[2]', #277 ) ;
#67 = ORIENTED_EDGE ( 'NONE', *, *, #345, .F. ) ;
#68 = CC_DESIGN_PERSON_AND_ORGANIZATION_ASSIGNMENT ( #70, #346, ( #343 ) ) ;
#69 = EDGE_LOOP ( 'NONE', ( #213, #227 ) ) ;
#70 = PERSON_AND_ORGANIZATION ( #200, #298 ) ;
#71 = ORIENTED_EDGE ( 'NONE', *, *, #212, .F. ) ;
#72 = AXIS2_PLACEMENT_3D ( 'NONE', #374, #309, #39 ) ;
#73 = ORIENTED_EDGE ( 'NONE', *, *, #35, .T. ) ;
#74 = PERSON_AND_ORGANIZATION ( #200, #298 ) ;
#75 = DIRECTION ( 'NONE',  ( -2.445468806185136597E-29, 3.491481338843145583E-15, 1.000000000000000000 ) ) ;
#76 = DIRECTION ( 'NONE',  ( -6.982962677686265922E-15, -1.000000000000000000, 3.510303681827608484E-15 ) ) ;
#77 = DIMENSIONAL_EXPONENTS ( 1.000000000000000000, 0.000000000000000000, 0.000000000000000000, 0.000000000000000000, 0.000000000000000000, 0.000000000000000000, 0.000000000000000000 ) ;
#78 = PERSON_AND_ORGANIZATION_ROLE ( 'design_supplier' ) ;
#79 = VECTOR ( 'NONE', #24, 39.37007874015748143 ) ;
#80 = CC_DESIGN_APPROVAL ( #108, ( #151 ) ) ;
#81 = CARTESIAN_POINT ( 'NONE',  ( -8.588603393594125055E-28, 1.226197005547953633E-13, 35.12007874015748143 ) ) ;
#82 = DIRECTION ( 'NONE',  ( 1.000000000000000000, -6.982962677686264344E-15, 0.000000000000000000 ) ) ;
#83 = DIRECTION ( 'NONE',  ( 2.445468806185136597E-29, -3.491481338843145583E-15, -1.000000000000000000 ) ) ;
#84 = CLOSED_SHELL ( 'NONE', ( #164, #53, #49, #247, #14 ) ) ;
#85 = DIRECTION ( 'NONE',  ( -1.000000000000000000, 6.982962677686266711E-15, 0.000000000000000000 ) ) ;
#86 = EDGE_CURVE ( 'NONE', #90, #94, #143, .T. ) ;
#87 = LINE ( 'NONE', #201, #96 ) ;
#88 = CARTESIAN_POINT ( 'NONE',  ( 4.588922214806407281E-29, -6.551764732339160851E-15, -1.876499999999999613 ) ) ;
#89 = AXIS2_PLACEMENT_3D ( 'NONE', #256, #105, #199 ) ;
#90 = VERTEX_POINT ( 'NONE', #158 ) ;
#91 = AXIS2_PLACEMENT_3D ( 'NONE', #243, #59, #214 ) ;
#92 = APPROVAL ( #135, 'UNSPECIFIED' ) ;
#93 = EDGE_LOOP ( 'NONE', ( #221, #336, #288, #67 ) ) ;
#94 = VERTEX_POINT ( 'NONE', #52 ) ;
#95 = CARTESIAN_POINT ( 'NONE',  ( 7.642090019328608793E-31, -1.091087918388491130E-16, -0.03125000000000023592 ) ) ;
#96 = VECTOR ( 'NONE', #113, 39.37007874015748143 ) ;
#97 = EDGE_CURVE ( 'NONE', #360, #90, #174, .T. ) ;
#98 = LOCAL_TIME ( 21, 41, 10.00000000000000000, #284 ) ;
#99 = ORIENTED_EDGE ( 'NONE', *, *, #116, .F. ) ;
#100 = COORDINATED_UNIVERSAL_TIME_OFFSET ( 5, 0, .BEHIND. ) ;
#101 = CARTESIAN_POINT ( 'NONE',  ( -1.497417772954680954E-48, 2.137915722948511961E-34, 6.123233995736837940E-20 ) ) ;
#102 = CC_DESIGN_PERSON_AND_ORGANIZATION_ASSIGNMENT ( #218, #282, ( #151 ) ) ;
#103 = ORIENTED_EDGE ( 'NONE', *, *, #238, .T. ) ;
#104 = EDGE_LOOP ( 'NONE', ( #294, #216, #103, #217 ) ) ;
#105 = DIRECTION ( 'NONE',  ( -2.445495211138003152E-29, 3.491443525447764103E-15, 1.000000000000000000 ) ) ;
#106 = PERSON_AND_ORGANIZATION ( #200, #298 ) ;
#107 = CARTESIAN_POINT ( 'NONE',  ( 0.1885000000000001119, -1.316288464743862009E-15, 9.191593222375345023E-30 ) ) ;
#108 = APPROVAL ( #128, 'UNSPECIFIED' ) ;
#109 = DIRECTION ( 'NONE',  ( -2.445468806185136597E-29, 3.491481338843145583E-15, 1.000000000000000000 ) ) ;
#110 = CARTESIAN_POINT ( 'NONE',  ( 0.000000000000000000, 0.000000000000000000, 0.000000000000000000 ) ) ;
#111 = CARTESIAN_POINT ( 'NONE',  ( 1.039335464733651388E-28, -1.483863498315299438E-14, -4.250000000000000000 ) ) ;
#112 = VERTEX_POINT ( 'NONE', #296 ) ;
#113 = DIRECTION ( 'NONE',  ( -0.7071067811865450192, 2.468850131082230634E-15, -0.7071067811865500152 ) ) ;
#114 = DIRECTION ( 'NONE',  ( -2.445495211138003152E-29, 3.491443525447764103E-15, 1.000000000000000000 ) ) ;
#115 = APPLICATION_PROTOCOL_DEFINITION ( 'international standard', 'config_control_design', 1994, #21 ) ;
#116 = EDGE_CURVE ( 'NONE', #160, #360, #222, .T. ) ;
#117 = VECTOR ( 'NONE', #358, 39.37007874015748143 ) ;
#118 = EDGE_LOOP ( 'NONE', ( #3, #147, #47 ) ) ;
#119 = LOCAL_TIME ( 21, 41, 10.00000000000000000, #43 ) ;
#120 = DIRECTION ( 'NONE',  ( -2.445468806185136597E-29, 3.491481338843145583E-15, 1.000000000000000000 ) ) ;
#121 =( NAMED_UNIT ( * ) PLANE_ANGLE_UNIT ( ) SI_UNIT ( $, .RADIAN. ) );
#122 = EDGE_CURVE ( 'NONE', #385, #46, #142, .T. ) ;
#123 = LINE ( 'NONE', #303, #117 ) ;
#124 = CIRCLE ( 'NONE', #348, 0.1880000000000002780 ) ;
#125 = LOCAL_TIME ( 21, 41, 10.00000000000000000, #100 ) ;
#126 = DATE_AND_TIME ( #159, #45 ) ;
#127 = ORIENTED_EDGE ( 'NONE', *, *, #35, .F. ) ;
#128 = APPROVAL_STATUS ( 'not_yet_approved' ) ;
#129 = CARTESIAN_POINT ( 'NONE',  ( 0.1885000000000000286, -1.425397256582710518E-15, -0.03125000000000023592 ) ) ;
#130 = ADVANCED_FACE ( 'NONE', ( #376 ), #280, .T. ) ;
#131 = APPROVAL_ROLE ( '' ) ;
#132 = CARTESIAN_POINT ( 'NONE',  ( -0.1572500000000000009, 1.152625276985588752E-15, 1.224646799068669035E-19 ) ) ;
#133 = CONICAL_SURFACE ( 'NONE', #89, 146.9311341562563484, 1.308996938995749426 ) ;
#134 = FACE_OUTER_BOUND ( 'NONE', #118, .T. ) ;
#135 = APPROVAL_STATUS ( 'not_yet_approved' ) ;
#136 = DIRECTION ( 'NONE',  ( 6.863315791527695837E-15, 0.9659258262890698665, 0.2588190451025151884 ) ) ;
#137 = ADVANCED_FACE ( 'NONE', ( #209 ), #162, .T. ) ;
#138 = DIRECTION ( 'NONE',  ( 2.445495211138002871E-29, -3.491443525447764103E-15, -1.000000000000000000 ) ) ;
#139 = VECTOR ( 'NONE', #328, 39.37007874015748143 ) ;
#140 = FACE_OUTER_BOUND ( 'NONE', #69, .T. ) ;
#141 = DIRECTION ( 'NONE',  ( 1.000000000000000000, -6.982962677686264344E-15, 0.000000000000000000 ) ) ;
#142 = LINE ( 'NONE', #355, #79 ) ;
#143 = CIRCLE ( 'NONE', #72, 0.1885000000000000286 ) ;
#144 = DIRECTION ( 'NONE',  ( 1.000000000000000000, -6.982962677686264344E-15, 0.000000000000000000 ) ) ;
#145 = CC_DESIGN_DATE_AND_TIME_ASSIGNMENT ( #373, #155, ( #378 ) ) ;
#146 = DIRECTION ( 'NONE',  ( 0.000000000000000000, 0.000000000000000000, 1.000000000000000000 ) ) ;
#147 = ORIENTED_EDGE ( 'NONE', *, *, #316, .T. ) ;
#148 = LINE ( 'NONE', #215, #139 ) ;
#149 = AXIS2_PLACEMENT_3D ( 'NONE', #101, #313, #369 ) ;
#150 = ORIENTED_EDGE ( 'NONE', *, *, #345, .T. ) ;
#151 = PRODUCT_DEFINITION_FORMATION_WITH_SPECIFIED_SOURCE ( 'ANY', '', #343, .NOT_KNOWN. ) ;
#152 = CC_DESIGN_PERSON_AND_ORGANIZATION_ASSIGNMENT ( #74, #40, ( #31 ) ) ;
#153 = LINE ( 'NONE', #330, #388 ) ;
#154 = DIRECTION ( 'NONE',  ( 1.000000000000000000, -6.982962677686266711E-15, 0.000000000000000000 ) ) ;
#155 = DATE_TIME_ROLE ( 'creation_date' ) ;
#156 = VECTOR ( 'NONE', #136, 39.37007874015748143 ) ;
#157 = APPROVAL_DATE_TIME ( #257, #108 ) ;
#158 = CARTESIAN_POINT ( 'NONE',  ( 1.339373056907891803E-15, 0.1884999999999934506, -1.877000000000000002 ) ) ;
#159 = CALENDAR_DATE ( 2024, 22, 4 ) ;
#160 = VERTEX_POINT ( 'NONE', #262 ) ;
#161 = ORIENTED_EDGE ( 'NONE', *, *, #86, .F. ) ;
#162 = CONICAL_SURFACE ( 'NONE', #320, 0.1885000000000002507, 0.7853981633975165577 ) ;
#163 = CC_DESIGN_SECURITY_CLASSIFICATION ( #31, ( #151 ) ) ;
#164 = ADVANCED_FACE ( 'NONE', ( #349 ), #234, .T. ) ;
#165 = VERTEX_POINT ( 'NONE', #230 ) ;
#166 = ORIENTED_EDGE ( 'NONE', *, *, #8, .T. ) ;
#167 = CARTESIAN_POINT ( 'NONE',  ( 1.026978697922582593E-28, -1.466235865322382892E-14, -4.199491577226733163 ) ) ;
#168 = AXIS2_PLACEMENT_3D ( 'NONE', #95, #120, #154 ) ;
#169 = LOCAL_TIME ( 21, 41, 10.00000000000000000, #310 ) ;
#170 = DIRECTION ( 'NONE',  ( -2.445468806185136597E-29, 3.491481338843145583E-15, 1.000000000000000000 ) ) ;
#171 = CARTESIAN_POINT ( 'NONE',  ( 7.642090019328608793E-31, -1.091087918388491130E-16, -0.03125000000000023592 ) ) ;
#172 = CARTESIAN_POINT ( 'NONE',  ( 4.590144949209500083E-29, -6.553510473008582355E-15, -1.876999999999999336 ) ) ;
#173 = CIRCLE ( 'NONE', #30, 0.1885000000000000286 ) ;
#174 = LINE ( 'NONE', #239, #197 ) ;
#175 = EDGE_CURVE ( 'NONE', #64, #289, #264, .T. ) ;
#176 = CARTESIAN_POINT ( 'NONE',  ( -0.1885000000000002507, -5.212391675431369628E-15, -1.876499999999999613 ) ) ;
#177 = VERTEX_POINT ( 'NONE', #111 ) ;
#178 = LENGTH_MEASURE_WITH_UNIT ( LENGTH_MEASURE( 0.02539999999999999897 ), #185 );
#179 = ORIENTED_EDGE ( 'NONE', *, *, #301, .F. ) ;
#180 = ADVANCED_FACE ( 'NONE', ( #318 ), #361, .T. ) ;
#181 = CARTESIAN_POINT ( 'NONE',  ( 7.642090019328608793E-31, -1.091087918388491130E-16, -0.03125000000000023592 ) ) ;
#182 = AXIS2_PLACEMENT_3D ( 'NONE', #110, #382, #377 ) ;
#183 = CIRCLE ( 'NONE', #91, 0.1572500000000000009 ) ;
#184 = DIRECTION ( 'NONE',  ( -6.982962677686266711E-15, -1.000000000000000000, 2.898512460121233908E-15 ) ) ;
#185 =( LENGTH_UNIT ( ) NAMED_UNIT ( * ) SI_UNIT ( $, .METRE. ) );
#186 = SECURITY_CLASSIFICATION_LEVEL ( 'unclassified' ) ;
#187 = LINE ( 'NONE', #15, #44 ) ;
#188 = AXIS2_PLACEMENT_3D ( 'NONE', #27, #354, #82 ) ;
#189 = ADVANCED_BREP_SHAPE_REPRESENTATION ( '58086', ( #204, #66, #322 ), #254 ) ;
#190 = APPROVAL_ROLE ( '' ) ;
#191 = ORIENTED_EDGE ( 'NONE', *, *, #122, .T. ) ;
#192 = PERSON_AND_ORGANIZATION ( #200, #298 ) ;
#193 = PLANE ( 'NONE',  #149 ) ;
#194 = CC_DESIGN_PERSON_AND_ORGANIZATION_ASSIGNMENT ( #366, #78, ( #151 ) ) ;
#195 = CALENDAR_DATE ( 2024, 22, 4 ) ;
#196 = ORIENTED_EDGE ( 'NONE', *, *, #372, .F. ) ;
#197 = VECTOR ( 'NONE', #350, 39.37007874015748143 ) ;
#198 = APPROVAL_ROLE ( '' ) ;
#199 = DIRECTION ( 'NONE',  ( -6.982962677686265922E-15, -1.000000000000000000, 3.510303681827608484E-15 ) ) ;
#200 = PERSON ( 'UNSPECIFIED', 'UNSPECIFIED', 'UNSPECIFIED', ('UNSPECIFIED'), ('UNSPECIFIED'), ('UNSPECIFIED') ) ;
#201 = CARTESIAN_POINT ( 'NONE',  ( -0.1885000000000000286, 1.207179672905012316E-15, -0.03125000000000023592 ) ) ;
#202 = DIRECTION ( 'NONE',  ( 2.445468806185136597E-29, -3.491481338843145583E-15, -1.000000000000000000 ) ) ;
#203 = ADVANCED_FACE ( 'NONE', ( #324 ), #56, .T. ) ;
#204 = MANIFOLD_SOLID_BREP ( 'Body-Move/Copy2[1]', #84 ) ;
#205 = AXIS2_PLACEMENT_3D ( 'NONE', #261, #232, #319 ) ;
#206 = DIRECTION ( 'NONE',  ( -6.982962677686266711E-15, -1.000000000000000000, 2.898512460121233908E-15 ) ) ;
#207 = DIRECTION ( 'NONE',  ( -1.000000000000000000, 6.982962677686266711E-15, 0.000000000000000000 ) ) ;
#208 = ADVANCED_FACE ( 'NONE', ( #54 ), #295, .T. ) ;
#209 = FACE_OUTER_BOUND ( 'NONE', #281, .T. ) ;
#210 = DIRECTION ( 'NONE',  ( 1.000000000000000000, -6.982962677686264344E-15, 0.000000000000000000 ) ) ;
#211 = FACE_OUTER_BOUND ( 'NONE', #250, .T. ) ;
#212 = EDGE_CURVE ( 'NONE', #94, #90, #353, .T. ) ;
#213 = ORIENTED_EDGE ( 'NONE', *, *, #224, .F. ) ;
#214 = DIRECTION ( 'NONE',  ( 1.000000000000000000, -6.982962677686266711E-15, 4.876179476867739168E-29 ) ) ;
#215 = CARTESIAN_POINT ( 'NONE',  ( 1.039325552314345124E-28, -1.483877693463925692E-14, -4.250000000000000000 ) ) ;
#216 = ORIENTED_EDGE ( 'NONE', *, *, #8, .F. ) ;
#217 = ORIENTED_EDGE ( 'NONE', *, *, #372, .T. ) ;
#218 = PERSON_AND_ORGANIZATION ( #200, #298 ) ;
#219 = LINE ( 'NONE', #107, #246 ) ;
#220 = APPROVAL_DATE_TIME ( #314, #92 ) ;
#221 = ORIENTED_EDGE ( 'NONE', *, *, #224, .T. ) ;
#222 = CIRCLE ( 'NONE', #375, 0.1885000000000000286 ) ;
#223 = ORIENTED_EDGE ( 'NONE', *, *, #340, .T. ) ;
#224 = EDGE_CURVE ( 'NONE', #304, #112, #18, .T. ) ;
#225 = FACE_OUTER_BOUND ( 'NONE', #2, .T. ) ;
#226 = PERSON_AND_ORGANIZATION_ROLE ( 'creator' ) ;
#227 = ORIENTED_EDGE ( 'NONE', *, *, #269, .F. ) ;
#228 = DIRECTION ( 'NONE',  ( -2.445468806185136877E-29, 3.491481338843145188E-15, 1.000000000000000000 ) ) ;
#229 = PRODUCT_DEFINITION_SHAPE ( 'NONE', 'NONE',  #378 ) ;
#230 = CARTESIAN_POINT ( 'NONE',  ( -0.1885000000000000286, -1.991063705181214936E-15, -0.03125000000000023592 ) ) ;
#231 = CC_DESIGN_PERSON_AND_ORGANIZATION_ASSIGNMENT ( #106, #226, ( #378 ) ) ;
#232 = DIRECTION ( 'NONE',  ( -2.438088387897960049E-29, 3.491481338843145188E-15, 1.000000000000000000 ) ) ;
#233 = ORIENTED_EDGE ( 'NONE', *, *, #351, .T. ) ;
#234 = CYLINDRICAL_SURFACE ( 'NONE', #57, 0.1885000000000000286 ) ;
#235 = AXIS2_PLACEMENT_3D ( 'NONE', #88, #22, #141 ) ;
#236 = CIRCLE ( 'NONE', #292, 0.1885000000000000286 ) ;
#237 = FACE_OUTER_BOUND ( 'NONE', #248, .T. ) ;
#238 = EDGE_CURVE ( 'NONE', #16, #165, #87, .T. ) ;
#239 = CARTESIAN_POINT ( 'NONE',  ( 1.339373056907834611E-15, 0.1884999999999934506, -1.877000000000000002 ) ) ;
#240 = CONICAL_SURFACE ( 'NONE', #13, 146.9311341562563484, 1.308996938995749426 ) ;
#241 = EDGE_LOOP ( 'NONE', ( #290, #363 ) ) ;
#242 = DIRECTION ( 'NONE',  ( 1.000000000000000000, -6.982962677686266711E-15, 0.000000000000000000 ) ) ;
#243 = CARTESIAN_POINT ( 'NONE',  ( -2.994835545909361907E-48, 4.275831445897023923E-34, 1.224646799147367588E-19 ) ) ;
#244 = ORIENTED_EDGE ( 'NONE', *, *, #97, .T. ) ;
#245 = CYLINDRICAL_SURFACE ( 'NONE', #260, 0.1885000000000001119 ) ;
#246 = VECTOR ( 'NONE', #42, 39.37007874015748143 ) ;
#247 = ADVANCED_FACE ( 'NONE', ( #237 ), #48, .T. ) ;
#248 = EDGE_LOOP ( 'NONE', ( #1, #317, #223, #161 ) ) ;
#249 = APPROVAL_STATUS ( 'not_yet_approved' ) ;
#250 = EDGE_LOOP ( 'NONE', ( #7, #286, #73, #196 ) ) ;
#251 = PERSON_AND_ORGANIZATION ( #200, #298 ) ;
#252 = ADVANCED_FACE ( 'NONE', ( #140 ), #265, .F. ) ;
#253 = FACE_OUTER_BOUND ( 'NONE', #329, .T. ) ;
#254 =( GEOMETRIC_REPRESENTATION_CONTEXT ( 3 ) GLOBAL_UNCERTAINTY_ASSIGNED_CONTEXT ( ( #58 ) ) GLOBAL_UNIT_ASSIGNED_CONTEXT ( ( #357, #121, #306 ) ) REPRESENTATION_CONTEXT ( 'NONE', 'WORKASPACE' ) );
#255 = CALENDAR_DATE ( 2024, 22, 4 ) ;
#256 = CARTESIAN_POINT ( 'NONE',  ( -8.588603393594125055E-28, 1.226197005547953633E-13, 35.12007874015748143 ) ) ;
#257 = DATE_AND_TIME ( #312, #119 ) ;
#258 = CARTESIAN_POINT ( 'NONE',  ( 0.1885000000000002507, -7.868053197083023451E-15, -1.876499999999999613 ) ) ;
#259 = CARTESIAN_POINT ( 'NONE',  ( 4.590144949209500083E-29, -6.553510473008582355E-15, -1.876999999999999336 ) ) ;
#260 = AXIS2_PLACEMENT_3D ( 'NONE', #302, #270, #305 ) ;
#261 = CARTESIAN_POINT ( 'NONE',  ( 4.590144949209500083E-29, -6.553510473008582355E-15, -1.876999999999999336 ) ) ;
#262 = CARTESIAN_POINT ( 'NONE',  ( -1.316288464743758273E-15, -0.1885000000000146003, -4.199491577226733163 ) ) ;
#263 = CARTESIAN_POINT ( 'NONE',  ( 4.588922214806407281E-29, -6.551764732339160851E-15, -1.876499999999999613 ) ) ;
#264 = CIRCLE ( 'NONE', #188, 0.1885000000000002507 ) ;
#265 = PLANE ( 'NONE',  #205 ) ;
#266 = DIRECTION ( 'NONE',  ( 1.000000000000000000, 0.000000000000000000, 0.000000000000000000 ) ) ;
#267 = EDGE_LOOP ( 'NONE', ( #285, #191, #233, #276 ) ) ;
#268 = APPLICATION_CONTEXT ( 'configuration controlled 3d designs of mechanical parts and assemblies' ) ;
#269 = EDGE_CURVE ( 'NONE', #112, #304, #124, .T. ) ;
#270 = DIRECTION ( 'NONE',  ( -2.445468806185136597E-29, 3.491481338843145583E-15, 1.000000000000000000 ) ) ;
#271 = EDGE_LOOP ( 'NONE', ( #347, #36, #364, #127 ) ) ;
#272 = CARTESIAN_POINT ( 'NONE',  ( 0.1572500000000000009, -1.240562987284178150E-15, 1.224646799229136555E-19 ) ) ;
#273 = ORIENTED_EDGE ( 'NONE', *, *, #365, .F. ) ;
#274 = CARTESIAN_POINT ( 'NONE',  ( 4.588922214806407281E-29, -6.551764732339160851E-15, -1.876499999999999613 ) ) ;
#275 = EDGE_CURVE ( 'NONE', #360, #160, #173, .T. ) ;
#276 = ORIENTED_EDGE ( 'NONE', *, *, #238, .F. ) ;
#277 = CLOSED_SHELL ( 'NONE', ( #180, #208, #130, #252, #137, #321, #203, #20 ) ) ;
#278 = SHAPE_DEFINITION_REPRESENTATION ( #229, #189 ) ;
#279 = AXIS2_PLACEMENT_3D ( 'NONE', #293, #23, #380 ) ;
#280 = CONICAL_SURFACE ( 'NONE', #235, 0.1885000000000002507, 0.7853981633975165577 ) ;
#281 = EDGE_LOOP ( 'NONE', ( #273, #334, #150, #179 ) ) ;
#282 = PERSON_AND_ORGANIZATION_ROLE ( 'creator' ) ;
#283 = CARTESIAN_POINT ( 'NONE',  ( -2.994835545909361907E-48, 4.275831445897023923E-34, 1.224646799147367588E-19 ) ) ;
#284 = COORDINATED_UNIVERSAL_TIME_OFFSET ( 5, 0, .BEHIND. ) ;
#285 = ORIENTED_EDGE ( 'NONE', *, *, #383, .F. ) ;
#286 = ORIENTED_EDGE ( 'NONE', *, *, #301, .T. ) ;
#287 = APPROVAL_PERSON_ORGANIZATION ( #307, #331, #198 ) ;
#288 = ORIENTED_EDGE ( 'NONE', *, *, #175, .F. ) ;
#289 = VERTEX_POINT ( 'NONE', #176 ) ;
#290 = ORIENTED_EDGE ( 'NONE', *, *, #212, .T. ) ;
#291 = DIRECTION ( 'NONE',  ( -2.445495211138003152E-29, 3.491443525447764103E-15, 1.000000000000000000 ) ) ;
#292 = AXIS2_PLACEMENT_3D ( 'NONE', #181, #333, #242 ) ;
#293 = CARTESIAN_POINT ( 'NONE',  ( 4.590144949209500083E-29, -6.553510473008582355E-15, -1.876999999999999336 ) ) ;
#294 = ORIENTED_EDGE ( 'NONE', *, *, #122, .F. ) ;
#295 = CYLINDRICAL_SURFACE ( 'NONE', #182, 0.1885000000000001119 ) ;
#296 = CARTESIAN_POINT ( 'NONE',  ( -0.1880000000000002780, -5.215040902605480829E-15, -1.876999999999999336 ) ) ;
#297 = AXIS2_PLACEMENT_3D ( 'NONE', #171, #202, #207 ) ;
#298 = ORGANIZATION ( 'UNSPECIFIED', 'UNSPECIFIED', '' ) ;
#299 = CARTESIAN_POINT ( 'NONE',  ( 4.590144949209500083E-29, -6.553510473008582355E-15, -1.876999999999999336 ) ) ;
#300 = CARTESIAN_POINT ( 'NONE',  ( -1.316288464743815466E-15, -0.1885000000000065790, -1.876999999999998892 ) ) ;
#301 = EDGE_CURVE ( 'NONE', #289, #64, #6, .T. ) ;
#302 = CARTESIAN_POINT ( 'NONE',  ( 0.000000000000000000, 0.000000000000000000, 0.000000000000000000 ) ) ;
#303 = CARTESIAN_POINT ( 'NONE',  ( 0.1885000000000002507, -7.868053197083023451E-15, -1.876499999999999613 ) ) ;
#304 = VERTEX_POINT ( 'NONE', #60 ) ;
#305 = DIRECTION ( 'NONE',  ( 1.000000000000000000, -6.982962677686266711E-15, 4.876176775795936353E-29 ) ) ;
#306 =( NAMED_UNIT ( * ) SI_UNIT ( $, .STERADIAN. ) SOLID_ANGLE_UNIT ( ) );
#307 = PERSON_AND_ORGANIZATION ( #200, #298 ) ;
#308 = AXIS2_PLACEMENT_3D ( 'NONE', #352, #83, #85 ) ;
#309 = DIRECTION ( 'NONE',  ( -2.445495211138003152E-29, 3.491443525447764103E-15, 1.000000000000000000 ) ) ;
#310 = COORDINATED_UNIVERSAL_TIME_OFFSET ( 5, 0, .BEHIND. ) ;
#311 = DIRECTION ( 'NONE',  ( 6.982962677686265922E-15, 1.000000000000000000, -3.491443525447764103E-15 ) ) ;
#312 = CALENDAR_DATE ( 2024, 22, 4 ) ;
#313 = DIRECTION ( 'NONE',  ( 2.438088387897960049E-29, -3.491481338843145188E-15, -1.000000000000000000 ) ) ;
#314 = DATE_AND_TIME ( #195, #169 ) ;
#315 = LINE ( 'NONE', #10, #156 ) ;
#316 = EDGE_CURVE ( 'NONE', #177, #160, #148, .T. ) ;
#317 = ORIENTED_EDGE ( 'NONE', *, *, #275, .T. ) ;
#318 = FACE_OUTER_BOUND ( 'NONE', #267, .T. ) ;
#319 = DIRECTION ( 'NONE',  ( 1.000000000000000000, -6.982962677686265922E-15, 4.876176775795935793E-29 ) ) ;
#320 = AXIS2_PLACEMENT_3D ( 'NONE', #263, #109, #144 ) ;
#321 = ADVANCED_FACE ( 'NONE', ( #211 ), #245, .T. ) ;
#322 = AXIS2_PLACEMENT_3D ( 'NONE', #28, #146, #266 ) ;
#323 = DIRECTION ( 'NONE',  ( -2.445495211138003152E-29, 3.491443525447764103E-15, 1.000000000000000000 ) ) ;
#324 = FACE_OUTER_BOUND ( 'NONE', #104, .T. ) ;
#325 = DIRECTION ( 'NONE',  ( -2.445495211138003152E-29, 3.491443525447764103E-15, 1.000000000000000000 ) ) ;
#326 = CIRCLE ( 'NONE', #50, 0.1572500000000000009 ) ;
#327 = APPROVAL_PERSON_ORGANIZATION ( #251, #108, #131 ) ;
#328 = DIRECTION ( 'NONE',  ( -6.745023994389841499E-15, -0.9659258262890679791, 0.2588190451025219607 ) ) ;
#329 = EDGE_LOOP ( 'NONE', ( #166, #371 ) ) ;
#330 = CARTESIAN_POINT ( 'NONE',  ( -0.1885000000000002507, -5.212391675431369628E-15, -1.876499999999999613 ) ) ;
#331 = APPROVAL ( #249, 'UNSPECIFIED' ) ;
#332 = VECTOR ( 'NONE', #390, 39.37007874015748143 ) ;
#333 = DIRECTION ( 'NONE',  ( -2.445468806185136597E-29, 3.491481338843145583E-15, 1.000000000000000000 ) ) ;
#334 = ORIENTED_EDGE ( 'NONE', *, *, #269, .T. ) ;
#335 = DATE_AND_TIME ( #34, #98 ) ;
#336 = ORIENTED_EDGE ( 'NONE', *, *, #365, .T. ) ;
#337 = COORDINATED_UNIVERSAL_TIME_OFFSET ( 5, 0, .BEHIND. ) ;
#338 = CIRCLE ( 'NONE', #168, 0.1885000000000000286 ) ;
#339 = CC_DESIGN_APPROVAL ( #92, ( #378 ) ) ;
#340 = EDGE_CURVE ( 'NONE', #160, #94, #33, .T. ) ;
#341 = PLANE ( 'NONE',  #26 ) ;
#342 = CARTESIAN_POINT ( 'NONE',  ( 4.590144949209500083E-29, -6.553510473008582355E-15, -1.876999999999999336 ) ) ;
#343 = PRODUCT ( '58086', '58086', '', ( #386 ) ) ;
#344 = DIRECTION ( 'NONE',  ( -2.445495211138003152E-29, 3.491443525447764103E-15, 1.000000000000000000 ) ) ;
#345 = EDGE_CURVE ( 'NONE', #304, #64, #123, .T. ) ;
#346 = PERSON_AND_ORGANIZATION_ROLE ( 'design_owner' ) ;
#347 = ORIENTED_EDGE ( 'NONE', *, *, #175, .T. ) ;
#348 = AXIS2_PLACEMENT_3D ( 'NONE', #51, #170, #29 ) ;
#349 = FACE_OUTER_BOUND ( 'NONE', #5, .T. ) ;
#350 = DIRECTION ( 'NONE',  ( -2.445495211138002871E-29, 3.491443525447764103E-15, 1.000000000000000000 ) ) ;
#351 = EDGE_CURVE ( 'NONE', #46, #165, #338, .T. ) ;
#352 = CARTESIAN_POINT ( 'NONE',  ( 7.642090019328608793E-31, -1.091087918388491130E-16, -0.03125000000000023592 ) ) ;
#353 = CIRCLE ( 'NONE', #65, 0.1885000000000000286 ) ;
#354 = DIRECTION ( 'NONE',  ( -2.445468806185136597E-29, 3.491481338843145583E-15, 1.000000000000000000 ) ) ;
#355 = CARTESIAN_POINT ( 'NONE',  ( 0.1885000000000000286, -1.402312664418782881E-15, -0.03125000000000023592 ) ) ;
#356 = PRODUCT_RELATED_PRODUCT_CATEGORY ( 'detail', '', ( #343 ) ) ;
#357 =( CONVERSION_BASED_UNIT ( 'INCH', #178 ) LENGTH_UNIT ( ) NAMED_UNIT ( #77 ) );
#358 = DIRECTION ( 'NONE',  ( 0.7071067811865957564, -2.468850131082761932E-15, 0.7071067811864992780 ) ) ;
#359 = CC_DESIGN_DATE_AND_TIME_ASSIGNMENT ( #126, #9, ( #31 ) ) ;
#360 = VERTEX_POINT ( 'NONE', #63 ) ;
#361 = CONICAL_SURFACE ( 'NONE', #308, 0.1885000000000000286, 0.7853981633974447263 ) ;
#362 = DIRECTION ( 'NONE',  ( -0.7071067811865957564, 7.493145998870527710E-15, 0.7071067811864992780 ) ) ;
#363 = ORIENTED_EDGE ( 'NONE', *, *, #86, .T. ) ;
#364 = ORIENTED_EDGE ( 'NONE', *, *, #351, .F. ) ;
#365 = EDGE_CURVE ( 'NONE', #112, #289, #153, .T. ) ;
#366 = PERSON_AND_ORGANIZATION ( #200, #298 ) ;
#367 = ORIENTED_EDGE ( 'NONE', *, *, #316, .F. ) ;
#368 = AXIS2_PLACEMENT_3D ( 'NONE', #172, #291, #19 ) ;
#369 = DIRECTION ( 'NONE',  ( -1.000000000000000000, 6.982962677686265922E-15, -4.876176775795935793E-29 ) ) ;
#370 = DESIGN_CONTEXT ( 'detailed design', #268, 'design' ) ;
#371 = ORIENTED_EDGE ( 'NONE', *, *, #383, .T. ) ;
#372 = EDGE_CURVE ( 'NONE', #165, #46, #236, .T. ) ;
#373 = DATE_AND_TIME ( #255, #125 ) ;
#374 = CARTESIAN_POINT ( 'NONE',  ( 4.590144949209500083E-29, -6.553510473008582355E-15, -1.876999999999999336 ) ) ;
#375 = AXIS2_PLACEMENT_3D ( 'NONE', #167, #323, #206 ) ;
#376 = FACE_OUTER_BOUND ( 'NONE', #93, .T. ) ;
#377 = DIRECTION ( 'NONE',  ( 1.000000000000000000, -6.982962677686266711E-15, 4.876176775795936353E-29 ) ) ;
#378 = PRODUCT_DEFINITION ( 'UNKNOWN', '', #151, #370 ) ;
#379 = DIRECTION ( 'NONE',  ( -6.982962677686266711E-15, -1.000000000000000000, 2.898512460121233908E-15 ) ) ;
#380 = DIRECTION ( 'NONE',  ( 1.000000000000000000, -6.982962677686265922E-15, 0.000000000000000000 ) ) ;
#381 = APPROVAL_PERSON_ORGANIZATION ( #192, #92, #190 ) ;
#382 = DIRECTION ( 'NONE',  ( -2.445468806185136597E-29, 3.491481338843145583E-15, 1.000000000000000000 ) ) ;
#383 = EDGE_CURVE ( 'NONE', #385, #16, #183, .T. ) ;
#384 = DIRECTION ( 'NONE',  ( -2.445495211138003152E-29, 3.491443525447764103E-15, 1.000000000000000000 ) ) ;
#385 = VERTEX_POINT ( 'NONE', #272 ) ;
#386 = MECHANICAL_CONTEXT ( 'NONE', #21, 'mechanical' ) ;
#387 = ORIENTED_EDGE ( 'NONE', *, *, #62, .T. ) ;
#388 = VECTOR ( 'NONE', #362, 39.37007874015748143 ) ;
#389 = CC_DESIGN_APPROVAL ( #331, ( #31 ) ) ;
#390 = DIRECTION ( 'NONE',  ( -2.445495211138002871E-29, 3.491443525447764103E-15, 1.000000000000000000 ) ) ;
ENDSEC;
END-ISO-10303-21;
