ISO-10303-21;
HEADER;
FILE_DESCRIPTION (( 'STEP AP203' ),
    '1' );
FILE_NAME ('58096.STEP',
    '2024-04-23T01:54:38',
    ( '' ),
    ( '' ),
    'SwSTEP 2.0',
    'SolidWorks 2023',
    '' );
FILE_SCHEMA (( 'CONFIG_CONTROL_DESIGN' ));
ENDSEC;

DATA;
#1 = AXIS2_PLACEMENT_3D ( 'NONE', #180, #177, #204 ) ;
#2 = CARTESIAN_POINT ( 'NONE',  ( 0.000000000000000000, 0.000000000000000000, 0.000000000000000000 ) ) ;
#3 = CARTESIAN_POINT ( 'NONE',  ( 5.426006187163580656E-29, -7.746898794625170315E-15, -2.218799999999999883 ) ) ;
#4 = ORIENTED_EDGE ( 'NONE', *, *, #346, .T. ) ;
#5 = DATE_AND_TIME ( #331, #212 ) ;
#6 = EDGE_LOOP ( 'NONE', ( #131, #310, #186, #189 ) ) ;
#7 = LOCAL_TIME ( 21, 54, 38.00000000000000000, #333 ) ;
#8 = PERSON_AND_ORGANIZATION ( #219, #86 ) ;
#9 = ORIENTED_EDGE ( 'NONE', *, *, #83, .F. ) ;
#10 = VERTEX_POINT ( 'NONE', #17 ) ;
#11 = ORIENTED_EDGE ( 'NONE', *, *, #378, .F. ) ;
#12 = CIRCLE ( 'NONE', #283, 0.2344000000000003026 ) ;
#13 = CONICAL_SURFACE ( 'NONE', #290, 146.9311341562559505, 1.308996938995748760 ) ;
#14 = EDGE_CURVE ( 'NONE', #115, #338, #12, .T. ) ;
#15 = DIRECTION ( 'NONE',  ( 1.000000000000000000, -6.982962677686265922E-15, 0.000000000000000000 ) ) ;
#16 = DIRECTION ( 'NONE',  ( -1.000000000000000000, 6.982962677686266711E-15, 0.000000000000000000 ) ) ;
#17 = CARTESIAN_POINT ( 'NONE',  ( -0.2339000000000001911, -6.082290108508184013E-15, -2.218799999999999883 ) ) ;
#18 = LINE ( 'NONE', #112, #143 ) ;
#19 = DIRECTION ( 'NONE',  ( -2.445468806185136597E-29, 3.491481338843145583E-15, 1.000000000000000000 ) ) ;
#20 = APPROVAL_PERSON_ORGANIZATION ( #243, #242, #390 ) ;
#21 = EDGE_LOOP ( 'NONE', ( #113, #130, #98, #133 ) ) ;
#22 = CARTESIAN_POINT ( 'NONE',  ( 1.161631906569397512E-28, -1.658405023996742331E-14, -4.750000000000000000 ) ) ;
#23 = CARTESIAN_POINT ( 'NONE',  ( 5.426006187163580656E-29, -7.746898794625170315E-15, -2.218799999999999883 ) ) ;
#24 = PERSON_AND_ORGANIZATION ( #219, #86 ) ;
#25 = DIRECTION ( 'NONE',  ( -2.445540270492239326E-29, 3.491378997887879090E-15, 1.000000000000000000 ) ) ;
#26 = CONICAL_SURFACE ( 'NONE', #249, 0.2343999999999999972, 0.7853981633974449483 ) ;
#27 = PERSON_AND_ORGANIZATION ( #219, #86 ) ;
#28 = CC_DESIGN_APPROVAL ( #242, ( #273 ) ) ;
#29 = CARTESIAN_POINT ( 'NONE',  ( 5.424783452760487854E-29, -7.745153053955749600E-15, -2.218300000000000161 ) ) ;
#30 = LINE ( 'NONE', #155, #384 ) ;
#31 = MANIFOLD_SOLID_BREP ( 'Body-Move/Copy2[2]', #181 ) ;
#32 = ADVANCED_FACE ( 'NONE', ( #78 ), #81, .F. ) ;
#33 = CC_DESIGN_APPROVAL ( #282, ( #375 ) ) ;
#34 = CYLINDRICAL_SURFACE ( 'NONE', #306, 0.2343999999999999972 ) ;
#35 = EDGE_CURVE ( 'NONE', #10, #254, #123, .T. ) ;
#36 = SHAPE_DEFINITION_REPRESENTATION ( #355, #97 ) ;
#37 = VERTEX_POINT ( 'NONE', #258 ) ;
#38 = AXIS2_PLACEMENT_3D ( 'NONE', #146, #75, #195 ) ;
#39 = VERTEX_POINT ( 'NONE', #201 ) ;
#40 = CONICAL_SURFACE ( 'NONE', #232, 146.9311341562559505, 1.308996938995748760 ) ;
#41 = ORIENTED_EDGE ( 'NONE', *, *, #294, .T. ) ;
#42 = EDGE_LOOP ( 'NONE', ( #224, #248, #9 ) ) ;
#43 = EDGE_CURVE ( 'NONE', #10, #338, #84, .T. ) ;
#44 = CARTESIAN_POINT ( 'NONE',  ( 0.2343999999999999972, -1.717209522516496106E-15, -0.03125000000000022204 ) ) ;
#45 = VECTOR ( 'NONE', #47, 39.37007874015748143 ) ;
#46 = CC_DESIGN_DATE_AND_TIME_ASSIGNMENT ( #125, #356, ( #273 ) ) ;
#47 = DIRECTION ( 'NONE',  ( 0.7071067811865451302, -7.319954787623248157E-15, -0.7071067811865499042 ) ) ;
#48 = EDGE_CURVE ( 'NONE', #279, #276, #293, .T. ) ;
#49 = DIRECTION ( 'NONE',  ( -1.000000000000000000, 6.982962677686265922E-15, -4.876176775795935793E-29 ) ) ;
#50 = CC_DESIGN_PERSON_AND_ORGANIZATION_ASSIGNMENT ( #27, #82, ( #273 ) ) ;
#51 = DIRECTION ( 'NONE',  ( -2.445468806185136597E-29, 3.491481338843145583E-15, 1.000000000000000000 ) ) ;
#52 = CIRCLE ( 'NONE', #210, 0.2343999999999999972 ) ;
#53 = AXIS2_PLACEMENT_3D ( 'NONE', #62, #272, #318 ) ;
#54 = CARTESIAN_POINT ( 'NONE',  ( 5.424783452760487854E-29, -7.745153053955749600E-15, -2.218300000000000161 ) ) ;
#55 = DIRECTION ( 'NONE',  ( 1.000000000000000000, -6.982962677686265922E-15, 0.000000000000000000 ) ) ;
#56 = COORDINATED_UNIVERSAL_TIME_OFFSET ( 5, 0, .BEHIND. ) ;
#57 = FACE_OUTER_BOUND ( 'NONE', #127, .T. ) ;
#58 = CARTESIAN_POINT ( 'NONE',  ( 1.161599915482893730E-28, -1.658450438819051282E-14, -4.750000000000000000 ) ) ;
#59 = CARTESIAN_POINT ( 'NONE',  ( 0.2344000000000003026, -9.381959505605412877E-15, -2.218300000000000161 ) ) ;
#60 = APPLICATION_CONTEXT ( 'configuration controlled 3d designs of mechanical parts and assemblies' ) ;
#61 = CIRCLE ( 'NONE', #53, 0.2343999999999999972 ) ;
#62 = CARTESIAN_POINT ( 'NONE',  ( 5.426006187163580656E-29, -7.746898794625170315E-15, -2.218799999999999883 ) ) ;
#63 =( LENGTH_UNIT ( ) NAMED_UNIT ( * ) SI_UNIT ( $, .METRE. ) );
#64 = DIRECTION ( 'NONE',  ( -2.445540270492239326E-29, 3.491378997887878695E-15, 1.000000000000000000 ) ) ;
#65 = FACE_OUTER_BOUND ( 'NONE', #6, .T. ) ;
#66 = AXIS2_PLACEMENT_3D ( 'NONE', #2, #240, #178 ) ;
#67 = VERTEX_POINT ( 'NONE', #169 ) ;
#68 = ORIENTED_EDGE ( 'NONE', *, *, #140, .T. ) ;
#69 = DATE_AND_TIME ( #217, #7 ) ;
#70 = AXIS2_PLACEMENT_3D ( 'NONE', #315, #341, #257 ) ;
#71 = ORIENTED_EDGE ( 'NONE', *, *, #199, .F. ) ;
#72 = EDGE_LOOP ( 'NONE', ( #134, #281 ) ) ;
#73 = EDGE_LOOP ( 'NONE', ( #222, #102, #71, #157 ) ) ;
#74 = PLANE ( 'NONE',  #324 ) ;
#75 = DIRECTION ( 'NONE',  ( -2.445468806185136597E-29, 3.491481338843145583E-15, 1.000000000000000000 ) ) ;
#76 = AXIS2_PLACEMENT_3D ( 'NONE', #144, #51, #342 ) ;
#77 = FACE_OUTER_BOUND ( 'NONE', #42, .T. ) ;
#78 = FACE_OUTER_BOUND ( 'NONE', #159, .T. ) ;
#79 = DIRECTION ( 'NONE',  ( -2.445540270492239326E-29, 3.491378997887879090E-15, 1.000000000000000000 ) ) ;
#80 = DIRECTION ( 'NONE',  ( -0.7071067811866923458, 7.493145998870876386E-15, 0.7071067811864025776 ) ) ;
#81 = PLANE ( 'NONE',  #167 ) ;
#82 = PERSON_AND_ORGANIZATION_ROLE ( 'creator' ) ;
#83 = EDGE_CURVE ( 'NONE', #67, #161, #52, .T. ) ;
#84 = LINE ( 'NONE', #168, #231 ) ;
#85 = CARTESIAN_POINT ( 'NONE',  ( 5.426006187163580656E-29, -7.746898794625170315E-15, -2.218799999999999883 ) ) ;
#86 = ORGANIZATION ( 'UNSPECIFIED', 'UNSPECIFIED', '' ) ;
#87 = APPROVAL_DATE_TIME ( #271, #242 ) ;
#88 = LOCAL_TIME ( 21, 54, 38.00000000000000000, #56 ) ;
#89 = DIRECTION ( 'NONE',  ( -1.000000000000000000, 6.982962677686266711E-15, 0.000000000000000000 ) ) ;
#90 = PRODUCT_RELATED_PRODUCT_CATEGORY ( 'detail', '', ( #382 ) ) ;
#91 = CALENDAR_DATE ( 2024, 22, 4 ) ;
#92 = FACE_OUTER_BOUND ( 'NONE', #73, .T. ) ;
#93 = CIRCLE ( 'NONE', #299, 0.2339000000000001911 ) ;
#94 = EDGE_LOOP ( 'NONE', ( #307, #251, #190, #68 ) ) ;
#95 = APPROVAL_STATUS ( 'not_yet_approved' ) ;
#96 = ORIENTED_EDGE ( 'NONE', *, *, #260, .F. ) ;
#97 = ADVANCED_BREP_SHAPE_REPRESENTATION ( '58096', ( #280, #31, #1 ), #116 ) ;
#98 = ORIENTED_EDGE ( 'NONE', *, *, #349, .T. ) ;
#99 = ADVANCED_FACE ( 'NONE', ( #229 ), #26, .T. ) ;
#100 = VECTOR ( 'NONE', #362, 39.37007874015748143 ) ;
#101 = VECTOR ( 'NONE', #64, 39.37007874015748143 ) ;
#102 = ORIENTED_EDGE ( 'NONE', *, *, #228, .T. ) ;
#103 = EDGE_CURVE ( 'NONE', #39, #279, #193, .T. ) ;
#104 = ORIENTED_EDGE ( 'NONE', *, *, #294, .F. ) ;
#105 = FACE_OUTER_BOUND ( 'NONE', #72, .T. ) ;
#106 = EDGE_LOOP ( 'NONE', ( #379, #4 ) ) ;
#107 = CARTESIAN_POINT ( 'NONE',  ( -1.175472951769416574E-47, 1.678263842514570579E-33, 4.806738686653385169E-19 ) ) ;
#108 = EDGE_CURVE ( 'NONE', #161, #67, #340, .T. ) ;
#109 = VECTOR ( 'NONE', #337, 39.37007874015748854 ) ;
#110 = DIRECTION ( 'NONE',  ( -2.445468806185136597E-29, 3.491481338843145583E-15, 1.000000000000000000 ) ) ;
#111 = DIRECTION ( 'NONE',  ( 2.445468806185136597E-29, -3.491481338843145583E-15, -1.000000000000000000 ) ) ;
#112 = CARTESIAN_POINT ( 'NONE',  ( -0.2344000000000001638, 1.665512172621675999E-15, -1.152998385155750805E-29 ) ) ;
#113 = ORIENTED_EDGE ( 'NONE', *, *, #346, .F. ) ;
#114 = PERSON_AND_ORGANIZATION ( #219, #86 ) ;
#115 = VERTEX_POINT ( 'NONE', #136 ) ;
#116 =( GEOMETRIC_REPRESENTATION_CONTEXT ( 3 ) GLOBAL_UNCERTAINTY_ASSIGNED_CONTEXT ( ( #185 ) ) GLOBAL_UNIT_ASSIGNED_CONTEXT ( ( #350, #353, #120 ) ) REPRESENTATION_CONTEXT ( 'NONE', 'WORKASPACE' ) );
#117 = EDGE_CURVE ( 'NONE', #220, #287, #277, .T. ) ;
#118 = CARTESIAN_POINT ( 'NONE',  ( 1.665512172621789793E-15, 0.2343999999999922812, -2.218800000000000772 ) ) ;
#119 = COORDINATED_UNIVERSAL_TIME_OFFSET ( 5, 0, .BEHIND. ) ;
#120 =( NAMED_UNIT ( * ) SI_UNIT ( $, .STERADIAN. ) SOLID_ANGLE_UNIT ( ) );
#121 = LINE ( 'NONE', #179, #101 ) ;
#122 = CC_DESIGN_PERSON_AND_ORGANIZATION_ASSIGNMENT ( #215, #171, ( #375 ) ) ;
#123 = CIRCLE ( 'NONE', #328, 0.2339000000000001911 ) ;
#124 = APPROVAL_PERSON_ORGANIZATION ( #8, #165, #286 ) ;
#125 = DATE_AND_TIME ( #241, #329 ) ;
#126 = FACE_OUTER_BOUND ( 'NONE', #332, .T. ) ;
#127 = EDGE_LOOP ( 'NONE', ( #369, #334, #256, #104 ) ) ;
#128 = DATE_TIME_ROLE ( 'classification_date' ) ;
#129 = CIRCLE ( 'NONE', #244, 0.2031499999999999972 ) ;
#130 = ORIENTED_EDGE ( 'NONE', *, *, #48, .T. ) ;
#131 = ORIENTED_EDGE ( 'NONE', *, *, #228, .F. ) ;
#132 = ADVANCED_FACE ( 'NONE', ( #265 ), #339, .T. ) ;
#133 = ORIENTED_EDGE ( 'NONE', *, *, #176, .F. ) ;
#134 = ORIENTED_EDGE ( 'NONE', *, *, #327, .F. ) ;
#135 = DIRECTION ( 'NONE',  ( -2.445468806185136597E-29, 3.491481338843145583E-15, 1.000000000000000000 ) ) ;
#136 = CARTESIAN_POINT ( 'NONE',  ( 0.2344000000000003026, -9.381959505605412877E-15, -2.218300000000000161 ) ) ;
#137 = ADVANCED_FACE ( 'NONE', ( #261 ), #374, .F. ) ;
#138 = DIRECTION ( 'NONE',  ( 6.863315791527694259E-15, 0.9659258262890696445, 0.2588190451025158545 ) ) ;
#139 = DIRECTION ( 'NONE',  ( -6.982962677686265922E-15, -1.000000000000000000, 3.496392483358698711E-15 ) ) ;
#140 = EDGE_CURVE ( 'NONE', #303, #276, #262, .T. ) ;
#141 = AXIS2_PLACEMENT_3D ( 'NONE', #289, #19, #142 ) ;
#142 = DIRECTION ( 'NONE',  ( 1.000000000000000000, -6.982962677686266711E-15, 0.000000000000000000 ) ) ;
#143 = VECTOR ( 'NONE', #230, 39.37007874015748143 ) ;
#144 = CARTESIAN_POINT ( 'NONE',  ( -2.350945903538833148E-47, 3.356527685029141157E-33, 9.613477373306770338E-19 ) ) ;
#145 = DIRECTION ( 'NONE',  ( 1.000000000000000000, -6.982962677686265133E-15, 0.000000000000000000 ) ) ;
#146 = CARTESIAN_POINT ( 'NONE',  ( 0.000000000000000000, 0.000000000000000000, 0.000000000000000000 ) ) ;
#147 = DATE_AND_TIME ( #91, #88 ) ;
#148 = CARTESIAN_POINT ( 'NONE',  ( -8.466495529167195391E-28, 1.208715887444989381E-13, 34.62007874015748143 ) ) ;
#149 = CC_DESIGN_PERSON_AND_ORGANIZATION_ASSIGNMENT ( #114, #386, ( #382 ) ) ;
#150 = DIRECTION ( 'NONE',  ( -2.445540270492239326E-29, 3.491378997887878695E-15, 1.000000000000000000 ) ) ;
#151 = COORDINATED_UNIVERSAL_TIME_OFFSET ( 5, 0, .BEHIND. ) ;
#152 = FACE_OUTER_BOUND ( 'NONE', #160, .T. ) ;
#153 = CIRCLE ( 'NONE', #239, 0.2344000000000003026 ) ;
#154 = LENGTH_MEASURE_WITH_UNIT ( LENGTH_MEASURE( 0.02539999999999999897 ), #63 );
#155 = CARTESIAN_POINT ( 'NONE',  ( -1.636806451649606282E-15, -0.2344000000000077411, -2.218799999999998995 ) ) ;
#156 = ORIENTED_EDGE ( 'NONE', *, *, #343, .T. ) ;
#157 = ORIENTED_EDGE ( 'NONE', *, *, #278, .F. ) ;
#158 = VECTOR ( 'NONE', #321, 39.37007874015748854 ) ;
#159 = EDGE_LOOP ( 'NONE', ( #330, #363 ) ) ;
#160 = EDGE_LOOP ( 'NONE', ( #11, #253, #336 ) ) ;
#161 = VERTEX_POINT ( 'NONE', #264 ) ;
#162 = CIRCLE ( 'NONE', #70, 0.2343999999999999972 ) ;
#163 = DIRECTION ( 'NONE',  ( 2.445468806185136597E-29, -3.491481338843145583E-15, -1.000000000000000000 ) ) ;
#164 = DIRECTION ( 'NONE',  ( -2.445540270492239326E-29, 3.491378997887879090E-15, 1.000000000000000000 ) ) ;
#165 = APPROVAL ( #95, 'UNSPECIFIED' ) ;
#166 = ORIENTED_EDGE ( 'NONE', *, *, #349, .F. ) ;
#167 = AXIS2_PLACEMENT_3D ( 'NONE', #202, #236, #311 ) ;
#168 = CARTESIAN_POINT ( 'NONE',  ( -0.2344000000000003026, -6.079640881334072812E-15, -2.218300000000000161 ) ) ;
#169 = CARTESIAN_POINT ( 'NONE',  ( 1.665512172621788609E-15, 0.2343999999999835937, -4.687192709294146553 ) ) ;
#170 = ADVANCED_FACE ( 'NONE', ( #377 ), #223, .T. ) ;
#171 = PERSON_AND_ORGANIZATION_ROLE ( 'design_supplier' ) ;
#172 = DIRECTION ( 'NONE',  ( 1.000000000000000000, -6.982962677686265133E-15, 0.000000000000000000 ) ) ;
#173 = DIRECTION ( 'NONE',  ( -2.445468806185136597E-29, 3.491481338843145583E-15, 1.000000000000000000 ) ) ;
#174 = AXIS2_PLACEMENT_3D ( 'NONE', #347, #372, #291 ) ;
#175 = LOCAL_TIME ( 21, 54, 38.00000000000000000, #151 ) ;
#176 = EDGE_CURVE ( 'NONE', #39, #303, #361, .T. ) ;
#177 = DIRECTION ( 'NONE',  ( 0.000000000000000000, 0.000000000000000000, 1.000000000000000000 ) ) ;
#178 = DIRECTION ( 'NONE',  ( 1.000000000000000000, -6.982962677686266711E-15, 4.876176775795936353E-29 ) ) ;
#179 = CARTESIAN_POINT ( 'NONE',  ( 1.665512172621728853E-15, 0.2343999999999922534, -2.218800000000000772 ) ) ;
#180 = CARTESIAN_POINT ( 'NONE',  ( 0.000000000000000000, 0.000000000000000000, 0.000000000000000000 ) ) ;
#181 = CLOSED_SHELL ( 'NONE', ( #99, #246, #216, #373, #387, #132, #170, #137 ) ) ;
#182 = AXIS2_PLACEMENT_3D ( 'NONE', #29, #173, #208 ) ;
#183 = CC_DESIGN_PERSON_AND_ORGANIZATION_ASSIGNMENT ( #245, #360, ( #375 ) ) ;
#184 = ORIENTED_EDGE ( 'NONE', *, *, #366, .T. ) ;
#185 = UNCERTAINTY_MEASURE_WITH_UNIT (LENGTH_MEASURE( 1.000000000000000082E-05 ), #350, 'distance_accuracy_value', 'NONE');
#186 = ORIENTED_EDGE ( 'NONE', *, *, #278, .T. ) ;
#187 = ADVANCED_FACE ( 'NONE', ( #152 ), #40, .T. ) ;
#188 = ORIENTED_EDGE ( 'NONE', *, *, #35, .T. ) ;
#189 = ORIENTED_EDGE ( 'NONE', *, *, #117, .F. ) ;
#190 = ORIENTED_EDGE ( 'NONE', *, *, #176, .T. ) ;
#191 = APPROVAL_DATE_TIME ( #69, #165 ) ;
#192 = DIRECTION ( 'NONE',  ( 1.000000000000000000, -6.982962677686265922E-15, 4.876176775795935793E-29 ) ) ;
#193 = CIRCLE ( 'NONE', #76, 0.2031499999999999972 ) ;
#194 = AXIS2_PLACEMENT_3D ( 'NONE', #385, #267, #172 ) ;
#195 = DIRECTION ( 'NONE',  ( 1.000000000000000000, -6.982962677686266711E-15, 4.876176775795936353E-29 ) ) ;
#196 = CC_DESIGN_DATE_AND_TIME_ASSIGNMENT ( #5, #128, ( #351 ) ) ;
#197 = CARTESIAN_POINT ( 'NONE',  ( -8.466495529167195391E-28, 1.208715887444989381E-13, 34.62007874015748143 ) ) ;
#198 = DIRECTION ( 'NONE',  ( 2.438088387897960049E-29, -3.491481338843145188E-15, -1.000000000000000000 ) ) ;
#199 = EDGE_CURVE ( 'NONE', #287, #220, #61, .T. ) ;
#200 = CARTESIAN_POINT ( 'NONE',  ( 5.426006187163580656E-29, -7.746898794625170315E-15, -2.218799999999999883 ) ) ;
#201 = CARTESIAN_POINT ( 'NONE',  ( -0.2031499999999999972, 1.473143263891388443E-15, 9.613477373205657090E-19 ) ) ;
#202 = CARTESIAN_POINT ( 'NONE',  ( 5.426006187163580656E-29, -7.746898794625170315E-15, -2.218799999999999883 ) ) ;
#203 = APPROVAL_PERSON_ORGANIZATION ( #317, #282, #383 ) ;
#204 = DIRECTION ( 'NONE',  ( 1.000000000000000000, 0.000000000000000000, 0.000000000000000000 ) ) ;
#205 = DIRECTION ( 'NONE',  ( -2.445540270492239326E-29, 3.491378997887879090E-15, 1.000000000000000000 ) ) ;
#206 = DIRECTION ( 'NONE',  ( -6.982962677686265922E-15, -1.000000000000000000, 3.496392483358698711E-15 ) ) ;
#207 = ADVANCED_FACE ( 'NONE', ( #65 ), #34, .T. ) ;
#208 = DIRECTION ( 'NONE',  ( 1.000000000000000000, -6.982962677686265133E-15, 0.000000000000000000 ) ) ;
#209 = CARTESIAN_POINT ( 'NONE',  ( -0.2343999999999999972, 1.527697659810811810E-15, -0.03125000000000022204 ) ) ;
#210 = AXIS2_PLACEMENT_3D ( 'NONE', #234, #205, #285 ) ;
#211 = AXIS2_PLACEMENT_3D ( 'NONE', #107, #198, #49 ) ;
#212 = LOCAL_TIME ( 21, 54, 38.00000000000000000, #304 ) ;
#213 = APPLICATION_PROTOCOL_DEFINITION ( 'international standard', 'config_control_design', 1994, #226 ) ;
#214 = DIRECTION ( 'NONE',  ( -6.982962677686265922E-15, -1.000000000000000000, 3.496392483358698711E-15 ) ) ;
#216 = ADVANCED_FACE ( 'NONE', ( #57 ), #263, .T. ) ;
#215 = PERSON_AND_ORGANIZATION ( #219, #86 ) ;
#217 = CALENDAR_DATE ( 2024, 22, 4 ) ;
#218 = ORIENTED_EDGE ( 'NONE', *, *, #140, .F. ) ;
#219 = PERSON ( 'UNSPECIFIED', 'UNSPECIFIED', 'UNSPECIFIED', ('UNSPECIFIED'), ('UNSPECIFIED'), ('UNSPECIFIED') ) ;
#220 = VERTEX_POINT ( 'NONE', #118 ) ;
#221 = PERSON_AND_ORGANIZATION_ROLE ( 'classification_officer' ) ;
#222 = ORIENTED_EDGE ( 'NONE', *, *, #108, .T. ) ;
#223 = CONICAL_SURFACE ( 'NONE', #302, 0.2343999999999999972, 0.7853981633974449483 ) ;
#224 = ORIENTED_EDGE ( 'NONE', *, *, #309, .F. ) ;
#225 = ORIENTED_EDGE ( 'NONE', *, *, #366, .F. ) ;
#226 = APPLICATION_CONTEXT ( 'configuration controlled 3d designs of mechanical parts and assemblies' ) ;
#227 = DIRECTION ( 'NONE',  ( -2.438088387897960049E-29, 3.491481338843145188E-15, 1.000000000000000000 ) ) ;
#228 = EDGE_CURVE ( 'NONE', #67, #220, #121, .T. ) ;
#229 = FACE_OUTER_BOUND ( 'NONE', #21, .T. ) ;
#230 = DIRECTION ( 'NONE',  ( -2.445468806185136877E-29, 3.491481338843145188E-15, 1.000000000000000000 ) ) ;
#231 = VECTOR ( 'NONE', #80, 39.37007874015748854 ) ;
#232 = AXIS2_PLACEMENT_3D ( 'NONE', #148, #274, #323 ) ;
#233 = DIRECTION ( 'NONE',  ( 1.000000000000000000, -6.982962677686265133E-15, 0.000000000000000000 ) ) ;
#234 = CARTESIAN_POINT ( 'NONE',  ( 1.146255996113185582E-28, -1.636499325839431101E-14, -4.687192709294144777 ) ) ;
#235 = DIRECTION ( 'NONE',  ( 1.000000000000000000, -6.982962677686265922E-15, 4.876167103785456779E-29 ) ) ;
#236 = DIRECTION ( 'NONE',  ( 2.445540270492239045E-29, -3.491378997887878695E-15, -1.000000000000000000 ) ) ;
#237 = FACE_OUTER_BOUND ( 'NONE', #367, .T. ) ;
#238 = CARTESIAN_POINT ( 'NONE',  ( 5.424783452760487854E-29, -7.745153053955749600E-15, -2.218300000000000161 ) ) ;
#239 = AXIS2_PLACEMENT_3D ( 'NONE', #54, #110, #145 ) ;
#240 = DIRECTION ( 'NONE',  ( -2.445468806185136597E-29, 3.491481338843145583E-15, 1.000000000000000000 ) ) ;
#241 = CALENDAR_DATE ( 2024, 22, 4 ) ;
#242 = APPROVAL ( #269, 'UNSPECIFIED' ) ;
#243 = PERSON_AND_ORGANIZATION ( #219, #86 ) ;
#244 = AXIS2_PLACEMENT_3D ( 'NONE', #376, #135, #235 ) ;
#245 = PERSON_AND_ORGANIZATION ( #219, #86 ) ;
#246 = ADVANCED_FACE ( 'NONE', ( #126 ), #301, .T. ) ;
#247 = CARTESIAN_POINT ( 'NONE',  ( -1.636806451649606282E-15, -0.2344000000000077411, -2.218799999999998995 ) ) ;
#248 = ORIENTED_EDGE ( 'NONE', *, *, #378, .T. ) ;
#249 = AXIS2_PLACEMENT_3D ( 'NONE', #314, #163, #16 ) ;
#250 = CC_DESIGN_APPROVAL ( #165, ( #351 ) ) ;
#251 = ORIENTED_EDGE ( 'NONE', *, *, #103, .F. ) ;
#252 = CC_DESIGN_PERSON_AND_ORGANIZATION_ASSIGNMENT ( #24, #221, ( #351 ) ) ;
#253 = ORIENTED_EDGE ( 'NONE', *, *, #309, .T. ) ;
#254 = VERTEX_POINT ( 'NONE', #354 ) ;
#255 = AXIS2_PLACEMENT_3D ( 'NONE', #85, #25, #206 ) ;
#256 = ORIENTED_EDGE ( 'NONE', *, *, #14, .F. ) ;
#257 = DIRECTION ( 'NONE',  ( 1.000000000000000000, -6.982962677686266711E-15, 0.000000000000000000 ) ) ;
#258 = CARTESIAN_POINT ( 'NONE',  ( 1.161631628483813610E-28, -1.658405023996742331E-14, -4.750000000000000000 ) ) ;
#259 = DIRECTION ( 'NONE',  ( -2.445468806185136597E-29, 3.491481338843145583E-15, 1.000000000000000000 ) ) ;
#260 = EDGE_CURVE ( 'NONE', #115, #276, #389, .T. ) ;
#261 = FACE_OUTER_BOUND ( 'NONE', #106, .T. ) ;
#262 = CIRCLE ( 'NONE', #141, 0.2343999999999999972 ) ;
#263 = CONICAL_SURFACE ( 'NONE', #194, 0.2344000000000003026, 0.7853981633976532262 ) ;
#264 = CARTESIAN_POINT ( 'NONE',  ( -1.636806451649545934E-15, -0.2344000000000162898, -4.687192709294143889 ) ) ;
#265 = FACE_OUTER_BOUND ( 'NONE', #275, .T. ) ;
#266 = CARTESIAN_POINT ( 'NONE',  ( -0.2344000000000003026, -6.079640881334072812E-15, -2.218300000000000161 ) ) ;
#267 = DIRECTION ( 'NONE',  ( -2.445468806185136597E-29, 3.491481338843145583E-15, 1.000000000000000000 ) ) ;
#268 = CARTESIAN_POINT ( 'NONE',  ( 0.2343999999999999972, -1.745915243488510011E-15, -0.03125000000000022204 ) ) ;
#269 = APPROVAL_STATUS ( 'not_yet_approved' ) ;
#270 = CARTESIAN_POINT ( 'NONE',  ( 0.2031499999999999972, -1.555459845381891375E-15, 9.613477373410758999E-19 ) ) ;
#271 = DATE_AND_TIME ( #297, #175 ) ;
#272 = DIRECTION ( 'NONE',  ( -2.445540270492239326E-29, 3.491378997887879090E-15, 1.000000000000000000 ) ) ;
#273 = PRODUCT_DEFINITION ( 'UNKNOWN', '', #375, #359 ) ;
#274 = DIRECTION ( 'NONE',  ( -2.445540270492239326E-29, 3.491378997887879090E-15, 1.000000000000000000 ) ) ;
#275 = EDGE_LOOP ( 'NONE', ( #381, #184, #370, #218 ) ) ;
#276 = VERTEX_POINT ( 'NONE', #268 ) ;
#277 = CIRCLE ( 'NONE', #322, 0.2343999999999999972 ) ;
#278 = EDGE_CURVE ( 'NONE', #161, #287, #30, .T. ) ;
#279 = VERTEX_POINT ( 'NONE', #270 ) ;
#280 = MANIFOLD_SOLID_BREP ( 'Body-Move/Copy2[1]', #348 ) ;
#281 = ORIENTED_EDGE ( 'NONE', *, *, #35, .F. ) ;
#282 = APPROVAL ( #388, 'UNSPECIFIED' ) ;
#283 = AXIS2_PLACEMENT_3D ( 'NONE', #238, #352, #233 ) ;
#284 = CC_DESIGN_SECURITY_CLASSIFICATION ( #351, ( #375 ) ) ;
#285 = DIRECTION ( 'NONE',  ( -6.982962677686265922E-15, -1.000000000000000000, 2.330928322239132474E-15 ) ) ;
#286 = APPROVAL_ROLE ( '' ) ;
#287 = VERTEX_POINT ( 'NONE', #247 ) ;
#288 = ADVANCED_FACE ( 'NONE', ( #92 ), #296, .T. ) ;
#289 = CARTESIAN_POINT ( 'NONE',  ( 7.642090019328606165E-31, -1.091087918388490760E-16, -0.03125000000000022204 ) ) ;
#290 = AXIS2_PLACEMENT_3D ( 'NONE', #197, #79, #371 ) ;
#291 = DIRECTION ( 'NONE',  ( -6.982962677686265922E-15, -1.000000000000000000, 2.330928322239132474E-15 ) ) ;
#292 = LINE ( 'NONE', #22, #335 ) ;
#293 = LINE ( 'NONE', #44, #45 ) ;
#294 = EDGE_CURVE ( 'NONE', #254, #115, #320, .T. ) ;
#295 = SECURITY_CLASSIFICATION_LEVEL ( 'unclassified' ) ;
#296 = CYLINDRICAL_SURFACE ( 'NONE', #255, 0.2343999999999999972 ) ;
#297 = CALENDAR_DATE ( 2024, 22, 4 ) ;
#298 = DIRECTION ( 'NONE',  ( -2.445540270492239326E-29, 3.491378997887879090E-15, 1.000000000000000000 ) ) ;
#299 = AXIS2_PLACEMENT_3D ( 'NONE', #344, #259, #15 ) ;
#300 = CARTESIAN_POINT ( 'NONE',  ( 0.2344000000000001638, -1.636806451649662094E-15, 1.142975836246568276E-29 ) ) ;
#301 = CYLINDRICAL_SURFACE ( 'NONE', #66, 0.2344000000000001638 ) ;
#302 = AXIS2_PLACEMENT_3D ( 'NONE', #345, #111, #89 ) ;
#303 = VERTEX_POINT ( 'NONE', #312 ) ;
#304 = COORDINATED_UNIVERSAL_TIME_OFFSET ( 5, 0, .BEHIND. ) ;
#305 = ORIENTED_EDGE ( 'NONE', *, *, #43, .F. ) ;
#306 = AXIS2_PLACEMENT_3D ( 'NONE', #3, #298, #214 ) ;
#307 = ORIENTED_EDGE ( 'NONE', *, *, #48, .F. ) ;
#308 = DIMENSIONAL_EXPONENTS ( 1.000000000000000000, 0.000000000000000000, 0.000000000000000000, 0.000000000000000000, 0.000000000000000000, 0.000000000000000000, 0.000000000000000000 ) ;
#309 = EDGE_CURVE ( 'NONE', #37, #67, #292, .T. ) ;
#310 = ORIENTED_EDGE ( 'NONE', *, *, #83, .T. ) ;
#311 = DIRECTION ( 'NONE',  ( 6.982962677686265922E-15, 1.000000000000000000, -3.491378997887878695E-15 ) ) ;
#312 = CARTESIAN_POINT ( 'NONE',  ( -0.2343999999999999972, -2.261618750275622168E-15, -0.03125000000000022204 ) ) ;
#313 = CARTESIAN_POINT ( 'NONE',  ( 5.426006187163580656E-29, -7.746898794625170315E-15, -2.218799999999999883 ) ) ;
#314 = CARTESIAN_POINT ( 'NONE',  ( 7.642090019328606165E-31, -1.091087918388490760E-16, -0.03125000000000022204 ) ) ;
#315 = CARTESIAN_POINT ( 'NONE',  ( 7.642090019328606165E-31, -1.091087918388490760E-16, -0.03125000000000022204 ) ) ;
#316 = DIRECTION ( 'NONE',  ( -2.445468806185136597E-29, 3.491481338843145583E-15, 1.000000000000000000 ) ) ;
#317 = PERSON_AND_ORGANIZATION ( #219, #86 ) ;
#318 = DIRECTION ( 'NONE',  ( -6.982962677686265922E-15, -1.000000000000000000, 3.496392483358698711E-15 ) ) ;
#319 = APPLICATION_PROTOCOL_DEFINITION ( 'international standard', 'config_control_design', 1994, #60 ) ;
#320 = LINE ( 'NONE', #59, #109 ) ;
#321 = DIRECTION ( 'NONE',  ( -6.745023994389839133E-15, -0.9659258262890676461, 0.2588190451025225713 ) ) ;
#322 = AXIS2_PLACEMENT_3D ( 'NONE', #23, #164, #139 ) ;
#323 = DIRECTION ( 'NONE',  ( -6.982962677686265133E-15, -1.000000000000000000, 3.510303681827617951E-15 ) ) ;
#324 = AXIS2_PLACEMENT_3D ( 'NONE', #200, #227, #192 ) ;
#325 = LINE ( 'NONE', #58, #158 ) ;
#326 = DIRECTION ( 'NONE',  ( -2.445468806185136877E-29, 3.491481338843145188E-15, 1.000000000000000000 ) ) ;
#327 = EDGE_CURVE ( 'NONE', #254, #10, #93, .T. ) ;
#328 = AXIS2_PLACEMENT_3D ( 'NONE', #313, #316, #55 ) ;
#329 = LOCAL_TIME ( 21, 54, 38.00000000000000000, #119 ) ;
#330 = ORIENTED_EDGE ( 'NONE', *, *, #199, .T. ) ;
#331 = CALENDAR_DATE ( 2024, 22, 4 ) ;
#332 = EDGE_LOOP ( 'NONE', ( #365, #156, #166, #96 ) ) ;
#333 = COORDINATED_UNIVERSAL_TIME_OFFSET ( 5, 0, .BEHIND. ) ;
#334 = ORIENTED_EDGE ( 'NONE', *, *, #43, .T. ) ;
#335 = VECTOR ( 'NONE', #138, 39.37007874015748854 ) ;
#336 = ORIENTED_EDGE ( 'NONE', *, *, #108, .F. ) ;
#337 = DIRECTION ( 'NONE',  ( 0.7071067811866923458, -2.468850131083773646E-15, 0.7071067811864025776 ) ) ;
#338 = VERTEX_POINT ( 'NONE', #266 ) ;
#339 = CYLINDRICAL_SURFACE ( 'NONE', #38, 0.2344000000000001638 ) ;
#340 = CIRCLE ( 'NONE', #174, 0.2343999999999999972 ) ;
#341 = DIRECTION ( 'NONE',  ( -2.445468806185136597E-29, 3.491481338843145583E-15, 1.000000000000000000 ) ) ;
#342 = DIRECTION ( 'NONE',  ( 1.000000000000000000, -6.982962677686265922E-15, 4.876167103785456779E-29 ) ) ;
#343 = EDGE_CURVE ( 'NONE', #338, #303, #18, .T. ) ;
#344 = CARTESIAN_POINT ( 'NONE',  ( 5.426006187163580656E-29, -7.746898794625170315E-15, -2.218799999999999883 ) ) ;
#345 = CARTESIAN_POINT ( 'NONE',  ( 7.642090019328606165E-31, -1.091087918388490760E-16, -0.03125000000000022204 ) ) ;
#346 = EDGE_CURVE ( 'NONE', #279, #39, #129, .T. ) ;
#347 = CARTESIAN_POINT ( 'NONE',  ( 1.146255996113185582E-28, -1.636499325839431101E-14, -4.687192709294144777 ) ) ;
#348 = CLOSED_SHELL ( 'NONE', ( #288, #187, #368, #207, #32 ) ) ;
#349 = EDGE_CURVE ( 'NONE', #276, #303, #162, .T. ) ;
#350 =( CONVERSION_BASED_UNIT ( 'INCH', #154 ) LENGTH_UNIT ( ) NAMED_UNIT ( #308 ) );
#351 = SECURITY_CLASSIFICATION ( '', '', #295 ) ;
#352 = DIRECTION ( 'NONE',  ( -2.445468806185136597E-29, 3.491481338843145583E-15, 1.000000000000000000 ) ) ;
#353 =( NAMED_UNIT ( * ) PLANE_ANGLE_UNIT ( ) SI_UNIT ( $, .RADIAN. ) );
#354 = CARTESIAN_POINT ( 'NONE',  ( 0.2339000000000001911, -9.380213764935990585E-15, -2.218799999999999883 ) ) ;
#355 = PRODUCT_DEFINITION_SHAPE ( 'NONE', 'NONE',  #273 ) ;
#356 = DATE_TIME_ROLE ( 'creation_date' ) ;
#357 = APPROVAL_DATE_TIME ( #147, #282 ) ;
#358 = VECTOR ( 'NONE', #326, 39.37007874015748143 ) ;
#359 = DESIGN_CONTEXT ( 'detailed design', #60, 'design' ) ;
#360 = PERSON_AND_ORGANIZATION_ROLE ( 'creator' ) ;
#361 = LINE ( 'NONE', #209, #100 ) ;
#362 = DIRECTION ( 'NONE',  ( -0.7071067811865451302, 2.468850131082231817E-15, -0.7071067811865499042 ) ) ;
#363 = ORIENTED_EDGE ( 'NONE', *, *, #117, .T. ) ;
#364 = CONICAL_SURFACE ( 'NONE', #182, 0.2344000000000003026, 0.7853981633976532262 ) ;
#365 = ORIENTED_EDGE ( 'NONE', *, *, #14, .T. ) ;
#366 = EDGE_CURVE ( 'NONE', #338, #115, #153, .T. ) ;
#367 = EDGE_LOOP ( 'NONE', ( #305, #188, #41, #225 ) ) ;
#368 = ADVANCED_FACE ( 'NONE', ( #77 ), #13, .T. ) ;
#369 = ORIENTED_EDGE ( 'NONE', *, *, #327, .T. ) ;
#370 = ORIENTED_EDGE ( 'NONE', *, *, #260, .T. ) ;
#371 = DIRECTION ( 'NONE',  ( -6.982962677686265133E-15, -1.000000000000000000, 3.510303681827617951E-15 ) ) ;
#372 = DIRECTION ( 'NONE',  ( -2.445540270492239326E-29, 3.491378997887879090E-15, 1.000000000000000000 ) ) ;
#373 = ADVANCED_FACE ( 'NONE', ( #105 ), #74, .F. ) ;
#374 = PLANE ( 'NONE',  #211 ) ;
#375 = PRODUCT_DEFINITION_FORMATION_WITH_SPECIFIED_SOURCE ( 'ANY', '', #382, .NOT_KNOWN. ) ;
#376 = CARTESIAN_POINT ( 'NONE',  ( -2.350945903538833148E-47, 3.356527685029141157E-33, 9.613477373306770338E-19 ) ) ;
#377 = FACE_OUTER_BOUND ( 'NONE', #94, .T. ) ;
#378 = EDGE_CURVE ( 'NONE', #37, #161, #325, .T. ) ;
#379 = ORIENTED_EDGE ( 'NONE', *, *, #103, .T. ) ;
#380 = MECHANICAL_CONTEXT ( 'NONE', #226, 'mechanical' ) ;
#381 = ORIENTED_EDGE ( 'NONE', *, *, #343, .F. ) ;
#382 = PRODUCT ( '58096', '58096', '', ( #380 ) ) ;
#383 = APPROVAL_ROLE ( '' ) ;
#384 = VECTOR ( 'NONE', #150, 39.37007874015748143 ) ;
#385 = CARTESIAN_POINT ( 'NONE',  ( 5.424783452760487854E-29, -7.745153053955749600E-15, -2.218300000000000161 ) ) ;
#386 = PERSON_AND_ORGANIZATION_ROLE ( 'design_owner' ) ;
#387 = ADVANCED_FACE ( 'NONE', ( #237 ), #364, .T. ) ;
#388 = APPROVAL_STATUS ( 'not_yet_approved' ) ;
#389 = LINE ( 'NONE', #300, #358 ) ;
#390 = APPROVAL_ROLE ( '' ) ;
ENDSEC;
END-ISO-10303-21;
