ISO-10303-21;
HEADER;
FILE_DESCRIPTION (( 'STEP AP203' ),
    '1' );
FILE_NAME ('61056.STEP',
    '2024-04-23T02:49:58',
    ( '' ),
    ( '' ),
    'SwSTEP 2.0',
    'SolidWorks 2023',
    '' );
FILE_SCHEMA (( 'CONFIG_CONTROL_DESIGN' ));
ENDSEC;

DATA;
#1 = DATE_AND_TIME ( #194, #118 ) ;
#2 = ORIENTED_EDGE ( 'NONE', *, *, #17, .F. ) ;
#3 = FACE_OUTER_BOUND ( 'NONE', #127, .T. ) ;
#4 = CALENDAR_DATE ( 2024, 22, 4 ) ;
#5 = EDGE_LOOP ( 'NONE', ( #336, #275, #129, #185 ) ) ;
#6 = CALENDAR_DATE ( 2024, 22, 4 ) ;
#7 = ORIENTED_EDGE ( 'NONE', *, *, #378, .F. ) ;
#8 = PERSON_AND_ORGANIZATION ( #149, #65 ) ;
#9 = DIRECTION ( 'NONE',  ( -2.445468806185136597E-29, 3.491481338843145583E-15, 1.000000000000000000 ) ) ;
#10 = PRODUCT_DEFINITION ( 'UNKNOWN', '', #205, #358 ) ;
#11 = CIRCLE ( 'NONE', #347, 0.03150000000000000022 ) ;
#12 = CARTESIAN_POINT ( 'NONE',  ( 0.03100000000000009345, -3.597971519677861639E-15, -0.9685000000000002496 ) ) ;
#13 = CARTESIAN_POINT ( 'NONE',  ( -9.212887526626929208E-28, 1.315627567601753281E-13, 37.67717874015747981 ) ) ;
#14 = DIRECTION ( 'NONE',  ( 0.7071067811865452413, -7.319954787623248157E-15, -0.7071067811865497932 ) ) ;
#15 = FACE_OUTER_BOUND ( 'NONE', #312, .T. ) ;
#16 = CONICAL_SURFACE ( 'NONE', #38, 0.03150000000000011818, 0.7853981633974397303 ) ;
#17 = EDGE_CURVE ( 'NONE', #390, #333, #260, .T. ) ;
#18 = ORIENTED_EDGE ( 'NONE', *, *, #39, .T. ) ;
#19 = DIRECTION ( 'NONE',  ( -2.445223240622387562E-29, 3.491833002705725887E-15, 1.000000000000000000 ) ) ;
#20 = DIRECTION ( 'NONE',  ( 6.090539988449815512E-15, 0.8571673007021189949, 0.5150380749100429423 ) ) ;
#21 = ORIENTED_EDGE ( 'NONE', *, *, #240, .F. ) ;
#22 = DIRECTION ( 'NONE',  ( 1.000000000000000000, -6.982962677686260400E-15, 0.000000000000000000 ) ) ;
#23 = AXIS2_PLACEMENT_3D ( 'NONE', #327, #299, #22 ) ;
#24 = PLANE ( 'NONE',  #212 ) ;
#25 = EDGE_CURVE ( 'NONE', #390, #152, #156, .T. ) ;
#26 = DIRECTION ( 'NONE',  ( -2.445223240622387843E-29, 3.491833002705725887E-15, 1.000000000000000000 ) ) ;
#27 = DIRECTION ( 'NONE',  ( -1.000000000000000000, 6.982962677686265922E-15, -4.876176775795935793E-29 ) ) ;
#28 = FACE_OUTER_BOUND ( 'NONE', #340, .T. ) ;
#29 = EDGE_CURVE ( 'NONE', #268, #278, #54, .T. ) ;
#30 = AXIS2_PLACEMENT_3D ( 'NONE', #356, #387, #53 ) ;
#31 = ORIENTED_EDGE ( 'NONE', *, *, #285, .T. ) ;
#32 = COORDINATED_UNIVERSAL_TIME_OFFSET ( 5, 0, .BEHIND. ) ;
#33 = VERTEX_POINT ( 'NONE', #303 ) ;
#34 = DIRECTION ( 'NONE',  ( -2.445468806185136597E-29, 3.491481338843145583E-15, 1.000000000000000000 ) ) ;
#35 = COORDINATED_UNIVERSAL_TIME_OFFSET ( 5, 0, .BEHIND. ) ;
#36 = ORIENTED_EDGE ( 'NONE', *, *, #61, .F. ) ;
#37 = SECURITY_CLASSIFICATION ( '', '', #213 ) ;
#38 = AXIS2_PLACEMENT_3D ( 'NONE', #209, #211, #330 ) ;
#39 = EDGE_CURVE ( 'NONE', #33, #278, #197, .T. ) ;
#40 = ADVANCED_FACE ( 'NONE', ( #42 ), #251, .T. ) ;
#41 = DIRECTION ( 'NONE',  ( 1.000000000000000000, -6.982962677686265922E-15, 4.876176775795935793E-29 ) ) ;
#42 = FACE_OUTER_BOUND ( 'NONE', #193, .T. ) ;
#43 = DIRECTION ( 'NONE',  ( -5.985567269335977567E-15, -0.8571673007021154422, 0.5150380749100489375 ) ) ;
#44 = CARTESIAN_POINT ( 'NONE',  ( -2.199633243470936971E-16, -0.03150000000000337946, -0.9685000000000000275 ) ) ;
#45 = CARTESIAN_POINT ( 'NONE',  ( 0.03150000000000000716, -3.252144787686523157E-16, -0.03125000000000020817 ) ) ;
#46 = DIRECTION ( 'NONE',  ( -2.445468806185136597E-29, 3.491481338843145583E-15, 1.000000000000000000 ) ) ;
#47 = EDGE_CURVE ( 'NONE', #33, #247, #131, .T. ) ;
#48 = DIRECTION ( 'NONE',  ( -0.7071067811865414665, 7.493145998870332072E-15, 0.7071067811865535679 ) ) ;
#49 = CARTESIAN_POINT ( 'NONE',  ( -2.199633243470936971E-16, -0.03150000000000337946, -0.9685000000000000275 ) ) ;
#50 = CARTESIAN_POINT ( 'NONE',  ( 4.139518424049640618E-29, -5.911324090280523703E-15, -1.692900000000000071 ) ) ;
#51 = DIRECTION ( 'NONE',  ( 1.000000000000000000, -6.982962677686265133E-15, 0.000000000000000000 ) ) ;
#52 = ADVANCED_FACE ( 'NONE', ( #377 ), #221, .T. ) ;
#53 = DIRECTION ( 'NONE',  ( -1.000000000000000000, 6.982962677686265133E-15, 0.000000000000000000 ) ) ;
#54 = LINE ( 'NONE', #182, #361 ) ;
#55 = DIRECTION ( 'NONE',  ( 2.438088387897960049E-29, -3.491481338843145188E-15, -1.000000000000000000 ) ) ;
#56 = ADVANCED_FACE ( 'NONE', ( #71 ), #167, .F. ) ;
#57 = CARTESIAN_POINT ( 'NONE',  ( 0.000000000000000000, 0.000000000000000000, 0.000000000000000000 ) ) ;
#58 = ORIENTED_EDGE ( 'NONE', *, *, #176, .F. ) ;
#59 = PERSON_AND_ORGANIZATION ( #149, #65 ) ;
#60 = ORIENTED_EDGE ( 'NONE', *, *, #158, .T. ) ;
#61 = EDGE_CURVE ( 'NONE', #268, #63, #150, .T. ) ;
#62 = PERSON_AND_ORGANIZATION ( #149, #65 ) ;
#63 = VERTEX_POINT ( 'NONE', #12 ) ;
#64 = MANIFOLD_SOLID_BREP ( 'Body-Move/Copy2[1]', #104 ) ;
#65 = ORGANIZATION ( 'UNSPECIFIED', 'UNSPECIFIED', '' ) ;
#66 = PERSON_AND_ORGANIZATION ( #149, #65 ) ;
#67 = APPLICATION_CONTEXT ( 'configuration controlled 3d designs of mechanical parts and assemblies' ) ;
#68 = ADVANCED_FACE ( 'NONE', ( #132 ), #371, .T. ) ;
#69 = EDGE_LOOP ( 'NONE', ( #249, #339, #214, #281 ) ) ;
#70 = AXIS2_PLACEMENT_3D ( 'NONE', #137, #111, #208 ) ;
#71 = FACE_OUTER_BOUND ( 'NONE', #345, .T. ) ;
#72 = CC_DESIGN_APPROVAL ( #253, ( #37 ) ) ;
#73 = APPROVAL_DATE_TIME ( #100, #253 ) ;
#74 = DIRECTION ( 'NONE',  ( -6.982962677686265922E-15, -1.000000000000000000, 4.336266656609941617E-15 ) ) ;
#75 = CARTESIAN_POINT ( 'NONE',  ( 4.093475246271503869E-29, -5.844893198233897040E-15, -1.673972890500632360 ) ) ;
#76 = CIRCLE ( 'NONE', #170, 0.03150000000000000716 ) ;
#77 = DIRECTION ( 'NONE',  ( -2.445468806185136597E-29, 3.491481338843145583E-15, 1.000000000000000000 ) ) ;
#78 = CARTESIAN_POINT ( 'NONE',  ( 2.238209617644725809E-16, 0.03149999999999662098, -0.9685000000000003606 ) ) ;
#79 =( NAMED_UNIT ( * ) PLANE_ANGLE_UNIT ( ) SI_UNIT ( $, .RADIAN. ) );
#80 = DIRECTION ( 'NONE',  ( -2.445468806185136597E-29, 3.491481338843145583E-15, 1.000000000000000000 ) ) ;
#81 = CARTESIAN_POINT ( 'NONE',  ( -0.03150000000000011818, -3.155932974235733258E-15, -0.9680000000000001936 ) ) ;
#82 = PRODUCT_RELATED_PRODUCT_CATEGORY ( 'detail', '', ( #161 ) ) ;
#83 = EDGE_LOOP ( 'NONE', ( #316, #364 ) ) ;
#84 = CARTESIAN_POINT ( 'NONE',  ( -0.03150000000000006267, 2.238209617644320039E-16, -1.549464553430298305E-30 ) ) ;
#85 = AXIS2_PLACEMENT_3D ( 'NONE', #86, #357, #183 ) ;
#86 = CARTESIAN_POINT ( 'NONE',  ( 0.000000000000000000, 0.000000000000000000, 0.000000000000000000 ) ) ;
#87 = EDGE_CURVE ( 'NONE', #152, #247, #199, .T. ) ;
#88 = CC_DESIGN_APPROVAL ( #95, ( #10 ) ) ;
#89 = DATE_TIME_ROLE ( 'classification_date' ) ;
#90 = ADVANCED_FACE ( 'NONE', ( #237 ), #242, .T. ) ;
#91 = ORIENTED_EDGE ( 'NONE', *, *, #47, .F. ) ;
#92 = DATE_TIME_ROLE ( 'creation_date' ) ;
#93 = CIRCLE ( 'NONE', #147, 0.0002500000000000007641 ) ;
#94 = ORIENTED_EDGE ( 'NONE', *, *, #176, .T. ) ;
#95 = APPROVAL ( #162, 'UNSPECIFIED' ) ;
#96 = PERSON_AND_ORGANIZATION ( #149, #65 ) ;
#97 = ORIENTED_EDGE ( 'NONE', *, *, #308, .F. ) ;
#98 = CARTESIAN_POINT ( 'NONE',  ( 0.000000000000000000, 0.000000000000000000, 0.000000000000000000 ) ) ;
#99 =( NAMED_UNIT ( * ) SI_UNIT ( $, .STERADIAN. ) SOLID_ANGLE_UNIT ( ) );
#100 = DATE_AND_TIME ( #320, #310 ) ;
#101 = CARTESIAN_POINT ( 'NONE',  ( 2.368436538790305238E-29, -3.381499676669586913E-15, -0.9685000000000002496 ) ) ;
#102 = DIRECTION ( 'NONE',  ( 1.000000000000000000, 0.000000000000000000, 0.000000000000000000 ) ) ;
#103 = DIRECTION ( 'NONE',  ( -2.445468806185136597E-29, 3.491481338843145583E-15, 1.000000000000000000 ) ) ;
#104 = CLOSED_SHELL ( 'NONE', ( #52, #117, #273, #68, #56 ) ) ;
#105 = LOCAL_TIME ( 22, 49, 58.00000000000000000, #154 ) ;
#106 = DIRECTION ( 'NONE',  ( 2.445468806185136597E-29, -3.491481338843145583E-15, -1.000000000000000000 ) ) ;
#107 = LINE ( 'NONE', #263, #269 ) ;
#108 = APPROVAL_ROLE ( '' ) ;
#109 = DIRECTION ( 'NONE',  ( -2.445468806185136597E-29, 3.491481338843145583E-15, 1.000000000000000000 ) ) ;
#110 = CARTESIAN_POINT ( 'NONE',  ( 4.139518424049641179E-29, -5.911324090280523703E-15, -1.692900000000000071 ) ) ;
#111 = DIRECTION ( 'NONE',  ( -2.445223240622387843E-29, 3.491833002705725887E-15, 1.000000000000000000 ) ) ;
#112 = VECTOR ( 'NONE', #207, 39.37007874015748143 ) ;
#113 = FACE_OUTER_BOUND ( 'NONE', #143, .T. ) ;
#114 = LOCAL_TIME ( 22, 49, 58.00000000000000000, #32 ) ;
#115 = DIRECTION ( 'NONE',  ( -2.438088387897960049E-29, 3.491481338843145188E-15, 1.000000000000000000 ) ) ;
#116 = DIRECTION ( 'NONE',  ( 1.000000000000000000, -6.982962677686265133E-15, 0.000000000000000000 ) ) ;
#117 = ADVANCED_FACE ( 'NONE', ( #3 ), #341, .T. ) ;
#118 = LOCAL_TIME ( 22, 49, 58.00000000000000000, #35 ) ;
#119 = AXIS2_PLACEMENT_3D ( 'NONE', #171, #9, #138 ) ;
#120 = ORIENTED_EDGE ( 'NONE', *, *, #148, .T. ) ;
#121 = FACE_OUTER_BOUND ( 'NONE', #195, .T. ) ;
#122 = EDGE_CURVE ( 'NONE', #381, #272, #107, .T. ) ;
#123 = AXIS2_PLACEMENT_3D ( 'NONE', #98, #257, #41 ) ;
#124 = ORIENTED_EDGE ( 'NONE', *, *, #122, .F. ) ;
#125 = CALENDAR_DATE ( 2024, 22, 4 ) ;
#126 = CC_DESIGN_DATE_AND_TIME_ASSIGNMENT ( #250, #92, ( #10 ) ) ;
#127 = EDGE_LOOP ( 'NONE', ( #318, #60, #367 ) ) ;
#128 = DATE_AND_TIME ( #4, #225 ) ;
#129 = ORIENTED_EDGE ( 'NONE', *, *, #187, .F. ) ;
#130 = ORIENTED_EDGE ( 'NONE', *, *, #141, .T. ) ;
#131 = LINE ( 'NONE', #256, #261 ) ;
#132 = FACE_OUTER_BOUND ( 'NONE', #155, .T. ) ;
#133 = DIRECTION ( 'NONE',  ( -6.982962677686265922E-15, -1.000000000000000000, 4.336266656609941617E-15 ) ) ;
#134 = CC_DESIGN_PERSON_AND_ORGANIZATION_ASSIGNMENT ( #66, #159, ( #161 ) ) ;
#135 = AXIS2_PLACEMENT_3D ( 'NONE', #202, #346, #133 ) ;
#136 = ORIENTED_EDGE ( 'NONE', *, *, #61, .T. ) ;
#137 = CARTESIAN_POINT ( 'NONE',  ( 4.093475246271503869E-29, -5.844893198233897040E-15, -1.673972890500632360 ) ) ;
#138 = DIRECTION ( 'NONE',  ( 1.000000000000000000, -6.982962677686260400E-15, 0.000000000000000000 ) ) ;
#139 = LINE ( 'NONE', #110, #188 ) ;
#140 = LINE ( 'NONE', #233, #254 ) ;
#141 = EDGE_CURVE ( 'NONE', #244, #186, #352, .T. ) ;
#142 = CARTESIAN_POINT ( 'NONE',  ( 0.000000000000000000, 0.000000000000000000, 0.000000000000000000 ) ) ;
#143 = EDGE_LOOP ( 'NONE', ( #21, #36 ) ) ;
#144 = FACE_OUTER_BOUND ( 'NONE', #69, .T. ) ;
#145 = DIRECTION ( 'NONE',  ( -6.982962677686265922E-15, -1.000000000000000000, 4.336266656609941617E-15 ) ) ;
#146 = CYLINDRICAL_SURFACE ( 'NONE', #85, 0.03150000000000006267 ) ;
#147 = AXIS2_PLACEMENT_3D ( 'NONE', #271, #103, #349 ) ;
#148 = EDGE_CURVE ( 'NONE', #63, #33, #234, .T. ) ;
#149 = PERSON ( 'UNSPECIFIED', 'UNSPECIFIED', 'UNSPECIFIED', ('UNSPECIFIED'), ('UNSPECIFIED'), ('UNSPECIFIED') ) ;
#150 = CIRCLE ( 'NONE', #165, 0.03100000000000009345 ) ;
#151 = VECTOR ( 'NONE', #177, 39.37007874015748143 ) ;
#152 = VERTEX_POINT ( 'NONE', #344 ) ;
#153 = CC_DESIGN_PERSON_AND_ORGANIZATION_ASSIGNMENT ( #184, #306, ( #37 ) ) ;
#154 = COORDINATED_UNIVERSAL_TIME_OFFSET ( 5, 0, .BEHIND. ) ;
#155 = EDGE_LOOP ( 'NONE', ( #124, #31, #130, #241 ) ) ;
#156 = CIRCLE ( 'NONE', #123, 0.0002500000000000007641 ) ;
#157 = ORIENTED_EDGE ( 'NONE', *, *, #385, .T. ) ;
#158 = EDGE_CURVE ( 'NONE', #307, #381, #140, .T. ) ;
#159 = PERSON_AND_ORGANIZATION_ROLE ( 'design_owner' ) ;
#160 = ORIENTED_EDGE ( 'NONE', *, *, #293, .F. ) ;
#161 = PRODUCT ( '61056', '61056', '', ( #224 ) ) ;
#162 = APPROVAL_STATUS ( 'not_yet_approved' ) ;
#163 = ORIENTED_EDGE ( 'NONE', *, *, #87, .T. ) ;
#164 = CARTESIAN_POINT ( 'NONE',  ( 2.367213804387212436E-29, -3.379753936000165804E-15, -0.9680000000000001936 ) ) ;
#165 = AXIS2_PLACEMENT_3D ( 'NONE', #384, #109, #116 ) ;
#166 = CIRCLE ( 'NONE', #70, 0.03150000000000000022 ) ;
#167 = PLANE ( 'NONE',  #328 ) ;
#168 = CARTESIAN_POINT ( 'NONE',  ( 2.238209617644725316E-16, 0.03149999999999416461, -1.673972890500632360 ) ) ;
#169 = DIRECTION ( 'NONE',  ( -2.445468806185136597E-29, 3.491481338843145583E-15, 1.000000000000000000 ) ) ;
#170 = AXIS2_PLACEMENT_3D ( 'NONE', #259, #46, #296 ) ;
#171 = CARTESIAN_POINT ( 'NONE',  ( 2.367213804387212436E-29, -3.379753936000165804E-15, -0.9680000000000001936 ) ) ;
#172 = CARTESIAN_POINT ( 'NONE',  ( 0.03150000000000011818, -3.599717260347283931E-15, -0.9680000000000001936 ) ) ;
#173 = ADVANCED_BREP_SHAPE_REPRESENTATION ( '61056', ( #64, #204, #338 ), #198 ) ;
#174 = APPROVAL_STATUS ( 'not_yet_approved' ) ;
#175 = PLANE ( 'NONE',  #286 ) ;
#176 = EDGE_CURVE ( 'NONE', #247, #333, #76, .T. ) ;
#177 = DIRECTION ( 'NONE',  ( -2.445223240622387562E-29, 3.491833002705725887E-15, 1.000000000000000000 ) ) ;
#178 = APPLICATION_CONTEXT ( 'configuration controlled 3d designs of mechanical parts and assemblies' ) ;
#179 = EDGE_LOOP ( 'NONE', ( #18, #215, #58, #91 ) ) ;
#180 = CARTESIAN_POINT ( 'NONE',  ( 2.368436538790305238E-29, -3.381499676669586913E-15, -0.9685000000000002496 ) ) ;
#181 = AXIS2_PLACEMENT_3D ( 'NONE', #248, #191, #283 ) ;
#182 = CARTESIAN_POINT ( 'NONE',  ( -0.03150000000000011818, -3.155932974235733258E-15, -0.9680000000000001936 ) ) ;
#183 = DIRECTION ( 'NONE',  ( 1.000000000000000000, -6.982962677686265922E-15, 4.876176775795935232E-29 ) ) ;
#184 = PERSON_AND_ORGANIZATION ( #149, #65 ) ;
#185 = ORIENTED_EDGE ( 'NONE', *, *, #141, .F. ) ;
#186 = VERTEX_POINT ( 'NONE', #44 ) ;
#187 = EDGE_CURVE ( 'NONE', #186, #272, #245, .T. ) ;
#188 = VECTOR ( 'NONE', #43, 39.37007874015748143 ) ;
#189 = VECTOR ( 'NONE', #223, 39.37007874015748143 ) ;
#190 = EDGE_LOOP ( 'NONE', ( #219, #163, #94, #2 ) ) ;
#191 = DIRECTION ( 'NONE',  ( -2.445223240622387843E-29, 3.491833002705725887E-15, 1.000000000000000000 ) ) ;
#192 = APPROVAL_DATE_TIME ( #1, #95 ) ;
#193 = EDGE_LOOP ( 'NONE', ( #386, #136, #120, #97 ) ) ;
#194 = CALENDAR_DATE ( 2024, 22, 4 ) ;
#195 = EDGE_LOOP ( 'NONE', ( #309, #196, #366, #216 ) ) ;
#196 = ORIENTED_EDGE ( 'NONE', *, *, #25, .F. ) ;
#197 = CIRCLE ( 'NONE', #321, 0.03150000000000011818 ) ;
#198 =( GEOMETRIC_REPRESENTATION_CONTEXT ( 3 ) GLOBAL_UNCERTAINTY_ASSIGNED_CONTEXT ( ( #222 ) ) GLOBAL_UNIT_ASSIGNED_CONTEXT ( ( #266, #79, #99 ) ) REPRESENTATION_CONTEXT ( 'NONE', 'WORKASPACE' ) );
#199 = LINE ( 'NONE', #45, #331 ) ;
#200 = DIRECTION ( 'NONE',  ( -6.982962677686265133E-15, -1.000000000000000000, 3.468864327941518878E-15 ) ) ;
#201 = DIRECTION ( 'NONE',  ( -1.000000000000000000, 6.982962677686265133E-15, 0.000000000000000000 ) ) ;
#202 = CARTESIAN_POINT ( 'NONE',  ( 2.368436538790305238E-29, -3.381499676669586913E-15, -0.9685000000000002496 ) ) ;
#203 = EDGE_CURVE ( 'NONE', #244, #381, #11, .T. ) ;
#204 = MANIFOLD_SOLID_BREP ( 'Body-Move/Copy2[2]', #305 ) ;
#206 = CONICAL_SURFACE ( 'NONE', #232, 65.52281426576985268, 1.029744258676664082 ) ;
#205 = PRODUCT_DEFINITION_FORMATION_WITH_SPECIFIED_SOURCE ( 'ANY', '', #161, .NOT_KNOWN. ) ;
#207 = DIRECTION ( 'NONE',  ( -2.445468806185136877E-29, 3.491481338843145188E-15, 1.000000000000000000 ) ) ;
#208 = DIRECTION ( 'NONE',  ( -6.982962677686265922E-15, -1.000000000000000000, 0.000000000000000000 ) ) ;
#209 = CARTESIAN_POINT ( 'NONE',  ( 2.367213804387212436E-29, -3.379753936000165804E-15, -0.9680000000000001936 ) ) ;
#210 = EDGE_CURVE ( 'NONE', #152, #390, #93, .T. ) ;
#211 = DIRECTION ( 'NONE',  ( -2.445468806185136597E-29, 3.491481338843145583E-15, 1.000000000000000000 ) ) ;
#212 = AXIS2_PLACEMENT_3D ( 'NONE', #57, #55, #27 ) ;
#213 = SECURITY_CLASSIFICATION_LEVEL ( 'unclassified' ) ;
#214 = ORIENTED_EDGE ( 'NONE', *, *, #39, .F. ) ;
#215 = ORIENTED_EDGE ( 'NONE', *, *, #293, .T. ) ;
#216 = ORIENTED_EDGE ( 'NONE', *, *, #378, .T. ) ;
#217 = APPROVAL ( #365, 'UNSPECIFIED' ) ;
#218 = APPROVAL_DATE_TIME ( #128, #217 ) ;
#219 = ORIENTED_EDGE ( 'NONE', *, *, #210, .F. ) ;
#220 = APPLICATION_PROTOCOL_DEFINITION ( 'international standard', 'config_control_design', 1994, #67 ) ;
#221 = CYLINDRICAL_SURFACE ( 'NONE', #274, 0.03150000000000000022 ) ;
#222 = UNCERTAINTY_MEASURE_WITH_UNIT (LENGTH_MEASURE( 1.000000000000000082E-05 ), #266, 'distance_accuracy_value', 'NONE');
#223 = DIRECTION ( 'NONE',  ( -0.7071067811865452413, 2.468850131082233000E-15, -0.7071067811865497932 ) ) ;
#224 = MECHANICAL_CONTEXT ( 'NONE', #178, 'mechanical' ) ;
#225 = LOCAL_TIME ( 22, 49, 58.00000000000000000, #282 ) ;
#226 = CARTESIAN_POINT ( 'NONE',  ( -2.199633243470765147E-16, -0.03150000000000585665, -1.673972890500632360 ) ) ;
#227 = CARTESIAN_POINT ( 'NONE',  ( 2.368436538790305238E-29, -3.381499676669586913E-15, -0.9685000000000002496 ) ) ;
#228 = EDGE_CURVE ( 'NONE', #272, #186, #236, .T. ) ;
#229 = DIRECTION ( 'NONE',  ( -2.445223240622387843E-29, 3.491833002705725887E-15, 1.000000000000000000 ) ) ;
#230 = AXIS2_PLACEMENT_3D ( 'NONE', #267, #353, #383 ) ;
#231 = LINE ( 'NONE', #84, #112 ) ;
#232 = AXIS2_PLACEMENT_3D ( 'NONE', #13, #380, #200 ) ;
#233 = CARTESIAN_POINT ( 'NONE',  ( 4.139998255525755038E-29, -5.910642917378705540E-15, -1.692900000000000071 ) ) ;
#234 = LINE ( 'NONE', #172, #368 ) ;
#235 = CC_DESIGN_DATE_AND_TIME_ASSIGNMENT ( #277, #89, ( #37 ) ) ;
#236 = CIRCLE ( 'NONE', #135, 0.03150000000000000022 ) ;
#237 = FACE_OUTER_BOUND ( 'NONE', #190, .T. ) ;
#239 = AXIS2_PLACEMENT_3D ( 'NONE', #142, #80, #319 ) ;
#238 = AXIS2_PLACEMENT_3D ( 'NONE', #304, #34, #375 ) ;
#240 = EDGE_CURVE ( 'NONE', #63, #268, #329, .T. ) ;
#241 = ORIENTED_EDGE ( 'NONE', *, *, #228, .F. ) ;
#242 = CONICAL_SURFACE ( 'NONE', #300, 0.03150000000000000716, 0.7853981633974450594 ) ;
#243 = APPROVAL_PERSON_ORGANIZATION ( #335, #217, #313 ) ;
#244 = VERTEX_POINT ( 'NONE', #226 ) ;
#245 = CIRCLE ( 'NONE', #230, 0.03150000000000000022 ) ;
#246 = ADVANCED_FACE ( 'NONE', ( #113 ), #175, .F. ) ;
#247 = VERTEX_POINT ( 'NONE', #373 ) ;
#248 = CARTESIAN_POINT ( 'NONE',  ( -9.212887526626929208E-28, 1.315627567601753281E-13, 37.67717874015747981 ) ) ;
#249 = ORIENTED_EDGE ( 'NONE', *, *, #240, .T. ) ;
#250 = DATE_AND_TIME ( #6, #114 ) ;
#251 = CONICAL_SURFACE ( 'NONE', #119, 0.03150000000000011818, 0.7853981633974397303 ) ;
#252 = CC_DESIGN_APPROVAL ( #217, ( #205 ) ) ;
#253 = APPROVAL ( #174, 'UNSPECIFIED' ) ;
#254 = VECTOR ( 'NONE', #20, 39.37007874015748143 ) ;
#255 = ORIENTED_EDGE ( 'NONE', *, *, #47, .T. ) ;
#256 = CARTESIAN_POINT ( 'NONE',  ( 0.03150000000000006267, -2.199633243471178067E-16, 1.535995684375722689E-30 ) ) ;
#257 = DIRECTION ( 'NONE',  ( -2.445468806185136597E-29, 3.491481338843145583E-15, 1.000000000000000000 ) ) ;
#258 = CARTESIAN_POINT ( 'NONE',  ( 0.000000000000000000, 0.000000000000000000, 0.000000000000000000 ) ) ;
#259 = CARTESIAN_POINT ( 'NONE',  ( 7.642090019328602662E-31, -1.091087918388490267E-16, -0.03125000000000020817 ) ) ;
#260 = LINE ( 'NONE', #323, #189 ) ;
#261 = VECTOR ( 'NONE', #369, 39.37007874015748143 ) ;
#262 = APPROVAL_PERSON_ORGANIZATION ( #314, #253, #108 ) ;
#263 = CARTESIAN_POINT ( 'NONE',  ( 2.238209617644552260E-16, 0.03149999999999662098, -0.9685000000000003606 ) ) ;
#264 = DIRECTION ( 'NONE',  ( 1.000000000000000000, -6.982962677686260400E-15, 0.000000000000000000 ) ) ;
#265 = DIRECTION ( 'NONE',  ( -6.982962677686265922E-15, -1.000000000000000000, 0.000000000000000000 ) ) ;
#266 =( CONVERSION_BASED_UNIT ( 'INCH', #348 ) LENGTH_UNIT ( ) NAMED_UNIT ( #280 ) );
#267 = CARTESIAN_POINT ( 'NONE',  ( 2.368436538790305238E-29, -3.381499676669586913E-15, -0.9685000000000002496 ) ) ;
#268 = VERTEX_POINT ( 'NONE', #288 ) ;
#269 = VECTOR ( 'NONE', #19, 39.37007874015748143 ) ;
#270 = CONICAL_SURFACE ( 'NONE', #30, 0.03150000000000000716, 0.7853981633974450594 ) ;
#271 = CARTESIAN_POINT ( 'NONE',  ( 0.000000000000000000, 0.000000000000000000, 0.000000000000000000 ) ) ;
#272 = VERTEX_POINT ( 'NONE', #78 ) ;
#273 = ADVANCED_FACE ( 'NONE', ( #15 ), #206, .T. ) ;
#274 = AXIS2_PLACEMENT_3D ( 'NONE', #227, #26, #145 ) ;
#275 = ORIENTED_EDGE ( 'NONE', *, *, #122, .T. ) ;
#276 = CARTESIAN_POINT ( 'NONE',  ( -0.03150000000000000716, -1.520610402155073723E-15, -0.03125000000000020817 ) ) ;
#277 = DATE_AND_TIME ( #125, #105 ) ;
#278 = VERTEX_POINT ( 'NONE', #81 ) ;
#279 = ADVANCED_FACE ( 'NONE', ( #325 ), #379, .T. ) ;
#280 = DIMENSIONAL_EXPONENTS ( 1.000000000000000000, 0.000000000000000000, 0.000000000000000000, 0.000000000000000000, 0.000000000000000000, 0.000000000000000000, 0.000000000000000000 ) ;
#281 = ORIENTED_EDGE ( 'NONE', *, *, #148, .F. ) ;
#282 = COORDINATED_UNIVERSAL_TIME_OFFSET ( 5, 0, .BEHIND. ) ;
#283 = DIRECTION ( 'NONE',  ( -6.982962677686265133E-15, -1.000000000000000000, 3.468864327941518878E-15 ) ) ;
#284 = APPROVAL_ROLE ( '' ) ;
#285 = EDGE_CURVE ( 'NONE', #381, #244, #166, .T. ) ;
#286 = AXIS2_PLACEMENT_3D ( 'NONE', #180, #115, #298 ) ;
#287 = DIRECTION ( 'NONE',  ( 2.445223240622387282E-29, -3.491833002705725887E-15, -1.000000000000000000 ) ) ;
#288 = CARTESIAN_POINT ( 'NONE',  ( -0.03100000000000009345, -3.158582201409844854E-15, -0.9685000000000002496 ) ) ;
#289 = COORDINATED_UNIVERSAL_TIME_OFFSET ( 5, 0, .BEHIND. ) ;
#290 = DIRECTION ( 'NONE',  ( -2.445223240622387843E-29, 3.491833002705725887E-15, 1.000000000000000000 ) ) ;
#291 = CARTESIAN_POINT ( 'NONE',  ( -0.0002500000000000007099, 5.630013658884544992E-17, -2.026845482897368931E-31 ) ) ;
#292 = CARTESIAN_POINT ( 'NONE',  ( 2.368436538790305238E-29, -3.381499676669586913E-15, -0.9685000000000002496 ) ) ;
#293 = EDGE_CURVE ( 'NONE', #278, #333, #231, .T. ) ;
#294 = APPROVAL_PERSON_ORGANIZATION ( #62, #95, #284 ) ;
#295 = ORIENTED_EDGE ( 'NONE', *, *, #187, .T. ) ;
#296 = DIRECTION ( 'NONE',  ( 1.000000000000000000, -6.982962677686265133E-15, 0.000000000000000000 ) ) ;
#297 = SHAPE_DEFINITION_REPRESENTATION ( #334, #173 ) ;
#298 = DIRECTION ( 'NONE',  ( 1.000000000000000000, -6.982962677686265922E-15, 4.876176775795935793E-29 ) ) ;
#299 = DIRECTION ( 'NONE',  ( -2.445468806185136597E-29, 3.491481338843145583E-15, 1.000000000000000000 ) ) ;
#300 = AXIS2_PLACEMENT_3D ( 'NONE', #374, #106, #201 ) ;
#301 = CC_DESIGN_SECURITY_CLASSIFICATION ( #37, ( #205 ) ) ;
#302 = FACE_OUTER_BOUND ( 'NONE', #83, .T. ) ;
#303 = CARTESIAN_POINT ( 'NONE',  ( 0.03150000000000011818, -3.599717260347283931E-15, -0.9680000000000001936 ) ) ;
#304 = CARTESIAN_POINT ( 'NONE',  ( 7.642090019328602662E-31, -1.091087918388490267E-16, -0.03125000000000020817 ) ) ;
#305 = CLOSED_SHELL ( 'NONE', ( #90, #279, #311, #246, #40, #370, #337, #342 ) ) ;
#306 = PERSON_AND_ORGANIZATION_ROLE ( 'classification_officer' ) ;
#307 = VERTEX_POINT ( 'NONE', #50 ) ;
#308 = EDGE_CURVE ( 'NONE', #278, #33, #315, .T. ) ;
#309 = ORIENTED_EDGE ( 'NONE', *, *, #87, .F. ) ;
#310 = LOCAL_TIME ( 22, 49, 58.00000000000000000, #289 ) ;
#311 = ADVANCED_FACE ( 'NONE', ( #144 ), #16, .T. ) ;
#312 = EDGE_LOOP ( 'NONE', ( #360, #157, #354 ) ) ;
#313 = APPROVAL_ROLE ( '' ) ;
#314 = PERSON_AND_ORGANIZATION ( #149, #65 ) ;
#315 = CIRCLE ( 'NONE', #23, 0.03150000000000011818 ) ;
#316 = ORIENTED_EDGE ( 'NONE', *, *, #25, .T. ) ;
#317 = CARTESIAN_POINT ( 'NONE',  ( 2.368436538790305238E-29, -3.381499676669586913E-15, -0.9685000000000002496 ) ) ;
#318 = ORIENTED_EDGE ( 'NONE', *, *, #385, .F. ) ;
#319 = DIRECTION ( 'NONE',  ( 1.000000000000000000, -6.982962677686265922E-15, 4.876176775795935232E-29 ) ) ;
#320 = CALENDAR_DATE ( 2024, 22, 4 ) ;
#321 = AXIS2_PLACEMENT_3D ( 'NONE', #164, #77, #264 ) ;
#322 = CIRCLE ( 'NONE', #238, 0.03150000000000000716 ) ;
#323 = CARTESIAN_POINT ( 'NONE',  ( -0.03150000000000000716, 1.108545325082683979E-16, -0.03125000000000020817 ) ) ;
#324 =( LENGTH_UNIT ( ) NAMED_UNIT ( * ) SI_UNIT ( $, .METRE. ) );
#325 = FACE_OUTER_BOUND ( 'NONE', #179, .T. ) ;
#326 = CC_DESIGN_PERSON_AND_ORGANIZATION_ASSIGNMENT ( #59, #389, ( #205 ) ) ;
#327 = CARTESIAN_POINT ( 'NONE',  ( 2.367213804387212436E-29, -3.379753936000165804E-15, -0.9680000000000001936 ) ) ;
#328 = AXIS2_PLACEMENT_3D ( 'NONE', #317, #287, #343 ) ;
#329 = CIRCLE ( 'NONE', #388, 0.03100000000000009345 ) ;
#330 = DIRECTION ( 'NONE',  ( 1.000000000000000000, -6.982962677686260400E-15, 0.000000000000000000 ) ) ;
#331 = VECTOR ( 'NONE', #14, 39.37007874015748143 ) ;
#332 = ORIENTED_EDGE ( 'NONE', *, *, #228, .T. ) ;
#333 = VERTEX_POINT ( 'NONE', #276 ) ;
#334 = PRODUCT_DEFINITION_SHAPE ( 'NONE', 'NONE',  #10 ) ;
#335 = PERSON_AND_ORGANIZATION ( #149, #65 ) ;
#336 = ORIENTED_EDGE ( 'NONE', *, *, #203, .T. ) ;
#337 = ADVANCED_FACE ( 'NONE', ( #121 ), #270, .T. ) ;
#338 = AXIS2_PLACEMENT_3D ( 'NONE', #258, #372, #102 ) ;
#339 = ORIENTED_EDGE ( 'NONE', *, *, #29, .T. ) ;
#340 = EDGE_LOOP ( 'NONE', ( #160, #362, #255, #7 ) ) ;
#341 = CONICAL_SURFACE ( 'NONE', #181, 65.52281426576985268, 1.029744258676664082 ) ;
#342 = ADVANCED_FACE ( 'NONE', ( #302 ), #24, .F. ) ;
#343 = DIRECTION ( 'NONE',  ( 6.982962677686265922E-15, 1.000000000000000000, -3.491833002705725887E-15 ) ) ;
#344 = CARTESIAN_POINT ( 'NONE',  ( 0.0002500000000000007099, -1.634648016340489405E-16, 5.768479764784411865E-31 ) ) ;
#345 = EDGE_LOOP ( 'NONE', ( #295, #332 ) ) ;
#346 = DIRECTION ( 'NONE',  ( -2.445223240622387843E-29, 3.491833002705725887E-15, 1.000000000000000000 ) ) ;
#347 = AXIS2_PLACEMENT_3D ( 'NONE', #75, #229, #265 ) ;
#348 = LENGTH_MEASURE_WITH_UNIT ( LENGTH_MEASURE( 0.02539999999999999897 ), #324 );
#349 = DIRECTION ( 'NONE',  ( 1.000000000000000000, -6.982962677686265922E-15, 4.876176775795935793E-29 ) ) ;
#350 = CC_DESIGN_PERSON_AND_ORGANIZATION_ASSIGNMENT ( #96, #359, ( #205 ) ) ;
#351 = APPLICATION_PROTOCOL_DEFINITION ( 'international standard', 'config_control_design', 1994, #178 ) ;
#352 = LINE ( 'NONE', #49, #151 ) ;
#353 = DIRECTION ( 'NONE',  ( -2.445223240622387843E-29, 3.491833002705725887E-15, 1.000000000000000000 ) ) ;
#354 = ORIENTED_EDGE ( 'NONE', *, *, #285, .F. ) ;
#355 = CC_DESIGN_PERSON_AND_ORGANIZATION_ASSIGNMENT ( #8, #363, ( #10 ) ) ;
#356 = CARTESIAN_POINT ( 'NONE',  ( 7.642090019328602662E-31, -1.091087918388490267E-16, -0.03125000000000020817 ) ) ;
#357 = DIRECTION ( 'NONE',  ( -2.445468806185136597E-29, 3.491481338843145583E-15, 1.000000000000000000 ) ) ;
#358 = DESIGN_CONTEXT ( 'detailed design', #67, 'design' ) ;
#359 = PERSON_AND_ORGANIZATION_ROLE ( 'creator' ) ;
#360 = ORIENTED_EDGE ( 'NONE', *, *, #158, .F. ) ;
#361 = VECTOR ( 'NONE', #48, 39.37007874015748143 ) ;
#362 = ORIENTED_EDGE ( 'NONE', *, *, #308, .T. ) ;
#363 = PERSON_AND_ORGANIZATION_ROLE ( 'creator' ) ;
#364 = ORIENTED_EDGE ( 'NONE', *, *, #210, .T. ) ;
#365 = APPROVAL_STATUS ( 'not_yet_approved' ) ;
#366 = ORIENTED_EDGE ( 'NONE', *, *, #17, .T. ) ;
#367 = ORIENTED_EDGE ( 'NONE', *, *, #203, .F. ) ;
#368 = VECTOR ( 'NONE', #376, 39.37007874015748143 ) ;
#369 = DIRECTION ( 'NONE',  ( -2.445468806185136877E-29, 3.491481338843145188E-15, 1.000000000000000000 ) ) ;
#370 = ADVANCED_FACE ( 'NONE', ( #28 ), #146, .T. ) ;
#371 = CYLINDRICAL_SURFACE ( 'NONE', #382, 0.03150000000000000022 ) ;
#372 = DIRECTION ( 'NONE',  ( 0.000000000000000000, 0.000000000000000000, 1.000000000000000000 ) ) ;
#373 = CARTESIAN_POINT ( 'NONE',  ( 0.03150000000000000716, -3.290721161859664389E-16, -0.03125000000000020817 ) ) ;
#374 = CARTESIAN_POINT ( 'NONE',  ( 7.642090019328602662E-31, -1.091087918388490267E-16, -0.03125000000000020817 ) ) ;
#375 = DIRECTION ( 'NONE',  ( 1.000000000000000000, -6.982962677686265133E-15, 0.000000000000000000 ) ) ;
#376 = DIRECTION ( 'NONE',  ( 0.7071067811865414665, -2.468850131082193557E-15, 0.7071067811865535679 ) ) ;
#377 = FACE_OUTER_BOUND ( 'NONE', #5, .T. ) ;
#378 = EDGE_CURVE ( 'NONE', #333, #247, #322, .T. ) ;
#379 = CYLINDRICAL_SURFACE ( 'NONE', #239, 0.03150000000000006267 ) ;
#380 = DIRECTION ( 'NONE',  ( -2.445223240622387843E-29, 3.491833002705725887E-15, 1.000000000000000000 ) ) ;
#381 = VERTEX_POINT ( 'NONE', #168 ) ;
#382 = AXIS2_PLACEMENT_3D ( 'NONE', #101, #290, #74 ) ;
#383 = DIRECTION ( 'NONE',  ( -6.982962677686265922E-15, -1.000000000000000000, 4.336266656609941617E-15 ) ) ;
#384 = CARTESIAN_POINT ( 'NONE',  ( 2.368436538790305238E-29, -3.381499676669586913E-15, -0.9685000000000002496 ) ) ;
#385 = EDGE_CURVE ( 'NONE', #307, #244, #139, .T. ) ;
#386 = ORIENTED_EDGE ( 'NONE', *, *, #29, .F. ) ;
#387 = DIRECTION ( 'NONE',  ( 2.445468806185136597E-29, -3.491481338843145583E-15, -1.000000000000000000 ) ) ;
#388 = AXIS2_PLACEMENT_3D ( 'NONE', #292, #169, #51 ) ;
#389 = PERSON_AND_ORGANIZATION_ROLE ( 'design_supplier' ) ;
#390 = VERTEX_POINT ( 'NONE', #291 ) ;
ENDSEC;
END-ISO-10303-21;
