ISO-10303-21;
HEADER;
FILE_DESCRIPTION (( 'STEP AP203' ),
    '1' );
FILE_NAME ('61104.STEP',
    '2024-04-23T04:00:26',
    ( '' ),
    ( '' ),
    'SwSTEP 2.0',
    'SolidWorks 2023',
    '' );
FILE_SCHEMA (( 'CONFIG_CONTROL_DESIGN' ));
ENDSEC;

DATA;
#1 = APPROVAL_ROLE ( '' ) ;
#2 = VECTOR ( 'NONE', #288, 39.37007874015748143 ) ;
#3 = DIRECTION ( 'NONE',  ( -2.445468806185136877E-29, 3.491481338843145188E-15, 1.000000000000000000 ) ) ;
#4 = CIRCLE ( 'NONE', #144, 0.1496000000000000107 ) ;
#5 = COORDINATED_UNIVERSAL_TIME_OFFSET ( 5, 0, .BEHIND. ) ;
#6 = EDGE_LOOP ( 'NONE', ( #17, #182, #137 ) ) ;
#7 = CARTESIAN_POINT ( 'NONE',  ( 0.1496000000000000107, -1.153760008420714504E-15, -0.03125000000000019429 ) ) ;
#8 = DATE_AND_TIME ( #37, #320 ) ;
#9 = ADVANCED_FACE ( 'NONE', ( #21 ), #319, .F. ) ;
#10 = ORIENTED_EDGE ( 'NONE', *, *, #172, .T. ) ;
#11 = EDGE_LOOP ( 'NONE', ( #202, #313 ) ) ;
#12 = DIRECTION ( 'NONE',  ( -2.445468806185136597E-29, 3.491481338843145583E-15, 1.000000000000000000 ) ) ;
#13 = CYLINDRICAL_SURFACE ( 'NONE', #290, 0.1495999999999999830 ) ;
#14 = CIRCLE ( 'NONE', #121, 0.1491000000000003434 ) ;
#15 = VERTEX_POINT ( 'NONE', #174 ) ;
#16 = CARTESIAN_POINT ( 'NONE',  ( 4.774044203434623681E-29, -6.816069869689588324E-15, -1.952199999999999935 ) ) ;
#17 = ORIENTED_EDGE ( 'NONE', *, *, #72, .F. ) ;
#18 = ORIENTED_EDGE ( 'NONE', *, *, #238, .F. ) ;
#19 = FACE_OUTER_BOUND ( 'NONE', #140, .T. ) ;
#20 = AXIS2_PLACEMENT_3D ( 'NONE', #256, #378, #103 ) ;
#21 = FACE_OUTER_BOUND ( 'NONE', #270, .T. ) ;
#22 = DIRECTION ( 'NONE',  ( 1.000000000000000000, -6.982962677686269866E-15, 0.000000000000000000 ) ) ;
#23 = EDGE_CURVE ( 'NONE', #223, #90, #325, .T. ) ;
#24 = CYLINDRICAL_SURFACE ( 'NONE', #151, 0.1496000000000001218 ) ;
#25 = CARTESIAN_POINT ( 'NONE',  ( 7.642090019328599159E-31, -1.091087918388489774E-16, -0.03125000000000019429 ) ) ;
#26 = ORIENTED_EDGE ( 'NONE', *, *, #196, .F. ) ;
#27 = DIRECTION ( 'NONE',  ( -6.982962677686265922E-15, -1.000000000000000000, 3.652203200085913934E-15 ) ) ;
#28 = CIRCLE ( 'NONE', #310, 0.1183500000000000107 ) ;
#29 = EDGE_LOOP ( 'NONE', ( #362, #188 ) ) ;
#30 = ADVANCED_FACE ( 'NONE', ( #219 ), #272, .T. ) ;
#31 = ORIENTED_EDGE ( 'NONE', *, *, #262, .F. ) ;
#32 = APPROVAL_STATUS ( 'not_yet_approved' ) ;
#33 = ORIENTED_EDGE ( 'NONE', *, *, #118, .T. ) ;
#34 = CONICAL_SURFACE ( 'NONE', #381, 0.1496000000000002605, 0.7853981633974824739 ) ;
#35 = DIRECTION ( 'NONE',  ( -5.985567269335945224E-15, -0.8571673007021108903, 0.5150380749100562650 ) ) ;
#36 = APPROVAL_ROLE ( '' ) ;
#37 = CALENDAR_DATE ( 2024, 23, 4 ) ;
#38 = CALENDAR_DATE ( 2024, 23, 4 ) ;
#39 = PERSON_AND_ORGANIZATION_ROLE ( 'classification_officer' ) ;
#40 = AXIS2_PLACEMENT_3D ( 'NONE', #297, #304, #369 ) ;
#41 = AXIS2_PLACEMENT_3D ( 'NONE', #49, #311, #97 ) ;
#42 = FACE_OUTER_BOUND ( 'NONE', #123, .T. ) ;
#43 = DIRECTION ( 'NONE',  ( -2.445468806185136597E-29, 3.491481338843145583E-15, 1.000000000000000000 ) ) ;
#44 = SHAPE_DEFINITION_REPRESENTATION ( #141, #291 ) ;
#45 = AXIS2_PLACEMENT_3D ( 'NONE', #261, #145, #314 ) ;
#46 = LOCAL_TIME ( 0, 0, 26.00000000000000000, #5 ) ;
#47 = FACE_OUTER_BOUND ( 'NONE', #249, .T. ) ;
#48 = ADVANCED_FACE ( 'NONE', ( #367 ), #329, .F. ) ;
#49 = CARTESIAN_POINT ( 'NONE',  ( 7.642090019328599159E-31, -1.091087918388489774E-16, -0.03125000000000019429 ) ) ;
#50 = CARTESIAN_POINT ( 'NONE',  ( 7.273621853509353429E-29, -3.240029173586242203E-15, -1.952700000000000102 ) ) ;
#51 = EDGE_CURVE ( 'NONE', #303, #363, #267, .T. ) ;
#52 =( NAMED_UNIT ( * ) PLANE_ANGLE_UNIT ( ) SI_UNIT ( $, .RADIAN. ) );
#53 = AXIS2_PLACEMENT_3D ( 'NONE', #176, #109, #105 ) ;
#54 = LOCAL_TIME ( 0, 0, 26.00000000000000000, #368 ) ;
#55 = CARTESIAN_POINT ( 'NONE',  ( -0.1496000000000000107, 9.355424247430165002E-16, -0.03125000000000019429 ) ) ;
#56 = CARTESIAN_POINT ( 'NONE',  ( -1.044651216581817678E-15, -0.1496000000000068109, -1.952699999999999658 ) ) ;
#57 = CARTESIAN_POINT ( 'NONE',  ( -1.044651216581754569E-15, -0.1496000000000157204, -4.516411251393476434 ) ) ;
#58 = APPLICATION_PROTOCOL_DEFINITION ( 'international standard', 'config_control_design', 1994, #178 ) ;
#59 = ORIENTED_EDGE ( 'NONE', *, *, #357, .T. ) ;
#60 = CARTESIAN_POINT ( 'NONE',  ( 0.1496000000000000107, -1.135439292305470348E-15, -0.03125000000000019429 ) ) ;
#61 = VERTEX_POINT ( 'NONE', #222 ) ;
#62 = CALENDAR_DATE ( 2024, 23, 4 ) ;
#63 = ORIENTED_EDGE ( 'NONE', *, *, #124, .F. ) ;
#64 = CLOSED_SHELL ( 'NONE', ( #324, #214, #279, #257, #9 ) ) ;
#65 = AXIS2_PLACEMENT_3D ( 'NONE', #240, #237, #139 ) ;
#66 = ORIENTED_EDGE ( 'NONE', *, *, #190, .T. ) ;
#67 = DIRECTION ( 'NONE',  ( -2.445451499097378923E-29, 3.491506123577872836E-15, 1.000000000000000000 ) ) ;
#68 = DATE_TIME_ROLE ( 'classification_date' ) ;
#69 = VECTOR ( 'NONE', #241, 39.37007874015748854 ) ;
#70 = VECTOR ( 'NONE', #258, 39.37007874015748143 ) ;
#71 = CARTESIAN_POINT ( 'NONE',  ( 4.775266937837716483E-29, -6.817815610359010617E-15, -1.952700000000000102 ) ) ;
#72 = EDGE_CURVE ( 'NONE', #115, #113, #331, .T. ) ;
#73 = APPROVAL_STATUS ( 'not_yet_approved' ) ;
#74 = LOCAL_TIME ( 0, 0, 26.00000000000000000, #122 ) ;
#75 = PLANE ( 'NONE',  #128 ) ;
#76 = EDGE_CURVE ( 'NONE', #113, #148, #101, .T. ) ;
#77 = DIRECTION ( 'NONE',  ( -2.445468806185136597E-29, 3.491481338843145583E-15, 1.000000000000000000 ) ) ;
#78 = EDGE_LOOP ( 'NONE', ( #264, #187, #66, #216 ) ) ;
#79 = DIRECTION ( 'NONE',  ( -2.445468806185136597E-29, 3.491481338843145583E-15, 1.000000000000000000 ) ) ;
#80 = CC_DESIGN_APPROVAL ( #242, ( #135 ) ) ;
#81 = DESIGN_CONTEXT ( 'detailed design', #201, 'design' ) ;
#82 = DIRECTION ( 'NONE',  ( -2.445468806185136597E-29, 3.491481338843145583E-15, 1.000000000000000000 ) ) ;
#83 =( LENGTH_UNIT ( ) NAMED_UNIT ( * ) SI_UNIT ( $, .METRE. ) );
#84 = CARTESIAN_POINT ( 'NONE',  ( 1.126448324029225808E-28, -1.608292465703675739E-14, -4.606300000000000061 ) ) ;
#85 = VERTEX_POINT ( 'NONE', #275 ) ;
#86 = DIRECTION ( 'NONE',  ( -1.000000000000000000, 6.982962677686266711E-15, 0.000000000000000000 ) ) ;
#87 = ORIENTED_EDGE ( 'NONE', *, *, #190, .F. ) ;
#88 = CC_DESIGN_SECURITY_CLASSIFICATION ( #312, ( #135 ) ) ;
#89 = LINE ( 'NONE', #337, #366 ) ;
#90 = VERTEX_POINT ( 'NONE', #7 ) ;
#91 = CALENDAR_DATE ( 2024, 23, 4 ) ;
#92 = ORIENTED_EDGE ( 'NONE', *, *, #262, .T. ) ;
#93 = SECURITY_CLASSIFICATION_LEVEL ( 'unclassified' ) ;
#94 = AXIS2_PLACEMENT_3D ( 'NONE', #131, #43, #344 ) ;
#95 = DATE_TIME_ROLE ( 'creation_date' ) ;
#96 = CARTESIAN_POINT ( 'NONE',  ( 4.774044203434623681E-29, -6.816069869689588324E-15, -1.952199999999999935 ) ) ;
#97 = DIRECTION ( 'NONE',  ( -1.000000000000000000, 6.982962677686266711E-15, 0.000000000000000000 ) ) ;
#98 = DIRECTION ( 'NONE',  ( -2.445451499097378923E-29, 3.491506123577872836E-15, 1.000000000000000000 ) ) ;
#99 = EDGE_CURVE ( 'NONE', #183, #363, #143, .T. ) ;
#100 = DIRECTION ( 'NONE',  ( -2.445451499097378923E-29, 3.491506123577872836E-15, 1.000000000000000000 ) ) ;
#101 = CIRCLE ( 'NONE', #374, 0.1495999999999999830 ) ;
#102 = LOCAL_TIME ( 0, 0, 26.00000000000000000, #342 ) ;
#103 = DIRECTION ( 'NONE',  ( 1.000000000000000000, -6.982962677686266711E-15, 4.876195622681500975E-29 ) ) ;
#104 = DIRECTION ( 'NONE',  ( 1.000000000000000000, -6.982962677686266711E-15, 4.876195622681500975E-29 ) ) ;
#105 = DIRECTION ( 'NONE',  ( 6.982962677686265922E-15, 1.000000000000000000, -3.491506123577872836E-15 ) ) ;
#106 = CARTESIAN_POINT ( 'NONE',  ( 0.1496000000000001218, -1.044651216581866390E-15, 7.294760456590725932E-30 ) ) ;
#107 = FACE_OUTER_BOUND ( 'NONE', #225, .T. ) ;
#108 = ORIENTED_EDGE ( 'NONE', *, *, #340, .T. ) ;
#109 = DIRECTION ( 'NONE',  ( 2.445451499097378642E-29, -3.491506123577872836E-15, -1.000000000000000000 ) ) ;
#110 = CARTESIAN_POINT ( 'NONE',  ( 1.062971932697219803E-15, 0.1495999999999841901, -4.516411251393477322 ) ) ;
#111 = DIRECTION ( 'NONE',  ( -2.445468806185136597E-29, 3.491481338843145583E-15, 1.000000000000000000 ) ) ;
#112 = CIRCLE ( 'NONE', #20, 0.1183500000000000107 ) ;
#113 = VERTEX_POINT ( 'NONE', #57 ) ;
#114 = CARTESIAN_POINT ( 'NONE',  ( -0.1496000000000001218, 1.062971932697110743E-15, -7.358726895021345767E-30 ) ) ;
#115 = VERTEX_POINT ( 'NONE', #84 ) ;
#116 = DIRECTION ( 'NONE',  ( -6.982962677686265922E-15, -1.000000000000000000, 3.652203200085913934E-15 ) ) ;
#117 = ORIENTED_EDGE ( 'NONE', *, *, #72, .T. ) ;
#118 = EDGE_CURVE ( 'NONE', #15, #221, #155, .T. ) ;
#119 = CIRCLE ( 'NONE', #339, 0.1496000000000000107 ) ;
#120 = APPROVAL_STATUS ( 'not_yet_approved' ) ;
#121 = AXIS2_PLACEMENT_3D ( 'NONE', #315, #166, #213 ) ;
#122 = COORDINATED_UNIVERSAL_TIME_OFFSET ( 5, 0, .BEHIND. ) ;
#123 = EDGE_LOOP ( 'NONE', ( #150, #59, #268, #327 ) ) ;
#124 = EDGE_CURVE ( 'NONE', #85, #183, #347, .T. ) ;
#125 = PERSON_AND_ORGANIZATION ( #136, #247 ) ;
#126 = ORIENTED_EDGE ( 'NONE', *, *, #281, .F. ) ;
#127 = APPROVAL_DATE_TIME ( #156, #356 ) ;
#128 = AXIS2_PLACEMENT_3D ( 'NONE', #50, #138, #146 ) ;
#129 = VECTOR ( 'NONE', #3, 39.37007874015748143 ) ;
#130 = CC_DESIGN_DATE_AND_TIME_ASSIGNMENT ( #338, #68, ( #312 ) ) ;
#131 = CARTESIAN_POINT ( 'NONE',  ( 4.775266937837715922E-29, -6.817815610359009828E-15, -1.952699999999999880 ) ) ;
#132 = DIRECTION ( 'NONE',  ( -2.445451499097378923E-29, 3.491506123577872836E-15, 1.000000000000000000 ) ) ;
#133 = PERSON_AND_ORGANIZATION_ROLE ( 'creator' ) ;
#134 = AXIS2_PLACEMENT_3D ( 'NONE', #326, #79, #384 ) ;
#135 = PRODUCT_DEFINITION_FORMATION_WITH_SPECIFIED_SOURCE ( 'ANY', '', #245, .NOT_KNOWN. ) ;
#136 = PERSON ( 'UNSPECIFIED', 'UNSPECIFIED', 'UNSPECIFIED', ('UNSPECIFIED'), ('UNSPECIFIED'), ('UNSPECIFIED') ) ;
#137 = ORIENTED_EDGE ( 'NONE', *, *, #76, .F. ) ;
#138 = DIRECTION ( 'NONE',  ( -2.438088387897960049E-29, 3.491481338843145188E-15, 1.000000000000000000 ) ) ;
#139 = DIRECTION ( 'NONE',  ( 1.000000000000000000, 0.000000000000000000, 0.000000000000000000 ) ) ;
#140 = EDGE_LOOP ( 'NONE', ( #63, #332, #287, #167 ) ) ;
#141 = PRODUCT_DEFINITION_SHAPE ( 'NONE', 'NONE',  #306 ) ;
#142 = DIRECTION ( 'NONE',  ( -2.445468806185136877E-29, 3.491481338843145188E-15, 1.000000000000000000 ) ) ;
#143 = CIRCLE ( 'NONE', #365, 0.1496000000000002605 ) ;
#144 = AXIS2_PLACEMENT_3D ( 'NONE', #71, #67, #160 ) ;
#145 = DIRECTION ( 'NONE',  ( -2.445451499097378923E-29, 3.491506123577872836E-15, 1.000000000000000000 ) ) ;
#146 = DIRECTION ( 'NONE',  ( 1.000000000000000000, -6.982962677686265922E-15, 4.876176775795935793E-29 ) ) ;
#147 = DIRECTION ( 'NONE',  ( -2.445451499097378923E-29, 3.491506123577872836E-15, 1.000000000000000000 ) ) ;
#148 = VERTEX_POINT ( 'NONE', #110 ) ;
#149 = FACE_OUTER_BOUND ( 'NONE', #6, .T. ) ;
#150 = ORIENTED_EDGE ( 'NONE', *, *, #248, .F. ) ;
#151 = AXIS2_PLACEMENT_3D ( 'NONE', #212, #111, #386 ) ;
#152 = DIRECTION ( 'NONE',  ( 0.7071067811865715536, -2.468850131082509496E-15, 0.7071067811865232589 ) ) ;
#153 = VERTEX_POINT ( 'NONE', #236 ) ;
#154 = PRODUCT_RELATED_PRODUCT_CATEGORY ( 'detail', '', ( #245 ) ) ;
#155 = CIRCLE ( 'NONE', #301, 0.1496000000000000107 ) ;
#156 = DATE_AND_TIME ( #91, #54 ) ;
#157 = DIRECTION ( 'NONE',  ( -2.445451499097378923E-29, 3.491506123577872836E-15, 1.000000000000000000 ) ) ;
#158 = DATE_AND_TIME ( #38, #102 ) ;
#159 = CALENDAR_DATE ( 2024, 23, 4 ) ;
#160 = DIRECTION ( 'NONE',  ( -6.982962677686265922E-15, -1.000000000000000000, 3.652203200085913145E-15 ) ) ;
#161 = CONICAL_SURFACE ( 'NONE', #45, 65.52281426576857370, 1.029744258676655422 ) ;
#162 = CARTESIAN_POINT ( 'NONE',  ( -0.1496000000000002605, -5.753097936992477187E-15, -1.952199999999999935 ) ) ;
#163 = CC_DESIGN_PERSON_AND_ORGANIZATION_ASSIGNMENT ( #307, #305, ( #135 ) ) ;
#164 = ADVANCED_FACE ( 'NONE', ( #263 ), #75, .F. ) ;
#165 = CARTESIAN_POINT ( 'NONE',  ( 4.774044203434623681E-29, -6.816069869689588324E-15, -1.952199999999999935 ) ) ;
#166 = DIRECTION ( 'NONE',  ( -2.445468806185136597E-29, 3.491481338843145583E-15, 1.000000000000000000 ) ) ;
#167 = ORIENTED_EDGE ( 'NONE', *, *, #99, .F. ) ;
#168 = EDGE_CURVE ( 'NONE', #363, #183, #345, .T. ) ;
#169 = CONICAL_SURFACE ( 'NONE', #282, 0.1496000000000002605, 0.7853981633974824739 ) ;
#170 = FACE_OUTER_BOUND ( 'NONE', #364, .T. ) ;
#171 = FACE_OUTER_BOUND ( 'NONE', #266, .T. ) ;
#172 = EDGE_CURVE ( 'NONE', #61, #90, #277, .T. ) ;
#173 = CARTESIAN_POINT ( 'NONE',  ( 4.775266937837716483E-29, -6.817815610359010617E-15, -1.952700000000000102 ) ) ;
#174 = CARTESIAN_POINT ( 'NONE',  ( 1.062971932697220987E-15, 0.1495999999999932106, -1.952700000000000768 ) ) ;
#175 = DIRECTION ( 'NONE',  ( 1.000000000000000000, -6.982962677686269866E-15, 0.000000000000000000 ) ) ;
#176 = CARTESIAN_POINT ( 'NONE',  ( 4.775266937837716483E-29, -6.817815610359010617E-15, -1.952700000000000102 ) ) ;
#177 = LINE ( 'NONE', #114, #129 ) ;
#178 = APPLICATION_CONTEXT ( 'configuration controlled 3d designs of mechanical parts and assemblies' ) ;
#179 = ORIENTED_EDGE ( 'NONE', *, *, #172, .F. ) ;
#180 = AXIS2_PLACEMENT_3D ( 'NONE', #191, #199, #284 ) ;
#181 = CARTESIAN_POINT ( 'NONE',  ( 7.642090019328599159E-31, -1.091087918388489774E-16, -0.03125000000000019429 ) ) ;
#182 = ORIENTED_EDGE ( 'NONE', *, *, #281, .T. ) ;
#183 = VERTEX_POINT ( 'NONE', #162 ) ;
#184 = ORIENTED_EDGE ( 'NONE', *, *, #168, .F. ) ;
#185 = DATE_AND_TIME ( #62, #74 ) ;
#186 = CARTESIAN_POINT ( 'NONE',  ( 1.126448324029225808E-28, -1.608292465703675424E-14, -4.606300000000000061 ) ) ;
#187 = ORIENTED_EDGE ( 'NONE', *, *, #23, .T. ) ;
#188 = ORIENTED_EDGE ( 'NONE', *, *, #299, .F. ) ;
#189 = APPROVAL ( #32, 'UNSPECIFIED' ) ;
#190 = EDGE_CURVE ( 'NONE', #90, #61, #119, .T. ) ;
#191 = CARTESIAN_POINT ( 'NONE',  ( -8.501310103885744066E-28, 1.213779947471176213E-13, 34.76377874015748404 ) ) ;
#192 = APPROVAL_DATE_TIME ( #8, #242 ) ;
#193 = PERSON_AND_ORGANIZATION ( #136, #247 ) ;
#194 = VECTOR ( 'NONE', #243, 39.37007874015748143 ) ;
#195 = AXIS2_PLACEMENT_3D ( 'NONE', #343, #98, #197 ) ;
#196 = EDGE_CURVE ( 'NONE', #113, #221, #350, .T. ) ;
#197 = DIRECTION ( 'NONE',  ( -6.982962677686265922E-15, -1.000000000000000000, 3.652203200085913934E-15 ) ) ;
#198 = FACE_OUTER_BOUND ( 'NONE', #235, .T. ) ;
#199 = DIRECTION ( 'NONE',  ( -2.445451499097378923E-29, 3.491506123577872836E-15, 1.000000000000000000 ) ) ;
#200 = APPROVAL_PERSON_ORGANIZATION ( #125, #189, #1 ) ;
#201 = APPLICATION_CONTEXT ( 'configuration controlled 3d designs of mechanical parts and assemblies' ) ;
#202 = ORIENTED_EDGE ( 'NONE', *, *, #330, .T. ) ;
#203 = DIRECTION ( 'NONE',  ( -2.445468806185136597E-29, 3.491481338843145583E-15, 1.000000000000000000 ) ) ;
#204 = DIRECTION ( 'NONE',  ( 1.000000000000000000, -6.982962677686266711E-15, 4.876176775795935793E-29 ) ) ;
#205 = ORIENTED_EDGE ( 'NONE', *, *, #51, .F. ) ;
#206 = CARTESIAN_POINT ( 'NONE',  ( 4.775266937837716483E-29, -6.817815610359010617E-15, -1.952700000000000102 ) ) ;
#207 = DIRECTION ( 'NONE',  ( -0.7071067811865452413, 2.468850131082233000E-15, -0.7071067811865497932 ) ) ;
#208 = CARTESIAN_POINT ( 'NONE',  ( -1.044651216581817480E-15, -0.1496000000000068109, -1.952699999999999658 ) ) ;
#209 = CIRCLE ( 'NONE', #94, 0.1491000000000003434 ) ;
#210 = DIRECTION ( 'NONE',  ( 1.000000000000000000, -6.982962677686269866E-15, 0.000000000000000000 ) ) ;
#211 = LENGTH_MEASURE_WITH_UNIT ( LENGTH_MEASURE( 0.02539999999999999897 ), #83 );
#212 = CARTESIAN_POINT ( 'NONE',  ( 0.000000000000000000, 0.000000000000000000, 0.000000000000000000 ) ) ;
#213 = DIRECTION ( 'NONE',  ( 1.000000000000000000, -6.982962677686262766E-15, 0.000000000000000000 ) ) ;
#214 = ADVANCED_FACE ( 'NONE', ( #149 ), #161, .T. ) ;
#215 = CLOSED_SHELL ( 'NONE', ( #30, #224, #375, #164, #232, #294, #373, #48 ) ) ;
#216 = ORIENTED_EDGE ( 'NONE', *, *, #322, .F. ) ;
#217 = VECTOR ( 'NONE', #207, 39.37007874015748143 ) ;
#218 = ORIENTED_EDGE ( 'NONE', *, *, #330, .F. ) ;
#219 = FACE_OUTER_BOUND ( 'NONE', #78, .T. ) ;
#220 = PERSON_AND_ORGANIZATION_ROLE ( 'creator' ) ;
#221 = VERTEX_POINT ( 'NONE', #56 ) ;
#222 = CARTESIAN_POINT ( 'NONE',  ( -0.1496000000000000107, -2.399617398067107180E-15, -0.03125000000000019429 ) ) ;
#223 = VERTEX_POINT ( 'NONE', #285 ) ;
#224 = ADVANCED_FACE ( 'NONE', ( #171 ), #24, .T. ) ;
#225 = EDGE_LOOP ( 'NONE', ( #31, #349, #274, #179 ) ) ;
#226 = EDGE_LOOP ( 'NONE', ( #126, #117, #382 ) ) ;
#227 = DIRECTION ( 'NONE',  ( -2.445468806185136597E-29, 3.491481338843145583E-15, 1.000000000000000000 ) ) ;
#228 = PERSON_AND_ORGANIZATION ( #136, #247 ) ;
#229 =( GEOMETRIC_REPRESENTATION_CONTEXT ( 3 ) GLOBAL_UNCERTAINTY_ASSIGNED_CONTEXT ( ( #308 ) ) GLOBAL_UNIT_ASSIGNED_CONTEXT ( ( #361, #52, #293 ) ) REPRESENTATION_CONTEXT ( 'NONE', 'WORKASPACE' ) );
#230 = APPROVAL_ROLE ( '' ) ;
#231 = CARTESIAN_POINT ( 'NONE',  ( -1.182960040634181779E-47, 1.688953421129301742E-33, 4.837354856632036576E-19 ) ) ;
#232 = ADVANCED_FACE ( 'NONE', ( #19 ), #34, .T. ) ;
#233 = APPROVAL_PERSON_ORGANIZATION ( #298, #356, #36 ) ;
#234 = CYLINDRICAL_SURFACE ( 'NONE', #302, 0.1496000000000001218 ) ;
#235 = EDGE_LOOP ( 'NONE', ( #300, #218, #252, #10 ) ) ;
#236 = CARTESIAN_POINT ( 'NONE',  ( -0.1183500000000000107, 8.809880288235931332E-16, 4.837354856572334673E-19 ) ) ;
#237 = DIRECTION ( 'NONE',  ( 0.000000000000000000, 0.000000000000000000, 1.000000000000000000 ) ) ;
#238 = EDGE_CURVE ( 'NONE', #363, #90, #360, .T. ) ;
#239 = PERSON_AND_ORGANIZATION ( #136, #247 ) ;
#240 = CARTESIAN_POINT ( 'NONE',  ( 0.000000000000000000, 0.000000000000000000, 0.000000000000000000 ) ) ;
#241 = DIRECTION ( 'NONE',  ( -0.7071067811865715536, 7.493145998870439357E-15, 0.7071067811865232589 ) ) ;
#242 = APPROVAL ( #73, 'UNSPECIFIED' ) ;
#243 = DIRECTION ( 'NONE',  ( 0.7071067811865452413, -7.319954787623248157E-15, -0.7071067811865497932 ) ) ;
#244 = APPLICATION_PROTOCOL_DEFINITION ( 'international standard', 'config_control_design', 1994, #201 ) ;
#245 = PRODUCT ( '61104', '61104', '', ( #351 ) ) ;
#246 = VECTOR ( 'NONE', #35, 39.37007874015748854 ) ;
#247 = ORGANIZATION ( 'UNSPECIFIED', 'UNSPECIFIED', '' ) ;
#248 = EDGE_CURVE ( 'NONE', #148, #15, #89, .T. ) ;
#249 = EDGE_LOOP ( 'NONE', ( #108, #390, #184, #205 ) ) ;
#250 = CC_DESIGN_PERSON_AND_ORGANIZATION_ASSIGNMENT ( #239, #355, ( #245 ) ) ;
#251 = APPROVAL_DATE_TIME ( #185, #189 ) ;
#252 = ORIENTED_EDGE ( 'NONE', *, *, #322, .T. ) ;
#253 = CIRCLE ( 'NONE', #195, 0.1495999999999999830 ) ;
#254 = DIRECTION ( 'NONE',  ( -6.982962677686265922E-15, -1.000000000000000000, 3.652203200085913934E-15 ) ) ;
#255 = CONICAL_SURFACE ( 'NONE', #41, 0.1496000000000000107, 0.7853981633974450594 ) ;
#256 = CARTESIAN_POINT ( 'NONE',  ( -1.182960040634181779E-47, 1.688953421129301742E-33, 4.837354856632036576E-19 ) ) ;
#257 = ADVANCED_FACE ( 'NONE', ( #42 ), #13, .T. ) ;
#258 = DIRECTION ( 'NONE',  ( 6.090539988449783169E-15, 0.8571673007021145541, 0.5150380749100503808 ) ) ;
#259 = ORIENTED_EDGE ( 'NONE', *, *, #328, .F. ) ;
#260 = CC_DESIGN_APPROVAL ( #356, ( #306 ) ) ;
#261 = CARTESIAN_POINT ( 'NONE',  ( -8.501310103885744066E-28, 1.213779947471176213E-13, 34.76377874015748404 ) ) ;
#262 = EDGE_CURVE ( 'NONE', #183, #61, #177, .T. ) ;
#263 = FACE_OUTER_BOUND ( 'NONE', #29, .T. ) ;
#264 = ORIENTED_EDGE ( 'NONE', *, *, #372, .F. ) ;
#265 = AXIS2_PLACEMENT_3D ( 'NONE', #181, #273, #86 ) ;
#266 = EDGE_LOOP ( 'NONE', ( #316, #92, #87, #18 ) ) ;
#267 = LINE ( 'NONE', #269, #309 ) ;
#268 = ORIENTED_EDGE ( 'NONE', *, *, #196, .T. ) ;
#269 = CARTESIAN_POINT ( 'NONE',  ( 0.1496000000000002605, -7.860721086271455503E-15, -1.952199999999999935 ) ) ;
#270 = EDGE_LOOP ( 'NONE', ( #334, #33 ) ) ;
#271 = CARTESIAN_POINT ( 'NONE',  ( 4.775266937837716483E-29, -6.817815610359010617E-15, -1.952700000000000102 ) ) ;
#272 = CONICAL_SURFACE ( 'NONE', #265, 0.1496000000000000107, 0.7853981633974450594 ) ;
#273 = DIRECTION ( 'NONE',  ( 2.445468806185136597E-29, -3.491481338843145583E-15, -1.000000000000000000 ) ) ;
#274 = ORIENTED_EDGE ( 'NONE', *, *, #238, .T. ) ;
#275 = CARTESIAN_POINT ( 'NONE',  ( -0.1491000000000003434, -5.755747164166587599E-15, -1.952699999999999880 ) ) ;
#276 = PERSON_AND_ORGANIZATION ( #136, #247 ) ;
#277 = CIRCLE ( 'NONE', #134, 0.1496000000000000107 ) ;
#278 = CC_DESIGN_PERSON_AND_ORGANIZATION_ASSIGNMENT ( #228, #39, ( #312 ) ) ;
#279 = ADVANCED_FACE ( 'NONE', ( #336 ), #346, .T. ) ;
#280 = CC_DESIGN_PERSON_AND_ORGANIZATION_ASSIGNMENT ( #276, #133, ( #306 ) ) ;
#281 = EDGE_CURVE ( 'NONE', #115, #148, #379, .T. ) ;
#282 = AXIS2_PLACEMENT_3D ( 'NONE', #283, #227, #175 ) ;
#283 = CARTESIAN_POINT ( 'NONE',  ( 4.774044203434623681E-29, -6.816069869689588324E-15, -1.952199999999999935 ) ) ;
#284 = DIRECTION ( 'NONE',  ( -6.982962677686264344E-15, -1.000000000000000000, 3.468864327941586720E-15 ) ) ;
#285 = CARTESIAN_POINT ( 'NONE',  ( 0.1183500000000000107, -9.736896151708656170E-16, 4.837354856694975003E-19 ) ) ;
#286 = CARTESIAN_POINT ( 'NONE',  ( 1.126455142408695254E-28, -1.608282786273375157E-14, -4.606300000000000061 ) ) ;
#287 = ORIENTED_EDGE ( 'NONE', *, *, #51, .T. ) ;
#288 = DIRECTION ( 'NONE',  ( -2.445451499097378923E-29, 3.491506123577872836E-15, 1.000000000000000000 ) ) ;
#289 = CARTESIAN_POINT ( 'NONE',  ( 0.1491000000000003434, -7.858975345602033210E-15, -1.952699999999999880 ) ) ;
#290 = AXIS2_PLACEMENT_3D ( 'NONE', #271, #132, #254 ) ;
#291 = ADVANCED_BREP_SHAPE_REPRESENTATION ( '61104', ( #353, #359, #65 ), #229 ) ;
#292 = DIRECTION ( 'NONE',  ( -2.445468806185136597E-29, 3.491481338843145583E-15, 1.000000000000000000 ) ) ;
#293 =( NAMED_UNIT ( * ) SI_UNIT ( $, .STERADIAN. ) SOLID_ANGLE_UNIT ( ) );
#294 = ADVANCED_FACE ( 'NONE', ( #107 ), #234, .T. ) ;
#295 = AXIS2_PLACEMENT_3D ( 'NONE', #165, #354, #210 ) ;
#296 = CC_DESIGN_APPROVAL ( #189, ( #312 ) ) ;
#297 = CARTESIAN_POINT ( 'NONE',  ( -5.914800203170908895E-48, 8.444767105646508709E-34, 2.418677428316018288E-19 ) ) ;
#298 = PERSON_AND_ORGANIZATION ( #136, #247 ) ;
#299 = EDGE_CURVE ( 'NONE', #85, #303, #14, .T. ) ;
#300 = ORIENTED_EDGE ( 'NONE', *, *, #23, .F. ) ;
#301 = AXIS2_PLACEMENT_3D ( 'NONE', #206, #380, #318 ) ;
#302 = AXIS2_PLACEMENT_3D ( 'NONE', #348, #77, #204 ) ;
#303 = VERTEX_POINT ( 'NONE', #289 ) ;
#304 = DIRECTION ( 'NONE',  ( 2.438088387897960049E-29, -3.491481338843145188E-15, -1.000000000000000000 ) ) ;
#305 = PERSON_AND_ORGANIZATION_ROLE ( 'design_supplier' ) ;
#306 = PRODUCT_DEFINITION ( 'UNKNOWN', '', #135, #81 ) ;
#307 = PERSON_AND_ORGANIZATION ( #136, #247 ) ;
#308 = UNCERTAINTY_MEASURE_WITH_UNIT (LENGTH_MEASURE( 1.000000000000000082E-05 ), #361, 'distance_accuracy_value', 'NONE');
#309 = VECTOR ( 'NONE', #152, 39.37007874015748854 ) ;
#310 = AXIS2_PLACEMENT_3D ( 'NONE', #231, #12, #104 ) ;
#311 = DIRECTION ( 'NONE',  ( 2.445468806185136597E-29, -3.491481338843145583E-15, -1.000000000000000000 ) ) ;
#312 = SECURITY_CLASSIFICATION ( '', '', #93 ) ;
#313 = ORIENTED_EDGE ( 'NONE', *, *, #372, .T. ) ;
#314 = DIRECTION ( 'NONE',  ( -6.982962677686264344E-15, -1.000000000000000000, 3.468864327941586720E-15 ) ) ;
#315 = CARTESIAN_POINT ( 'NONE',  ( 4.775266937837715922E-29, -6.817815610359009828E-15, -1.952699999999999880 ) ) ;
#316 = ORIENTED_EDGE ( 'NONE', *, *, #168, .T. ) ;
#317 = CC_DESIGN_PERSON_AND_ORGANIZATION_ASSIGNMENT ( #370, #220, ( #135 ) ) ;
#318 = DIRECTION ( 'NONE',  ( -6.982962677686265922E-15, -1.000000000000000000, 3.652203200085913145E-15 ) ) ;
#319 = PLANE ( 'NONE',  #53 ) ;
#320 = LOCAL_TIME ( 0, 0, 26.00000000000000000, #377 ) ;
#321 = DIRECTION ( 'NONE',  ( 1.000000000000000000, -6.982962677686266711E-15, 0.000000000000000000 ) ) ;
#322 = EDGE_CURVE ( 'NONE', #153, #61, #352, .T. ) ;
#323 = DIRECTION ( 'NONE',  ( 1.000000000000000000, -6.982962677686269866E-15, 0.000000000000000000 ) ) ;
#324 = ADVANCED_FACE ( 'NONE', ( #170 ), #358, .T. ) ;
#325 = LINE ( 'NONE', #60, #194 ) ;
#326 = CARTESIAN_POINT ( 'NONE',  ( 7.642090019328599159E-31, -1.091087918388489774E-16, -0.03125000000000019429 ) ) ;
#327 = ORIENTED_EDGE ( 'NONE', *, *, #118, .F. ) ;
#328 = EDGE_CURVE ( 'NONE', #221, #15, #4, .T. ) ;
#329 = PLANE ( 'NONE',  #40 ) ;
#330 = EDGE_CURVE ( 'NONE', #153, #223, #28, .T. ) ;
#331 = LINE ( 'NONE', #186, #246 ) ;
#332 = ORIENTED_EDGE ( 'NONE', *, *, #299, .T. ) ;
#333 = AXIS2_PLACEMENT_3D ( 'NONE', #173, #147, #27 ) ;
#334 = ORIENTED_EDGE ( 'NONE', *, *, #328, .T. ) ;
#335 = CC_DESIGN_DATE_AND_TIME_ASSIGNMENT ( #158, #95, ( #306 ) ) ;
#336 = FACE_OUTER_BOUND ( 'NONE', #226, .T. ) ;
#337 = CARTESIAN_POINT ( 'NONE',  ( 1.062971932697157483E-15, 0.1495999999999931829, -1.952700000000000768 ) ) ;
#338 = DATE_AND_TIME ( #159, #46 ) ;
#339 = AXIS2_PLACEMENT_3D ( 'NONE', #25, #203, #321 ) ;
#340 = EDGE_CURVE ( 'NONE', #303, #85, #209, .T. ) ;
#341 = CARTESIAN_POINT ( 'NONE',  ( 0.1496000000000002605, -7.860721086271455503E-15, -1.952199999999999935 ) ) ;
#342 = COORDINATED_UNIVERSAL_TIME_OFFSET ( 5, 0, .BEHIND. ) ;
#343 = CARTESIAN_POINT ( 'NONE',  ( 1.104469846081071203E-28, -1.576902914368482918E-14, -4.516411251393477322 ) ) ;
#344 = DIRECTION ( 'NONE',  ( 1.000000000000000000, -6.982962677686262766E-15, 0.000000000000000000 ) ) ;
#345 = CIRCLE ( 'NONE', #295, 0.1496000000000002605 ) ;
#346 = CONICAL_SURFACE ( 'NONE', #180, 65.52281426576857370, 1.029744258676655422 ) ;
#347 = LINE ( 'NONE', #383, #69 ) ;
#348 = CARTESIAN_POINT ( 'NONE',  ( 0.000000000000000000, 0.000000000000000000, 0.000000000000000000 ) ) ;
#349 = ORIENTED_EDGE ( 'NONE', *, *, #99, .T. ) ;
#350 = LINE ( 'NONE', #208, #2 ) ;
#351 = MECHANICAL_CONTEXT ( 'NONE', #178, 'mechanical' ) ;
#352 = LINE ( 'NONE', #55, #217 ) ;
#353 = MANIFOLD_SOLID_BREP ( 'Body-Move/Copy2[1]', #64 ) ;
#354 = DIRECTION ( 'NONE',  ( -2.445468806185136597E-29, 3.491481338843145583E-15, 1.000000000000000000 ) ) ;
#355 = PERSON_AND_ORGANIZATION_ROLE ( 'design_owner' ) ;
#356 = APPROVAL ( #120, 'UNSPECIFIED' ) ;
#357 = EDGE_CURVE ( 'NONE', #148, #113, #253, .T. ) ;
#358 = CYLINDRICAL_SURFACE ( 'NONE', #333, 0.1495999999999999830 ) ;
#359 = MANIFOLD_SOLID_BREP ( 'Body-Move/Copy2[2]', #215 ) ;
#360 = LINE ( 'NONE', #106, #371 ) ;
#361 =( CONVERSION_BASED_UNIT ( 'INCH', #211 ) LENGTH_UNIT ( ) NAMED_UNIT ( #376 ) );
#362 = ORIENTED_EDGE ( 'NONE', *, *, #340, .F. ) ;
#363 = VERTEX_POINT ( 'NONE', #341 ) ;
#364 = EDGE_LOOP ( 'NONE', ( #387, #388, #259, #26 ) ) ;
#365 = AXIS2_PLACEMENT_3D ( 'NONE', #96, #292, #22 ) ;
#366 = VECTOR ( 'NONE', #100, 39.37007874015748143 ) ;
#367 = FACE_OUTER_BOUND ( 'NONE', #11, .T. ) ;
#368 = COORDINATED_UNIVERSAL_TIME_OFFSET ( 5, 0, .BEHIND. ) ;
#369 = DIRECTION ( 'NONE',  ( -1.000000000000000000, 6.982962677686265922E-15, -4.876176775795935793E-29 ) ) ;
#370 = PERSON_AND_ORGANIZATION ( #136, #247 ) ;
#371 = VECTOR ( 'NONE', #142, 39.37007874015748143 ) ;
#372 = EDGE_CURVE ( 'NONE', #223, #153, #112, .T. ) ;
#373 = ADVANCED_FACE ( 'NONE', ( #198 ), #255, .T. ) ;
#374 = AXIS2_PLACEMENT_3D ( 'NONE', #389, #157, #116 ) ;
#375 = ADVANCED_FACE ( 'NONE', ( #47 ), #169, .T. ) ;
#376 = DIMENSIONAL_EXPONENTS ( 1.000000000000000000, 0.000000000000000000, 0.000000000000000000, 0.000000000000000000, 0.000000000000000000, 0.000000000000000000, 0.000000000000000000 ) ;
#377 = COORDINATED_UNIVERSAL_TIME_OFFSET ( 5, 0, .BEHIND. ) ;
#378 = DIRECTION ( 'NONE',  ( -2.445468806185136597E-29, 3.491481338843145583E-15, 1.000000000000000000 ) ) ;
#379 = LINE ( 'NONE', #286, #70 ) ;
#380 = DIRECTION ( 'NONE',  ( -2.445451499097378923E-29, 3.491506123577872836E-15, 1.000000000000000000 ) ) ;
#381 = AXIS2_PLACEMENT_3D ( 'NONE', #16, #82, #323 ) ;
#382 = ORIENTED_EDGE ( 'NONE', *, *, #357, .F. ) ;
#383 = CARTESIAN_POINT ( 'NONE',  ( -0.1496000000000002605, -5.753097936992477187E-15, -1.952199999999999935 ) ) ;
#384 = DIRECTION ( 'NONE',  ( 1.000000000000000000, -6.982962677686266711E-15, 0.000000000000000000 ) ) ;
#385 = APPROVAL_PERSON_ORGANIZATION ( #193, #242, #230 ) ;
#386 = DIRECTION ( 'NONE',  ( 1.000000000000000000, -6.982962677686266711E-15, 4.876176775795935793E-29 ) ) ;
#387 = ORIENTED_EDGE ( 'NONE', *, *, #76, .T. ) ;
#388 = ORIENTED_EDGE ( 'NONE', *, *, #248, .T. ) ;
#389 = CARTESIAN_POINT ( 'NONE',  ( 1.104469846081071203E-28, -1.576902914368482918E-14, -4.516411251393477322 ) ) ;
#390 = ORIENTED_EDGE ( 'NONE', *, *, #124, .T. ) ;
ENDSEC;
END-ISO-10303-21;
