ISO-10303-21;
HEADER;
FILE_DESCRIPTION (( 'STEP AP203' ),
    '1' );
FILE_NAME ('61106.STEP',
    '2024-04-23T04:03:29',
    ( '' ),
    ( '' ),
    'SwSTEP 2.0',
    'SolidWorks 2023',
    '' );
FILE_SCHEMA (( 'CONFIG_CONTROL_DESIGN' ));
ENDSEC;

DATA;
#1 = CARTESIAN_POINT ( 'NONE',  ( 4.794586141406579719E-29, -6.845398312935872740E-15, -1.960600000000000342 ) ) ;
#2 = DIRECTION ( 'NONE',  ( 1.000000000000000000, -6.982962677686265133E-15, 0.000000000000000000 ) ) ;
#3 = ORIENTED_EDGE ( 'NONE', *, *, #92, .T. ) ;
#4 = ADVANCED_FACE ( 'NONE', ( #369 ), #309, .T. ) ;
#5 = ORIENTED_EDGE ( 'NONE', *, *, #161, .F. ) ;
#6 = CC_DESIGN_PERSON_AND_ORGANIZATION_ASSIGNMENT ( #48, #106, ( #233 ) ) ;
#7 = VECTOR ( 'NONE', #271, 39.37007874015748854 ) ;
#8 = EDGE_LOOP ( 'NONE', ( #166, #221, #162, #5 ) ) ;
#9 = LINE ( 'NONE', #250, #117 ) ;
#10 = CARTESIAN_POINT ( 'NONE',  ( 1.126455166630873266E-28, -1.608282752183690198E-14, -4.606300000000000061 ) ) ;
#11 = DIRECTION ( 'NONE',  ( 0.000000000000000000, 0.000000000000000000, 1.000000000000000000 ) ) ;
#12 = DIRECTION ( 'NONE',  ( -2.445451447418808779E-29, 3.491506197584526943E-15, 1.000000000000000000 ) ) ;
#13 = ORIENTED_EDGE ( 'NONE', *, *, #228, .T. ) ;
#14 = CALENDAR_DATE ( 2024, 23, 4 ) ;
#15 = CIRCLE ( 'NONE', #34, 0.1535500000000002419 ) ;
#16 = DIRECTION ( 'NONE',  ( 1.000000000000000000, -6.982962677686267499E-15, 0.000000000000000000 ) ) ;
#17 = EDGE_LOOP ( 'NONE', ( #343, #249, #328, #93 ) ) ;
#18 = APPLICATION_PROTOCOL_DEFINITION ( 'international standard', 'config_control_design', 1994, #232 ) ;
#19 = APPROVAL_ROLE ( '' ) ;
#20 = EDGE_CURVE ( 'NONE', #94, #331, #79, .T. ) ;
#21 = DIRECTION ( 'NONE',  ( 1.000000000000000000, -6.982962677686264344E-15, 0.000000000000000000 ) ) ;
#22 = CIRCLE ( 'NONE', #316, 0.1530500000000002969 ) ;
#23 = CYLINDRICAL_SURFACE ( 'NONE', #270, 0.1535500000000001031 ) ;
#24 = FACE_OUTER_BOUND ( 'NONE', #37, .T. ) ;
#25 = EDGE_CURVE ( 'NONE', #258, #248, #198, .T. ) ;
#26 = CARTESIAN_POINT ( 'NONE',  ( 1.126448300224525998E-28, -1.608292499793360698E-14, -4.606300000000000061 ) ) ;
#27 = DIRECTION ( 'NONE',  ( -1.000000000000000000, 6.982962677686265922E-15, -4.876176775795935793E-29 ) ) ;
#28 = AXIS2_PLACEMENT_3D ( 'NONE', #59, #32, #120 ) ;
#29 = ORIENTED_EDGE ( 'NONE', *, *, #30, .F. ) ;
#30 = EDGE_CURVE ( 'NONE', #77, #304, #180, .T. ) ;
#31 = CC_DESIGN_PERSON_AND_ORGANIZATION_ASSIGNMENT ( #129, #35, ( #234 ) ) ;
#32 = DIRECTION ( 'NONE',  ( -2.445468806185136597E-29, 3.491481338843145583E-15, 1.000000000000000000 ) ) ;
#33 = AXIS2_PLACEMENT_3D ( 'NONE', #340, #187, #41 ) ;
#34 = AXIS2_PLACEMENT_3D ( 'NONE', #96, #165, #188 ) ;
#35 = PERSON_AND_ORGANIZATION_ROLE ( 'design_owner' ) ;
#36 = DIRECTION ( 'NONE',  ( -2.445468806185136597E-29, 3.491481338843145583E-15, 1.000000000000000000 ) ) ;
#37 = EDGE_LOOP ( 'NONE', ( #310, #190, #251, #73 ) ) ;
#38 = DIRECTION ( 'NONE',  ( -1.000000000000000000, 6.982962677686266711E-15, 0.000000000000000000 ) ) ;
#39 = CARTESIAN_POINT ( 'NONE',  ( 4.794586141406579719E-29, -6.845398312935872740E-15, -1.960600000000000342 ) ) ;
#40 = LINE ( 'NONE', #124, #294 ) ;
#41 = DIRECTION ( 'NONE',  ( -6.982962677686266711E-15, -1.000000000000000000, 3.558252026915354491E-15 ) ) ;
#42 = AXIS2_PLACEMENT_3D ( 'NONE', #61, #151, #27 ) ;
#43 = CARTESIAN_POINT ( 'NONE',  ( 4.794586141406579719E-29, -6.845398312935872740E-15, -1.960600000000000342 ) ) ;
#44 = ORIENTED_EDGE ( 'NONE', *, *, #170, .F. ) ;
#45 = PERSON_AND_ORGANIZATION ( #355, #266 ) ;
#46 = DIRECTION ( 'NONE',  ( 2.445468806185136597E-29, -3.491481338843145583E-15, -1.000000000000000000 ) ) ;
#47 = DIRECTION ( 'NONE',  ( -2.445451447418808779E-29, 3.491506197584526943E-15, 1.000000000000000000 ) ) ;
#48 = PERSON_AND_ORGANIZATION ( #355, #266 ) ;
#49 = DIRECTION ( 'NONE',  ( -2.445451447418808779E-29, 3.491506197584526943E-15, 1.000000000000000000 ) ) ;
#50 = VERTEX_POINT ( 'NONE', #333 ) ;
#51 = CALENDAR_DATE ( 2024, 23, 4 ) ;
#52 = CONICAL_SURFACE ( 'NONE', #241, 0.1535499999999999921, 0.7853981633974449483 ) ;
#53 = FACE_OUTER_BOUND ( 'NONE', #17, .T. ) ;
#54 = APPROVAL_DATE_TIME ( #212, #207 ) ;
#55 = CARTESIAN_POINT ( 'NONE',  ( 0.1535499999999999921, -1.162538259396667614E-15, -0.03125000000000022204 ) ) ;
#56 = DIRECTION ( 'NONE',  ( 1.000000000000000000, -6.982962677686264344E-15, 0.000000000000000000 ) ) ;
#57 = APPROVAL ( #160, 'UNSPECIFIED' ) ;
#58 = MANIFOLD_SOLID_BREP ( 'Body-Move/Copy2[2]', #380 ) ;
#59 = CARTESIAN_POINT ( 'NONE',  ( -5.989671091818699506E-48, 8.551662891794013634E-34, 2.449293598294725547E-19 ) ) ;
#60 = VECTOR ( 'NONE', #295, 39.37007874015748854 ) ;
#61 = CARTESIAN_POINT ( 'NONE',  ( -2.994835545909349753E-48, 4.275831445897006817E-34, 1.224646799147362773E-19 ) ) ;
#62 =( GEOMETRIC_REPRESENTATION_CONTEXT ( 3 ) GLOBAL_UNCERTAINTY_ASSIGNED_CONTEXT ( ( #169 ) ) GLOBAL_UNIT_ASSIGNED_CONTEXT ( ( #126, #168, #349 ) ) REPRESENTATION_CONTEXT ( 'NONE', 'WORKASPACE' ) );
#63 = ADVANCED_FACE ( 'NONE', ( #72 ), #99, .T. ) ;
#64 = LOCAL_TIME ( 0, 3, 29.00000000000000000, #67 ) ;
#65 = CARTESIAN_POINT ( 'NONE',  ( 1.103889443234756998E-28, -1.576074239816034733E-14, -4.514037851948319080 ) ) ;
#66 = EDGE_LOOP ( 'NONE', ( #74, #226, #336, #97 ) ) ;
#67 = COORDINATED_UNIVERSAL_TIME_OFFSET ( 5, 0, .BEHIND. ) ;
#68 = CARTESIAN_POINT ( 'NONE',  ( 4.794586141406579719E-29, -6.845398312935872740E-15, -1.960600000000000342 ) ) ;
#69 = VECTOR ( 'NONE', #229, 39.37007874015748143 ) ;
#70 = CC_DESIGN_PERSON_AND_ORGANIZATION_ASSIGNMENT ( #45, #283, ( #357 ) ) ;
#71 = FACE_OUTER_BOUND ( 'NONE', #268, .T. ) ;
#72 = FACE_OUTER_BOUND ( 'NONE', #347, .T. ) ;
#73 = ORIENTED_EDGE ( 'NONE', *, *, #82, .F. ) ;
#74 = ORIENTED_EDGE ( 'NONE', *, *, #92, .F. ) ;
#75 = PERSON_AND_ORGANIZATION ( #355, #266 ) ;
#76 = EDGE_CURVE ( 'NONE', #94, #286, #156, .T. ) ;
#77 = VERTEX_POINT ( 'NONE', #201 ) ;
#78 = APPLICATION_PROTOCOL_DEFINITION ( 'international standard', 'config_control_design', 1994, #116 ) ;
#79 = LINE ( 'NONE', #10, #204 ) ;
#80 = CALENDAR_DATE ( 2024, 23, 4 ) ;
#81 = CIRCLE ( 'NONE', #389, 0.1535499999999999921 ) ;
#82 = EDGE_CURVE ( 'NONE', #50, #274, #276, .T. ) ;
#83 = CARTESIAN_POINT ( 'NONE',  ( -0.1535500000000001031, 1.091038370759634568E-15, -7.553024831086413478E-30 ) ) ;
#84 = DIRECTION ( 'NONE',  ( -2.445468806185136877E-29, 3.491481338843145188E-15, 1.000000000000000000 ) ) ;
#85 = VECTOR ( 'NONE', #175, 39.37007874015748143 ) ;
#86 = CARTESIAN_POINT ( 'NONE',  ( 7.642090019328606165E-31, -1.091087918388490760E-16, -0.03125000000000022204 ) ) ;
#87 = EDGE_CURVE ( 'NONE', #304, #77, #326, .T. ) ;
#88 = PLANE ( 'NONE',  #285 ) ;
#89 = DIRECTION ( 'NONE',  ( -2.445451447418808779E-29, 3.491506197584526943E-15, 1.000000000000000000 ) ) ;
#90 = CC_DESIGN_SECURITY_CLASSIFICATION ( #233, ( #357 ) ) ;
#91 = DIRECTION ( 'NONE',  ( 6.982962677686265922E-15, 1.000000000000000000, -3.491506197584526943E-15 ) ) ;
#92 = EDGE_CURVE ( 'NONE', #219, #274, #176, .T. ) ;
#93 = ORIENTED_EDGE ( 'NONE', *, *, #368, .F. ) ;
#94 = VERTEX_POINT ( 'NONE', #26 ) ;
#95 = VECTOR ( 'NONE', #264, 39.37007874015748143 ) ;
#96 = CARTESIAN_POINT ( 'NONE',  ( 4.793363407003487478E-29, -6.843652572266451236E-15, -1.960100000000000398 ) ) ;
#97 = ORIENTED_EDGE ( 'NONE', *, *, #82, .T. ) ;
#98 = ADVANCED_FACE ( 'NONE', ( #53 ), #108, .T. ) ;
#99 = CYLINDRICAL_SURFACE ( 'NONE', #33, 0.1535499999999999921 ) ;
#100 = PERSON_AND_ORGANIZATION ( #355, #266 ) ;
#101 = CIRCLE ( 'NONE', #123, 0.1535500000000002419 ) ;
#102 = CARTESIAN_POINT ( 'NONE',  ( 7.642090019328606165E-31, -1.091087918388490760E-16, -0.03125000000000022204 ) ) ;
#103 = EDGE_LOOP ( 'NONE', ( #44, #3, #196, #373 ) ) ;
#104 = DIRECTION ( 'NONE',  ( 1.000000000000000000, -6.982962677686267499E-15, 4.876176775795935793E-29 ) ) ;
#105 = ORIENTED_EDGE ( 'NONE', *, *, #87, .F. ) ;
#106 = PERSON_AND_ORGANIZATION_ROLE ( 'classification_officer' ) ;
#107 = CARTESIAN_POINT ( 'NONE',  ( 1.091038370759744219E-15, 0.1535499999999842269, -4.514037851948319080 ) ) ;
#108 = CONICAL_SURFACE ( 'NONE', #172, 0.1535500000000002419, 0.7853981633974824739 ) ;
#109 = FACE_OUTER_BOUND ( 'NONE', #8, .T. ) ;
#110 = CARTESIAN_POINT ( 'NONE',  ( 0.1535500000000001031, -1.072233919158727132E-15, 7.487369439234664785E-30 ) ) ;
#111 = ADVANCED_FACE ( 'NONE', ( #109 ), #189, .T. ) ;
#112 = CC_DESIGN_APPROVAL ( #207, ( #357 ) ) ;
#113 = ADVANCED_FACE ( 'NONE', ( #383 ), #88, .F. ) ;
#114 = CYLINDRICAL_SURFACE ( 'NONE', #337, 0.1535500000000001031 ) ;
#115 = ORIENTED_EDGE ( 'NONE', *, *, #183, .F. ) ;
#116 = APPLICATION_CONTEXT ( 'configuration controlled 3d designs of mechanical parts and assemblies' ) ;
#117 = VECTOR ( 'NONE', #372, 39.37007874015748143 ) ;
#118 = ADVANCED_FACE ( 'NONE', ( #209 ), #114, .T. ) ;
#119 = ORIENTED_EDGE ( 'NONE', *, *, #20, .F. ) ;
#120 = DIRECTION ( 'NONE',  ( 1.000000000000000000, -6.982962677686266711E-15, 4.876172253785905870E-29 ) ) ;
#121 = AXIS2_PLACEMENT_3D ( 'NONE', #377, #47, #159 ) ;
#122 = ORIENTED_EDGE ( 'NONE', *, *, #155, .T. ) ;
#123 = AXIS2_PLACEMENT_3D ( 'NONE', #203, #320, #56 ) ;
#124 = CARTESIAN_POINT ( 'NONE',  ( 1.091038370759681505E-15, 0.1535499999999931364, -1.960600000000001009 ) ) ;
#125 = EDGE_LOOP ( 'NONE', ( #115, #185 ) ) ;
#126 =( CONVERSION_BASED_UNIT ( 'INCH', #334 ) LENGTH_UNIT ( ) NAMED_UNIT ( #146 ) );
#127 = CARTESIAN_POINT ( 'NONE',  ( 7.642090019328606165E-31, -1.091087918388490760E-16, -0.03125000000000022204 ) ) ;
#128 = CARTESIAN_POINT ( 'NONE',  ( -0.1535500000000002419, -5.752614201506816077E-15, -1.960100000000000398 ) ) ;
#129 = PERSON_AND_ORGANIZATION ( #355, #266 ) ;
#130 = CARTESIAN_POINT ( 'NONE',  ( -1.072233919158615706E-15, -0.1535500000000157572, -4.514037851948318192 ) ) ;
#131 = ORIENTED_EDGE ( 'NONE', *, *, #155, .F. ) ;
#132 = ORIENTED_EDGE ( 'NONE', *, *, #273, .T. ) ;
#133 = APPROVAL_DATE_TIME ( #374, #144 ) ;
#134 = CC_DESIGN_PERSON_AND_ORGANIZATION_ASSIGNMENT ( #370, #163, ( #357 ) ) ;
#135 = CALENDAR_DATE ( 2024, 23, 4 ) ;
#136 = AXIS2_PLACEMENT_3D ( 'NONE', #39, #218, #307 ) ;
#137 = AXIS2_PLACEMENT_3D ( 'NONE', #361, #208, #179 ) ;
#138 = LOCAL_TIME ( 0, 3, 29.00000000000000000, #260 ) ;
#139 = CARTESIAN_POINT ( 'NONE',  ( -0.1222999999999999782, 9.085707314004538757E-16, 2.449293598233094825E-19 ) ) ;
#140 = CARTESIAN_POINT ( 'NONE',  ( 0.000000000000000000, 0.000000000000000000, 0.000000000000000000 ) ) ;
#141 = CARTESIAN_POINT ( 'NONE',  ( 4.793363407003487478E-29, -6.843652572266451236E-15, -1.960100000000000398 ) ) ;
#142 = CIRCLE ( 'NONE', #384, 0.1222999999999999782 ) ;
#143 = CC_DESIGN_APPROVAL ( #57, ( #233 ) ) ;
#144 = APPROVAL ( #378, 'UNSPECIFIED' ) ;
#145 = ORIENTED_EDGE ( 'NONE', *, *, #302, .T. ) ;
#146 = DIMENSIONAL_EXPONENTS ( 1.000000000000000000, 0.000000000000000000, 0.000000000000000000, 0.000000000000000000, 0.000000000000000000, 0.000000000000000000, 0.000000000000000000 ) ;
#147 = EDGE_CURVE ( 'NONE', #359, #219, #215, .T. ) ;
#148 = ORIENTED_EDGE ( 'NONE', *, *, #259, .T. ) ;
#149 = AXIS2_PLACEMENT_3D ( 'NONE', #43, #49, #153 ) ;
#150 = EDGE_LOOP ( 'NONE', ( #148, #152, #388, #280 ) ) ;
#151 = DIRECTION ( 'NONE',  ( 2.438088387897960049E-29, -3.491481338843145188E-15, -1.000000000000000000 ) ) ;
#152 = ORIENTED_EDGE ( 'NONE', *, *, #345, .T. ) ;
#153 = DIRECTION ( 'NONE',  ( -6.982962677686266711E-15, -1.000000000000000000, 3.558252026915354491E-15 ) ) ;
#154 = EDGE_LOOP ( 'NONE', ( #224, #216 ) ) ;
#155 = EDGE_CURVE ( 'NONE', #286, #331, #205, .T. ) ;
#156 = LINE ( 'NONE', #367, #60 ) ;
#157 = AXIS2_PLACEMENT_3D ( 'NONE', #65, #89, #358 ) ;
#158 = CARTESIAN_POINT ( 'NONE',  ( 1.103889443234756998E-28, -1.576074239816034733E-14, -4.514037851948319080 ) ) ;
#159 = DIRECTION ( 'NONE',  ( -6.982962677686265133E-15, -1.000000000000000000, 3.468864327941562660E-15 ) ) ;
#160 = APPROVAL_STATUS ( 'not_yet_approved' ) ;
#161 = EDGE_CURVE ( 'NONE', #314, #245, #303, .T. ) ;
#162 = ORIENTED_EDGE ( 'NONE', *, *, #259, .F. ) ;
#163 = PERSON_AND_ORGANIZATION_ROLE ( 'creator' ) ;
#164 = DESIGN_CONTEXT ( 'detailed design', #232, 'design' ) ;
#165 = DIRECTION ( 'NONE',  ( -2.445468806185136597E-29, 3.491481338843145583E-15, 1.000000000000000000 ) ) ;
#166 = ORIENTED_EDGE ( 'NONE', *, *, #183, .T. ) ;
#167 = DATE_TIME_ROLE ( 'classification_date' ) ;
#168 =( NAMED_UNIT ( * ) PLANE_ANGLE_UNIT ( ) SI_UNIT ( $, .RADIAN. ) );
#169 = UNCERTAINTY_MEASURE_WITH_UNIT (LENGTH_MEASURE( 1.000000000000000082E-05 ), #126, 'distance_accuracy_value', 'NONE');
#170 = EDGE_CURVE ( 'NONE', #219, #359, #142, .T. ) ;
#171 = DIRECTION ( 'NONE',  ( -2.438088387897960049E-29, 3.491481338843145188E-15, 1.000000000000000000 ) ) ;
#172 = AXIS2_PLACEMENT_3D ( 'NONE', #141, #265, #21 ) ;
#173 = EDGE_CURVE ( 'NONE', #258, #314, #200, .T. ) ;
#174 = CC_DESIGN_APPROVAL ( #144, ( #335 ) ) ;
#175 = DIRECTION ( 'NONE',  ( -0.7071067811865451302, 2.468850131082231817E-15, -0.7071067811865499042 ) ) ;
#176 = LINE ( 'NONE', #55, #95 ) ;
#177 = MANIFOLD_SOLID_BREP ( 'Body-Move/Copy2[1]', #321 ) ;
#178 = ADVANCED_FACE ( 'NONE', ( #239 ), #324, .F. ) ;
#179 = DIRECTION ( 'NONE',  ( -6.982962677686265133E-15, -1.000000000000000000, 3.468864327941562660E-15 ) ) ;
#180 = CIRCLE ( 'NONE', #136, 0.1535499999999999921 ) ;
#181 = AXIS2_PLACEMENT_3D ( 'NONE', #230, #293, #317 ) ;
#182 = EDGE_LOOP ( 'NONE', ( #119, #275, #240 ) ) ;
#183 = EDGE_CURVE ( 'NONE', #314, #258, #22, .T. ) ;
#184 = DIRECTION ( 'NONE',  ( 1.000000000000000000, -6.982962677686267499E-15, 4.876176775795935793E-29 ) ) ;
#185 = ORIENTED_EDGE ( 'NONE', *, *, #173, .F. ) ;
#186 = ADVANCED_FACE ( 'NONE', ( #327 ), #247, .T. ) ;
#187 = DIRECTION ( 'NONE',  ( -2.445451447418808779E-29, 3.491506197584526943E-15, 1.000000000000000000 ) ) ;
#188 = DIRECTION ( 'NONE',  ( 1.000000000000000000, -6.982962677686264344E-15, 0.000000000000000000 ) ) ;
#189 = CONICAL_SURFACE ( 'NONE', #322, 0.1535500000000002419, 0.7853981633974824739 ) ;
#190 = ORIENTED_EDGE ( 'NONE', *, *, #368, .T. ) ;
#191 = LOCAL_TIME ( 0, 3, 29.00000000000000000, #281 ) ;
#192 = PERSON_AND_ORGANIZATION_ROLE ( 'creator' ) ;
#193 = CYLINDRICAL_SURFACE ( 'NONE', #149, 0.1535499999999999921 ) ;
#194 = ORIENTED_EDGE ( 'NONE', *, *, #228, .F. ) ;
#195 = DATE_AND_TIME ( #51, #64 ) ;
#196 = ORIENTED_EDGE ( 'NONE', *, *, #305, .T. ) ;
#197 = SECURITY_CLASSIFICATION_LEVEL ( 'unclassified' ) ;
#198 = LINE ( 'NONE', #128, #298 ) ;
#199 = APPROVAL_STATUS ( 'not_yet_approved' ) ;
#200 = CIRCLE ( 'NONE', #262, 0.1530500000000002969 ) ;
#201 = CARTESIAN_POINT ( 'NONE',  ( -1.072233919158678223E-15, -0.1535500000000068477, -1.960599999999999898 ) ) ;
#202 = PLANE ( 'NONE',  #231 ) ;
#203 = CARTESIAN_POINT ( 'NONE',  ( 4.793363407003487478E-29, -6.843652572266451236E-15, -1.960100000000000398 ) ) ;
#204 = VECTOR ( 'NONE', #312, 39.37007874015748143 ) ;
#205 = CIRCLE ( 'NONE', #157, 0.1535499999999999921 ) ;
#206 = DIRECTION ( 'NONE',  ( 1.000000000000000000, -6.982962677686267499E-15, 0.000000000000000000 ) ) ;
#207 = APPROVAL ( #199, 'UNSPECIFIED' ) ;
#208 = DIRECTION ( 'NONE',  ( -2.445451447418808779E-29, 3.491506197584526943E-15, 1.000000000000000000 ) ) ;
#209 = FACE_OUTER_BOUND ( 'NONE', #150, .T. ) ;
#210 = FACE_OUTER_BOUND ( 'NONE', #103, .T. ) ;
#211 = DIRECTION ( 'NONE',  ( 1.000000000000000000, -6.982962677686265133E-15, 0.000000000000000000 ) ) ;
#212 = DATE_AND_TIME ( #80, #287 ) ;
#213 = DIRECTION ( 'NONE',  ( -2.445468806185136597E-29, 3.491481338843145583E-15, 1.000000000000000000 ) ) ;
#214 = ORIENTED_EDGE ( 'NONE', *, *, #302, .F. ) ;
#215 = CIRCLE ( 'NONE', #28, 0.1222999999999999782 ) ;
#216 = ORIENTED_EDGE ( 'NONE', *, *, #170, .T. ) ;
#217 = ADVANCED_FACE ( 'NONE', ( #297 ), #52, .T. ) ;
#218 = DIRECTION ( 'NONE',  ( -2.445451447418808779E-29, 3.491506197584526943E-15, 1.000000000000000000 ) ) ;
#219 = VERTEX_POINT ( 'NONE', #339 ) ;
#220 = AXIS2_PLACEMENT_3D ( 'NONE', #102, #223, #16 ) ;
#221 = ORIENTED_EDGE ( 'NONE', *, *, #25, .T. ) ;
#222 = APPROVAL_ROLE ( '' ) ;
#223 = DIRECTION ( 'NONE',  ( -2.445468806185136597E-29, 3.491481338843145583E-15, 1.000000000000000000 ) ) ;
#224 = ORIENTED_EDGE ( 'NONE', *, *, #147, .T. ) ;
#225 = APPROVAL_ROLE ( '' ) ;
#226 = ORIENTED_EDGE ( 'NONE', *, *, #147, .F. ) ;
#227 = CALENDAR_DATE ( 2024, 23, 4 ) ;
#228 = EDGE_CURVE ( 'NONE', #331, #304, #40, .T. ) ;
#229 = DIRECTION ( 'NONE',  ( -2.445468806185136877E-29, 3.491481338843145188E-15, 1.000000000000000000 ) ) ;
#230 = CARTESIAN_POINT ( 'NONE',  ( 4.794586141406579719E-29, -6.845398312935872740E-15, -1.960600000000000342 ) ) ;
#231 = AXIS2_PLACEMENT_3D ( 'NONE', #318, #171, #292 ) ;
#232 = APPLICATION_CONTEXT ( 'configuration controlled 3d designs of mechanical parts and assemblies' ) ;
#233 = SECURITY_CLASSIFICATION ( '', '', #197 ) ;
#234 = PRODUCT ( '61106', '61106', '', ( #256 ) ) ;
#235 = ADVANCED_BREP_SHAPE_REPRESENTATION ( '61106', ( #177, #58, #381 ), #62 ) ;
#236 = CARTESIAN_POINT ( 'NONE',  ( 4.793363407003487478E-29, -6.843652572266451236E-15, -1.960100000000000398 ) ) ;
#237 = ADVANCED_FACE ( 'NONE', ( #71 ), #193, .T. ) ;
#238 = AXIS2_PLACEMENT_3D ( 'NONE', #86, #267, #300 ) ;
#239 = FACE_OUTER_BOUND ( 'NONE', #154, .T. ) ;
#240 = ORIENTED_EDGE ( 'NONE', *, *, #273, .F. ) ;
#241 = AXIS2_PLACEMENT_3D ( 'NONE', #127, #46, #38 ) ;
#242 = APPROVAL_PERSON_ORGANIZATION ( #288, #207, #225 ) ;
#243 = CARTESIAN_POINT ( 'NONE',  ( 0.000000000000000000, 0.000000000000000000, 0.000000000000000000 ) ) ;
#244 = CARTESIAN_POINT ( 'NONE',  ( 0.1535500000000002419, -7.915886491425178171E-15, -1.960100000000000398 ) ) ;
#245 = VERTEX_POINT ( 'NONE', #342 ) ;
#246 = CC_DESIGN_PERSON_AND_ORGANIZATION_ASSIGNMENT ( #75, #192, ( #335 ) ) ;
#247 = CONICAL_SURFACE ( 'NONE', #137, 65.52281426576902845, 1.029744258676658530 ) ;
#248 = VERTEX_POINT ( 'NONE', #257 ) ;
#249 = ORIENTED_EDGE ( 'NONE', *, *, #173, .T. ) ;
#250 = CARTESIAN_POINT ( 'NONE',  ( -1.072233919158678223E-15, -0.1535500000000068477, -1.960599999999999898 ) ) ;
#251 = ORIENTED_EDGE ( 'NONE', *, *, #365, .T. ) ;
#252 = COORDINATED_UNIVERSAL_TIME_OFFSET ( 5, 0, .BEHIND. ) ;
#253 = CARTESIAN_POINT ( 'NONE',  ( 0.1535499999999999921, -1.181342710997575444E-15, -0.03125000000000022204 ) ) ;
#254 = CIRCLE ( 'NONE', #220, 0.1535499999999999921 ) ;
#255 = ORIENTED_EDGE ( 'NONE', *, *, #87, .T. ) ;
#256 = MECHANICAL_CONTEXT ( 'NONE', #116, 'mechanical' ) ;
#257 = CARTESIAN_POINT ( 'NONE',  ( -0.1535500000000002419, -5.752614201506816077E-15, -1.960100000000000398 ) ) ;
#258 = VERTEX_POINT ( 'NONE', #363 ) ;
#259 = EDGE_CURVE ( 'NONE', #245, #248, #15, .T. ) ;
#260 = COORDINATED_UNIVERSAL_TIME_OFFSET ( 5, 0, .BEHIND. ) ;
#261 = PRODUCT_DEFINITION_SHAPE ( 'NONE', 'NONE',  #335 ) ;
#262 = AXIS2_PLACEMENT_3D ( 'NONE', #68, #36, #211 ) ;
#263 = LINE ( 'NONE', #110, #382 ) ;
#264 = DIRECTION ( 'NONE',  ( 0.7071067811865451302, -7.319954787623248157E-15, -0.7071067811865499042 ) ) ;
#265 = DIRECTION ( 'NONE',  ( -2.445468806185136597E-29, 3.491481338843145583E-15, 1.000000000000000000 ) ) ;
#266 = ORGANIZATION ( 'UNSPECIFIED', 'UNSPECIFIED', '' ) ;
#267 = DIRECTION ( 'NONE',  ( 2.445468806185136597E-29, -3.491481338843145583E-15, -1.000000000000000000 ) ) ;
#268 = EDGE_LOOP ( 'NONE', ( #194, #132, #145, #105 ) ) ;
#269 = EDGE_LOOP ( 'NONE', ( #386, #255 ) ) ;
#270 = AXIS2_PLACEMENT_3D ( 'NONE', #140, #376, #104 ) ;
#271 = DIRECTION ( 'NONE',  ( 0.7071067811865715536, -2.468850131082509496E-15, 0.7071067811865232589 ) ) ;
#272 = CARTESIAN_POINT ( 'NONE',  ( 4.794586141406579719E-29, -6.845398312935872740E-15, -1.960600000000000342 ) ) ;
#273 = EDGE_CURVE ( 'NONE', #331, #286, #81, .T. ) ;
#274 = VERTEX_POINT ( 'NONE', #253 ) ;
#275 = ORIENTED_EDGE ( 'NONE', *, *, #76, .T. ) ;
#276 = CIRCLE ( 'NONE', #299, 0.1535499999999999921 ) ;
#277 = CONICAL_SURFACE ( 'NONE', #238, 0.1535499999999999921, 0.7853981633974449483 ) ;
#278 = ORIENTED_EDGE ( 'NONE', *, *, #76, .F. ) ;
#279 = DIRECTION ( 'NONE',  ( -6.982962677686266711E-15, -1.000000000000000000, 3.558252026915354491E-15 ) ) ;
#280 = ORIENTED_EDGE ( 'NONE', *, *, #365, .F. ) ;
#281 = COORDINATED_UNIVERSAL_TIME_OFFSET ( 5, 0, .BEHIND. ) ;
#282 = EDGE_LOOP ( 'NONE', ( #278, #301, #131 ) ) ;
#283 = PERSON_AND_ORGANIZATION_ROLE ( 'design_supplier' ) ;
#284 = CARTESIAN_POINT ( 'NONE',  ( 1.091038370759744614E-15, 0.1535499999999931642, -1.960600000000001009 ) ) ;
#285 = AXIS2_PLACEMENT_3D ( 'NONE', #1, #387, #91 ) ;
#286 = VERTEX_POINT ( 'NONE', #130 ) ;
#287 = LOCAL_TIME ( 0, 3, 29.00000000000000000, #252 ) ;
#288 = PERSON_AND_ORGANIZATION ( #355, #266 ) ;
#289 = PERSON_AND_ORGANIZATION ( #355, #266 ) ;
#290 = FACE_OUTER_BOUND ( 'NONE', #125, .T. ) ;
#291 = DIRECTION ( 'NONE',  ( -2.445468806185136597E-29, 3.491481338843145583E-15, 1.000000000000000000 ) ) ;
#292 = DIRECTION ( 'NONE',  ( 1.000000000000000000, -6.982962677686265922E-15, 4.876176775795935793E-29 ) ) ;
#293 = DIRECTION ( 'NONE',  ( -2.445451447418808779E-29, 3.491506197584526943E-15, 1.000000000000000000 ) ) ;
#294 = VECTOR ( 'NONE', #366, 39.37007874015748143 ) ;
#295 = DIRECTION ( 'NONE',  ( -5.985567269335957057E-15, -0.8571673007021125557, 0.5150380749100536004 ) ) ;
#296 = CARTESIAN_POINT ( 'NONE',  ( 0.1530500000000002969, -7.914140750755757456E-15, -1.960600000000000342 ) ) ;
#297 = FACE_OUTER_BOUND ( 'NONE', #66, .T. ) ;
#298 = VECTOR ( 'NONE', #364, 39.37007874015748854 ) ;
#299 = AXIS2_PLACEMENT_3D ( 'NONE', #354, #291, #206 ) ;
#300 = DIRECTION ( 'NONE',  ( -1.000000000000000000, 6.982962677686266711E-15, 0.000000000000000000 ) ) ;
#301 = ORIENTED_EDGE ( 'NONE', *, *, #20, .T. ) ;
#302 = EDGE_CURVE ( 'NONE', #286, #77, #9, .T. ) ;
#303 = LINE ( 'NONE', #244, #7 ) ;
#304 = VERTEX_POINT ( 'NONE', #284 ) ;
#305 = EDGE_CURVE ( 'NONE', #274, #50, #254, .T. ) ;
#306 =( LENGTH_UNIT ( ) NAMED_UNIT ( * ) SI_UNIT ( $, .METRE. ) );
#307 = DIRECTION ( 'NONE',  ( -6.982962677686266711E-15, -1.000000000000000000, 3.558252026915354491E-15 ) ) ;
#308 = EDGE_CURVE ( 'NONE', #359, #50, #332, .T. ) ;
#309 = CONICAL_SURFACE ( 'NONE', #121, 65.52281426576902845, 1.029744258676658530 ) ;
#310 = ORIENTED_EDGE ( 'NONE', *, *, #345, .F. ) ;
#311 = CARTESIAN_POINT ( 'NONE',  ( 0.000000000000000000, 0.000000000000000000, 0.000000000000000000 ) ) ;
#312 = DIRECTION ( 'NONE',  ( 6.090539988449795002E-15, 0.8571673007021161084, 0.5150380749100477162 ) ) ;
#313 = DATE_TIME_ROLE ( 'creation_date' ) ;
#314 = VERTEX_POINT ( 'NONE', #296 ) ;
#315 = APPROVAL_DATE_TIME ( #379, #57 ) ;
#316 = AXIS2_PLACEMENT_3D ( 'NONE', #272, #356, #2 ) ;
#317 = DIRECTION ( 'NONE',  ( -6.982962677686266711E-15, -1.000000000000000000, 3.558252026915354491E-15 ) ) ;
#318 = CARTESIAN_POINT ( 'NONE',  ( 7.238308800279693274E-29, -3.345848377373540885E-15, -1.960600000000000342 ) ) ;
#319 = DIRECTION ( 'NONE',  ( 1.000000000000000000, -6.982962677686264344E-15, 0.000000000000000000 ) ) ;
#320 = DIRECTION ( 'NONE',  ( -2.445468806185136597E-29, 3.491481338843145583E-15, 1.000000000000000000 ) ) ;
#321 = CLOSED_SHELL ( 'NONE', ( #63, #186, #4, #237, #113 ) ) ;
#322 = AXIS2_PLACEMENT_3D ( 'NONE', #236, #351, #319 ) ;
#323 = ADVANCED_FACE ( 'NONE', ( #24 ), #23, .T. ) ;
#324 = PLANE ( 'NONE',  #42 ) ;
#325 = CARTESIAN_POINT ( 'NONE',  ( -5.989671091818699506E-48, 8.551662891794013634E-34, 2.449293598294725547E-19 ) ) ;
#326 = CIRCLE ( 'NONE', #181, 0.1535499999999999921 ) ;
#327 = FACE_OUTER_BOUND ( 'NONE', #282, .T. ) ;
#328 = ORIENTED_EDGE ( 'NONE', *, *, #161, .T. ) ;
#329 = DIRECTION ( 'NONE',  ( -2.445468806185136597E-29, 3.491481338843145583E-15, 1.000000000000000000 ) ) ;
#330 = DIRECTION ( 'NONE',  ( 1.000000000000000000, -6.982962677686266711E-15, 4.876172253785905870E-29 ) ) ;
#331 = VERTEX_POINT ( 'NONE', #107 ) ;
#332 = LINE ( 'NONE', #352, #85 ) ;
#333 = CARTESIAN_POINT ( 'NONE',  ( -0.1535499999999999921, -2.385342311293014220E-15, -0.03125000000000022204 ) ) ;
#334 = LENGTH_MEASURE_WITH_UNIT ( LENGTH_MEASURE( 0.02539999999999999897 ), #306 );
#335 = PRODUCT_DEFINITION ( 'UNKNOWN', '', #357, #164 ) ;
#336 = ORIENTED_EDGE ( 'NONE', *, *, #308, .T. ) ;
#337 = AXIS2_PLACEMENT_3D ( 'NONE', #243, #329, #184 ) ;
#338 = LOCAL_TIME ( 0, 3, 29.00000000000000000, #341 ) ;
#339 = CARTESIAN_POINT ( 'NONE',  ( 0.1222999999999999782, -1.000788582262062883E-15, 2.449293598359575941E-19 ) ) ;
#340 = CARTESIAN_POINT ( 'NONE',  ( 4.794586141406579719E-29, -6.845398312935872740E-15, -1.960600000000000342 ) ) ;
#341 = COORDINATED_UNIVERSAL_TIME_OFFSET ( 5, 0, .BEHIND. ) ;
#342 = CARTESIAN_POINT ( 'NONE',  ( 0.1535500000000002419, -7.915886491425178171E-15, -1.960100000000000398 ) ) ;
#343 = ORIENTED_EDGE ( 'NONE', *, *, #25, .F. ) ;
#344 = DIRECTION ( 'NONE',  ( 1.000000000000000000, 0.000000000000000000, 0.000000000000000000 ) ) ;
#345 = EDGE_CURVE ( 'NONE', #248, #50, #346, .T. ) ;
#346 = LINE ( 'NONE', #83, #69 ) ;
#347 = EDGE_LOOP ( 'NONE', ( #122, #13, #29, #214 ) ) ;
#348 = SHAPE_DEFINITION_REPRESENTATION ( #261, #235 ) ;
#349 =( NAMED_UNIT ( * ) SI_UNIT ( $, .STERADIAN. ) SOLID_ANGLE_UNIT ( ) );
#350 = ADVANCED_FACE ( 'NONE', ( #290 ), #202, .F. ) ;
#351 = DIRECTION ( 'NONE',  ( -2.445468806185136597E-29, 3.491481338843145583E-15, 1.000000000000000000 ) ) ;
#352 = CARTESIAN_POINT ( 'NONE',  ( -0.1535499999999999921, 9.631251273198770455E-16, -0.03125000000000022204 ) ) ;
#353 = CC_DESIGN_DATE_AND_TIME_ASSIGNMENT ( #360, #167, ( #233 ) ) ;
#354 = CARTESIAN_POINT ( 'NONE',  ( 7.642090019328606165E-31, -1.091087918388490760E-16, -0.03125000000000022204 ) ) ;
#355 = PERSON ( 'UNSPECIFIED', 'UNSPECIFIED', 'UNSPECIFIED', ('UNSPECIFIED'), ('UNSPECIFIED'), ('UNSPECIFIED') ) ;
#356 = DIRECTION ( 'NONE',  ( -2.445468806185136597E-29, 3.491481338843145583E-15, 1.000000000000000000 ) ) ;
#357 = PRODUCT_DEFINITION_FORMATION_WITH_SPECIFIED_SOURCE ( 'ANY', '', #234, .NOT_KNOWN. ) ;
#358 = DIRECTION ( 'NONE',  ( -6.982962677686266711E-15, -1.000000000000000000, 3.558252026915354491E-15 ) ) ;
#359 = VERTEX_POINT ( 'NONE', #139 ) ;
#360 = DATE_AND_TIME ( #227, #138 ) ;
#361 = CARTESIAN_POINT ( 'NONE',  ( -8.501309900426806725E-28, 1.213779976607654288E-13, 34.76377874015748404 ) ) ;
#362 = APPROVAL_PERSON_ORGANIZATION ( #289, #57, #19 ) ;
#363 = CARTESIAN_POINT ( 'NONE',  ( -0.1530500000000002969, -5.755263428680926489E-15, -1.960600000000000342 ) ) ;
#364 = DIRECTION ( 'NONE',  ( -0.7071067811865715536, 7.493145998870439357E-15, 0.7071067811865232589 ) ) ;
#365 = EDGE_CURVE ( 'NONE', #245, #274, #263, .T. ) ;
#366 = DIRECTION ( 'NONE',  ( -2.445451447418809059E-29, 3.491506197584526943E-15, 1.000000000000000000 ) ) ;
#367 = CARTESIAN_POINT ( 'NONE',  ( 1.126448300224525998E-28, -1.608292499793360698E-14, -4.606300000000000061 ) ) ;
#368 = EDGE_CURVE ( 'NONE', #248, #245, #101, .T. ) ;
#369 = FACE_OUTER_BOUND ( 'NONE', #182, .T. ) ;
#370 = PERSON_AND_ORGANIZATION ( #355, #266 ) ;
#371 = APPROVAL_PERSON_ORGANIZATION ( #100, #144, #222 ) ;
#372 = DIRECTION ( 'NONE',  ( -2.445451447418809059E-29, 3.491506197584526943E-15, 1.000000000000000000 ) ) ;
#373 = ORIENTED_EDGE ( 'NONE', *, *, #308, .F. ) ;
#374 = DATE_AND_TIME ( #135, #338 ) ;
#375 = CC_DESIGN_DATE_AND_TIME_ASSIGNMENT ( #195, #313, ( #335 ) ) ;
#376 = DIRECTION ( 'NONE',  ( -2.445468806185136597E-29, 3.491481338843145583E-15, 1.000000000000000000 ) ) ;
#377 = CARTESIAN_POINT ( 'NONE',  ( -8.501309900426806725E-28, 1.213779976607654288E-13, 34.76377874015748404 ) ) ;
#378 = APPROVAL_STATUS ( 'not_yet_approved' ) ;
#379 = DATE_AND_TIME ( #14, #191 ) ;
#380 = CLOSED_SHELL ( 'NONE', ( #390, #118, #111, #350, #98, #323, #217, #178 ) ) ;
#381 = AXIS2_PLACEMENT_3D ( 'NONE', #311, #11, #344 ) ;
#382 = VECTOR ( 'NONE', #84, 39.37007874015748143 ) ;
#383 = FACE_OUTER_BOUND ( 'NONE', #269, .T. ) ;
#384 = AXIS2_PLACEMENT_3D ( 'NONE', #325, #213, #330 ) ;
#385 = PRODUCT_RELATED_PRODUCT_CATEGORY ( 'detail', '', ( #234 ) ) ;
#386 = ORIENTED_EDGE ( 'NONE', *, *, #30, .T. ) ;
#387 = DIRECTION ( 'NONE',  ( 2.445451447418808218E-29, -3.491506197584526943E-15, -1.000000000000000000 ) ) ;
#388 = ORIENTED_EDGE ( 'NONE', *, *, #305, .F. ) ;
#389 = AXIS2_PLACEMENT_3D ( 'NONE', #158, #12, #279 ) ;
#390 = ADVANCED_FACE ( 'NONE', ( #210 ), #277, .T. ) ;
ENDSEC;
END-ISO-10303-21;
