ISO-10303-21;
HEADER;
FILE_DESCRIPTION (( 'STEP AP203' ),
    '1' );
FILE_NAME ('62112.STEP',
    '2024-04-23T06:09:11',
    ( '' ),
    ( '' ),
    'SwSTEP 2.0',
    'SolidWorks 2023',
    '' );
FILE_SCHEMA (( 'CONFIG_CONTROL_DESIGN' ));
ENDSEC;

DATA;
#1 = ADVANCED_FACE ( 'NONE', ( #387 ), #295, .T. ) ;
#2 = CARTESIAN_POINT ( 'NONE',  ( 7.642090019328606165E-31, -1.091087918388490760E-16, -0.03125000000000022204 ) ) ;
#3 = EDGE_CURVE ( 'NONE', #51, #303, #366, .T. ) ;
#4 = ORIENTED_EDGE ( 'NONE', *, *, #338, .T. ) ;
#5 = ORIENTED_EDGE ( 'NONE', *, *, #353, .T. ) ;
#6 = CIRCLE ( 'NONE', #264, 0.2559000000000000719 ) ;
#7 = CIRCLE ( 'NONE', #302, 0.2559000000000000719 ) ;
#8 = PRODUCT_DEFINITION ( 'UNKNOWN', '', #205, #118 ) ;
#9 = EDGE_LOOP ( 'NONE', ( #280, #81, #241, #43 ) ) ;
#10 = ORIENTED_EDGE ( 'NONE', *, *, #117, .F. ) ;
#11 = CC_DESIGN_PERSON_AND_ORGANIZATION_ASSIGNMENT ( #171, #291, ( #205 ) ) ;
#12 = LINE ( 'NONE', #106, #187 ) ;
#13 = ORIENTED_EDGE ( 'NONE', *, *, #307, .T. ) ;
#14 = LINE ( 'NONE', #371, #223 ) ;
#15 = CIRCLE ( 'NONE', #237, 0.2559000000000003494 ) ;
#16 = DIRECTION ( 'NONE',  ( 0.7071067811861129204, -2.468850131077704544E-15, 0.7071067811869821140 ) ) ;
#17 = CONICAL_SURFACE ( 'NONE', #148, 124.8659371009145787, 1.265363707695890572 ) ;
#18 = EDGE_CURVE ( 'NONE', #253, #345, #6, .T. ) ;
#19 = PERSON_AND_ORGANIZATION ( #65, #73 ) ;
#20 = CARTESIAN_POINT ( 'NONE',  ( -1.786940149219854208E-15, -0.2559000000000088981, -2.519599999999999174 ) ) ;
#21 = PRODUCT_DEFINITION_SHAPE ( 'NONE', 'NONE',  #8 ) ;
#22 = EDGE_CURVE ( 'NONE', #319, #195, #84, .T. ) ;
#23 = CARTESIAN_POINT ( 'NONE',  ( 6.160380469660977764E-29, -8.795390640679767168E-15, -2.519099999999999895 ) ) ;
#24 = FACE_OUTER_BOUND ( 'NONE', #36, .T. ) ;
#25 = AXIS2_PLACEMENT_3D ( 'NONE', #326, #388, #330 ) ;
#26 = CARTESIAN_POINT ( 'NONE',  ( -0.2559000000000000163, -2.633970855449209670E-15, -0.03125000000000022204 ) ) ;
#27 = SECURITY_CLASSIFICATION ( '', '', #299 ) ;
#28 = DIRECTION ( 'NONE',  ( 1.000000000000000000, -6.982962677686266711E-15, 4.875485759418170741E-29 ) ) ;
#29 = COORDINATED_UNIVERSAL_TIME_OFFSET ( 5, 0, .BEHIND. ) ;
#30 = DIRECTION ( 'NONE',  ( 2.445468806185136597E-29, -3.491481338843145583E-15, -1.000000000000000000 ) ) ;
#31 = ORIENTED_EDGE ( 'NONE', *, *, #338, .F. ) ;
#32 = CLOSED_SHELL ( 'NONE', ( #365, #324, #130, #35, #201 ) ) ;
#33 = SHAPE_DEFINITION_REPRESENTATION ( #21, #257 ) ;
#34 = ORIENTED_EDGE ( 'NONE', *, *, #274, .F. ) ;
#35 = ADVANCED_FACE ( 'NONE', ( #188 ), #74, .T. ) ;
#36 = EDGE_LOOP ( 'NONE', ( #4, #76 ) ) ;
#37 = PERSON_AND_ORGANIZATION_ROLE ( 'design_supplier' ) ;
#38 = AXIS2_PLACEMENT_3D ( 'NONE', #321, #383, #53 ) ;
#39 = AXIS2_PLACEMENT_3D ( 'NONE', #60, #331, #229 ) ;
#40 = LOCAL_TIME ( 2, 9, 11.00000000000000000, #185 ) ;
#41 = DIRECTION ( 'NONE',  ( -2.441544682520182072E-29, 3.497100907278609147E-15, 1.000000000000000000 ) ) ;
#42 = CARTESIAN_POINT ( 'NONE',  ( -1.786940149219854208E-15, -0.2559000000000088981, -2.519599999999999174 ) ) ;
#43 = ORIENTED_EDGE ( 'NONE', *, *, #318, .F. ) ;
#44 = ADVANCED_FACE ( 'NONE', ( #202 ), #306, .T. ) ;
#45 = CARTESIAN_POINT ( 'NONE',  ( 6.161603204064070566E-29, -8.797136381349191038E-15, -2.519600000000000062 ) ) ;
#46 = EDGE_LOOP ( 'NONE', ( #128, #13, #78, #67 ) ) ;
#47 = EDGE_CURVE ( 'NONE', #227, #361, #197, .T. ) ;
#48 = DIRECTION ( 'NONE',  ( -1.000000000000000000, 6.982962677686265922E-15, -4.876176775795935793E-29 ) ) ;
#49 = AXIS2_PLACEMENT_3D ( 'NONE', #191, #277, #312 ) ;
#50 = CIRCLE ( 'NONE', #169, 0.2554000000000007931 ) ;
#51 = VERTEX_POINT ( 'NONE', #298 ) ;
#52 = DIRECTION ( 'NONE',  ( 2.438088387897960049E-29, -3.491481338843145188E-15, -1.000000000000000000 ) ) ;
#53 = DIRECTION ( 'NONE',  ( -6.982962677686265133E-15, -1.000000000000000000, 3.500519750498718237E-15 ) ) ;
#54 = LINE ( 'NONE', #20, #315 ) ;
#55 = VECTOR ( 'NONE', #355, 39.37007874015748854 ) ;
#56 = DIRECTION ( 'NONE',  ( 6.982962677686265922E-15, 1.000000000000000000, -3.497100907278608753E-15 ) ) ;
#57 = APPROVAL_DATE_TIME ( #381, #332 ) ;
#58 = PRODUCT ( '62112', '62112', '', ( #167 ) ) ;
#59 = FACE_OUTER_BOUND ( 'NONE', #46, .T. ) ;
#60 = CARTESIAN_POINT ( 'NONE',  ( 6.161603204064070566E-29, -8.797136381349191038E-15, -2.519600000000000062 ) ) ;
#61 = CARTESIAN_POINT ( 'NONE',  ( 0.000000000000000000, 0.000000000000000000, 0.000000000000000000 ) ) ;
#62 = CLOSED_SHELL ( 'NONE', ( #1, #114, #211, #246, #44, #132, #222, #236 ) ) ;
#63 = CARTESIAN_POINT ( 'NONE',  ( -0.2554000000000007931, -6.979761007043778722E-15, -2.519600000000000062 ) ) ;
#64 = LOCAL_TIME ( 2, 9, 11.00000000000000000, #29 ) ;
#65 = PERSON ( 'UNSPECIFIED', 'UNSPECIFIED', 'UNSPECIFIED', ('UNSPECIFIED'), ('UNSPECIFIED'), ('UNSPECIFIED') ) ;
#66 = EDGE_CURVE ( 'NONE', #253, #303, #54, .T. ) ;
#67 = ORIENTED_EDGE ( 'NONE', *, *, #22, .F. ) ;
#68 = ORIENTED_EDGE ( 'NONE', *, *, #136, .T. ) ;
#69 = ORIENTED_EDGE ( 'NONE', *, *, #180, .F. ) ;
#70 = COORDINATED_UNIVERSAL_TIME_OFFSET ( 5, 0, .BEHIND. ) ;
#71 = DIRECTION ( 'NONE',  ( -1.000000000000000000, 6.982962677686266711E-15, 0.000000000000000000 ) ) ;
#72 = VECTOR ( 'NONE', #290, 39.37007874015748143 ) ;
#73 = ORGANIZATION ( 'UNSPECIFIED', 'UNSPECIFIED', '' ) ;
#74 = CYLINDRICAL_SURFACE ( 'NONE', #363, 0.2559000000000000719 ) ;
#75 = CARTESIAN_POINT ( 'NONE',  ( 6.160380469660977764E-29, -8.795390640679767168E-15, -2.519099999999999895 ) ) ;
#76 = ORIENTED_EDGE ( 'NONE', *, *, #3, .T. ) ;
#77 = DIRECTION ( 'NONE',  ( -6.982962677686265133E-15, -1.000000000000000000, 3.500519750498718237E-15 ) ) ;
#78 = ORIENTED_EDGE ( 'NONE', *, *, #83, .F. ) ;
#79 = DIRECTION ( 'NONE',  ( -2.441544682520182072E-29, 3.497100907278609147E-15, 1.000000000000000000 ) ) ;
#80 = AXIS2_PLACEMENT_3D ( 'NONE', #179, #329, #142 ) ;
#81 = ORIENTED_EDGE ( 'NONE', *, *, #214, .T. ) ;
#82 = LINE ( 'NONE', #320, #317 ) ;
#83 = EDGE_CURVE ( 'NONE', #195, #370, #101, .T. ) ;
#84 = LINE ( 'NONE', #216, #95 ) ;
#85 =( NAMED_UNIT ( * ) SI_UNIT ( $, .STERADIAN. ) SOLID_ANGLE_UNIT ( ) );
#86 = CARTESIAN_POINT ( 'NONE',  ( 0.2559000000000000163, -1.896048941058764840E-15, -0.03125000000000022204 ) ) ;
#87 = APPROVAL_DATE_TIME ( #352, #313 ) ;
#88 = UNCERTAINTY_MEASURE_WITH_UNIT (LENGTH_MEASURE( 1.000000000000000082E-05 ), #357, 'distance_accuracy_value', 'NONE');
#89 = CARTESIAN_POINT ( 'NONE',  ( -4.715368567034235886E-46, 6.732296611564785681E-32, 1.928206385257508162E-17 ) ) ;
#90 = EDGE_CURVE ( 'NONE', #319, #111, #15, .T. ) ;
#91 = CARTESIAN_POINT ( 'NONE',  ( -0.2559000000000003494, -6.977111779869668309E-15, -2.519099999999999895 ) ) ;
#92 = CYLINDRICAL_SURFACE ( 'NONE', #39, 0.2559000000000000719 ) ;
#93 = CARTESIAN_POINT ( 'NONE',  ( 6.160380469660977764E-29, -8.795390640679767168E-15, -2.519099999999999895 ) ) ;
#94 = DIRECTION ( 'NONE',  ( -2.441544682520182353E-29, 3.497100907278608753E-15, 1.000000000000000000 ) ) ;
#95 = VECTOR ( 'NONE', #341, 39.37007874015748143 ) ;
#96 = AXIS2_PLACEMENT_3D ( 'NONE', #162, #30, #139 ) ;
#97 = PERSON_AND_ORGANIZATION ( #65, #73 ) ;
#98 = EDGE_CURVE ( 'NONE', #314, #345, #390, .T. ) ;
#99 = CALENDAR_DATE ( 2024, 23, 4 ) ;
#100 = AXIS2_PLACEMENT_3D ( 'NONE', #281, #373, #219 ) ;
#101 = CIRCLE ( 'NONE', #347, 0.2559000000000000163 ) ;
#102 = ORIENTED_EDGE ( 'NONE', *, *, #180, .T. ) ;
#103 = DIRECTION ( 'NONE',  ( 1.000000000000000000, -6.982962677686266711E-15, 0.000000000000000000 ) ) ;
#104 = EDGE_CURVE ( 'NONE', #370, #195, #374, .T. ) ;
#105 = EDGE_LOOP ( 'NONE', ( #283, #282, #131, #278 ) ) ;
#106 = CARTESIAN_POINT ( 'NONE',  ( -0.2559000000000001829, 1.818278860810097675E-15, -1.258755489596231433E-29 ) ) ;
#107 = DIMENSIONAL_EXPONENTS ( 1.000000000000000000, 0.000000000000000000, 0.000000000000000000, 0.000000000000000000, 0.000000000000000000, 0.000000000000000000, 0.000000000000000000 ) ;
#108 = ORIENTED_EDGE ( 'NONE', *, *, #66, .T. ) ;
#109 = CC_DESIGN_PERSON_AND_ORGANIZATION_ASSIGNMENT ( #384, #288, ( #58 ) ) ;
#110 = DIRECTION ( 'NONE',  ( -6.982962677686265133E-15, -1.000000000000000000, 4.270180529369694815E-15 ) ) ;
#111 = VERTEX_POINT ( 'NONE', #91 ) ;
#112 = DIRECTION ( 'NONE',  ( 1.000000000000000000, -6.982962677686264344E-15, 0.000000000000000000 ) ) ;
#113 = COORDINATED_UNIVERSAL_TIME_OFFSET ( 5, 0, .BEHIND. ) ;
#114 = ADVANCED_FACE ( 'NONE', ( #59 ), #123, .T. ) ;
#115 = CARTESIAN_POINT ( 'NONE',  ( 6.161603204064070566E-29, -8.797136381349191038E-15, -2.519600000000000062 ) ) ;
#116 = APPLICATION_PROTOCOL_DEFINITION ( 'international standard', 'config_control_design', 1994, #333 ) ;
#117 = EDGE_CURVE ( 'NONE', #316, #319, #292, .T. ) ;
#118 = DESIGN_CONTEXT ( 'detailed design', #333, 'design' ) ;
#119 = LINE ( 'NONE', #231, #55 ) ;
#120 = APPROVAL_ROLE ( '' ) ;
#121 = CARTESIAN_POINT ( 'NONE',  ( -4.715368567034235886E-46, 6.732296611564785681E-32, 1.928206385257508162E-17 ) ) ;
#122 = DATE_TIME_ROLE ( 'creation_date' ) ;
#123 = CYLINDRICAL_SURFACE ( 'NONE', #242, 0.2559000000000001829 ) ;
#124 = LOCAL_TIME ( 2, 9, 11.00000000000000000, #70 ) ;
#125 = EDGE_LOOP ( 'NONE', ( #218, #5, #31, #152 ) ) ;
#126 = PERSON_AND_ORGANIZATION_ROLE ( 'classification_officer' ) ;
#127 = EDGE_LOOP ( 'NONE', ( #248, #220, #108, #362 ) ) ;
#128 = ORIENTED_EDGE ( 'NONE', *, *, #90, .T. ) ;
#129 = AXIS2_PLACEMENT_3D ( 'NONE', #133, #378, #110 ) ;
#130 = ADVANCED_FACE ( 'NONE', ( #209 ), #375, .T. ) ;
#131 = ORIENTED_EDGE ( 'NONE', *, *, #22, .T. ) ;
#132 = ADVANCED_FACE ( 'NONE', ( #266 ), #166, .T. ) ;
#133 = CARTESIAN_POINT ( 'NONE',  ( 9.617402268354165283E-29, -1.374698560164973353E-14, -3.935015039925868319 ) ) ;
#134 = LINE ( 'NONE', #215, #276 ) ;
#135 = APPROVAL_PERSON_ORGANIZATION ( #97, #340, #304 ) ;
#136 = EDGE_CURVE ( 'NONE', #372, #111, #206, .T. ) ;
#137 = DIRECTION ( 'NONE',  ( -6.982962677686265133E-15, -1.000000000000000000, 4.270180529369694815E-15 ) ) ;
#138 = ORIENTED_EDGE ( 'NONE', *, *, #47, .T. ) ;
#139 = DIRECTION ( 'NONE',  ( -1.000000000000000000, 6.982962677686266711E-15, 0.000000000000000000 ) ) ;
#140 = CONICAL_SURFACE ( 'NONE', #255, 0.2559000000000003494, 0.7853981633968336595 ) ;
#141 = DIRECTION ( 'NONE',  ( -2.445468806185136597E-29, 3.491481338843145583E-15, 1.000000000000000000 ) ) ;
#142 = DIRECTION ( 'NONE',  ( 1.000000000000000000, 0.000000000000000000, 0.000000000000000000 ) ) ;
#143 = DIRECTION ( 'NONE',  ( -2.441544682520182353E-29, 3.497100907278608753E-15, 1.000000000000000000 ) ) ;
#144 = PRODUCT_RELATED_PRODUCT_CATEGORY ( 'detail', '', ( #58 ) ) ;
#145 = DIRECTION ( 'NONE',  ( -2.445468806185136597E-29, 3.491481338843145583E-15, 1.000000000000000000 ) ) ;
#146 = CALENDAR_DATE ( 2024, 23, 4 ) ;
#147 = CARTESIAN_POINT ( 'NONE',  ( 6.160380469660977764E-29, -8.795390640679767168E-15, -2.519099999999999895 ) ) ;
#148 = AXIS2_PLACEMENT_3D ( 'NONE', #344, #79, #77 ) ;
#149 = APPLICATION_PROTOCOL_DEFINITION ( 'international standard', 'config_control_design', 1994, #271 ) ;
#150 = DIRECTION ( 'NONE',  ( 1.000000000000000000, -6.982962677686266711E-15, 0.000000000000000000 ) ) ;
#151 = LOCAL_TIME ( 2, 9, 11.00000000000000000, #267 ) ;
#152 = ORIENTED_EDGE ( 'NONE', *, *, #66, .F. ) ;
#153 = ORIENTED_EDGE ( 'NONE', *, *, #161, .T. ) ;
#154 = APPROVAL_DATE_TIME ( #305, #340 ) ;
#155 = DIRECTION ( 'NONE',  ( 2.445468806185136597E-29, -3.491481338843145583E-15, -1.000000000000000000 ) ) ;
#156 = APPROVAL_PERSON_ORGANIZATION ( #263, #313, #120 ) ;
#157 = CC_DESIGN_PERSON_AND_ORGANIZATION_ASSIGNMENT ( #173, #175, ( #8 ) ) ;
#158 = ORIENTED_EDGE ( 'NONE', *, *, #214, .F. ) ;
#159 = PLANE ( 'NONE',  #100 ) ;
#160 = EDGE_LOOP ( 'NONE', ( #153, #68, #335, #10 ) ) ;
#161 = EDGE_CURVE ( 'NONE', #316, #372, #50, .T. ) ;
#162 = CARTESIAN_POINT ( 'NONE',  ( 7.642090019328606165E-31, -1.091087918388490760E-16, -0.03125000000000022204 ) ) ;
#163 = EDGE_LOOP ( 'NONE', ( #272, #376 ) ) ;
#164 = ORIENTED_EDGE ( 'NONE', *, *, #104, .T. ) ;
#165 = DIRECTION ( 'NONE',  ( -2.445468806185136877E-29, 3.491481338843145188E-15, 1.000000000000000000 ) ) ;
#166 = CYLINDRICAL_SURFACE ( 'NONE', #301, 0.2559000000000001829 ) ;
#167 = MECHANICAL_CONTEXT ( 'NONE', #271, 'mechanical' ) ;
#168 = VECTOR ( 'NONE', #16, 39.37007874015748143 ) ;
#169 = AXIS2_PLACEMENT_3D ( 'NONE', #225, #141, #112 ) ;
#170 = DIRECTION ( 'NONE',  ( -2.445468806185136597E-29, 3.491481338843145583E-15, 1.000000000000000000 ) ) ;
#171 = PERSON_AND_ORGANIZATION ( #65, #73 ) ;
#172 = FACE_OUTER_BOUND ( 'NONE', #160, .T. ) ;
#173 = PERSON_AND_ORGANIZATION ( #65, #73 ) ;
#174 = DIRECTION ( 'NONE',  ( 1.000000000000000000, -6.982962677686266711E-15, 4.876176775795935793E-29 ) ) ;
#175 = PERSON_AND_ORGANIZATION_ROLE ( 'creator' ) ;
#176 = AXIS2_PLACEMENT_3D ( 'NONE', #2, #155, #71 ) ;
#177 = CARTESIAN_POINT ( 'NONE',  ( 7.642090019328606165E-31, -1.091087918388490760E-16, -0.03125000000000022204 ) ) ;
#178 = CC_DESIGN_SECURITY_CLASSIFICATION ( #27, ( #205 ) ) ;
#179 = CARTESIAN_POINT ( 'NONE',  ( 0.000000000000000000, 0.000000000000000000, 0.000000000000000000 ) ) ;
#180 = EDGE_CURVE ( 'NONE', #361, #227, #360, .T. ) ;
#181 = PERSON_AND_ORGANIZATION ( #65, #73 ) ;
#182 = EDGE_LOOP ( 'NONE', ( #244, #192, #368, #285 ) ) ;
#183 = CIRCLE ( 'NONE', #270, 0.2559000000000003494 ) ;
#184 = ORIENTED_EDGE ( 'NONE', *, *, #98, .T. ) ;
#185 = COORDINATED_UNIVERSAL_TIME_OFFSET ( 5, 0, .BEHIND. ) ;
#186 = AXIS2_PLACEMENT_3D ( 'NONE', #147, #328, #356 ) ;
#187 = VECTOR ( 'NONE', #165, 39.37007874015748143 ) ;
#188 = FACE_OUTER_BOUND ( 'NONE', #127, .T. ) ;
#189 = ORIENTED_EDGE ( 'NONE', *, *, #98, .F. ) ;
#190 = DIRECTION ( 'NONE',  ( -0.7071067811865444641, 2.468850131082225112E-15, -0.7071067811865504593 ) ) ;
#191 = CARTESIAN_POINT ( 'NONE',  ( 6.161603204064070566E-29, -8.797136381349191038E-15, -2.519600000000000062 ) ) ;
#192 = ORIENTED_EDGE ( 'NONE', *, *, #379, .T. ) ;
#193 = CC_DESIGN_PERSON_AND_ORGANIZATION_ASSIGNMENT ( #181, #126, ( #27 ) ) ;
#194 = DIRECTION ( 'NONE',  ( -2.441544682520182072E-29, 3.497100907278609147E-15, 1.000000000000000000 ) ) ;
#195 = VERTEX_POINT ( 'NONE', #86 ) ;
#196 = FACE_OUTER_BOUND ( 'NONE', #348, .T. ) ;
#197 = CIRCLE ( 'NONE', #254, 0.2246500000000000441 ) ;
#198 =( GEOMETRIC_REPRESENTATION_CONTEXT ( 3 ) GLOBAL_UNCERTAINTY_ASSIGNED_CONTEXT ( ( #88 ) ) GLOBAL_UNIT_ASSIGNED_CONTEXT ( ( #357, #204, #85 ) ) REPRESENTATION_CONTEXT ( 'NONE', 'WORKASPACE' ) );
#199 = EDGE_LOOP ( 'NONE', ( #310, #184, #300 ) ) ;
#200 = CARTESIAN_POINT ( 'NONE',  ( 0.2246500000000000441, -1.702960552333979751E-15, 1.928206385258651702E-17 ) ) ;
#201 = ADVANCED_FACE ( 'NONE', ( #24 ), #203, .F. ) ;
#202 = FACE_OUTER_BOUND ( 'NONE', #182, .T. ) ;
#203 = PLANE ( 'NONE',  #296 ) ;
#204 =( NAMED_UNIT ( * ) PLANE_ANGLE_UNIT ( ) SI_UNIT ( $, .RADIAN. ) );
#205 = PRODUCT_DEFINITION_FORMATION_WITH_SPECIFIED_SOURCE ( 'ANY', '', #58, .NOT_KNOWN. ) ;
#206 = LINE ( 'NONE', #259, #72 ) ;
#207 = MANIFOLD_SOLID_BREP ( 'Body-Move/Copy2[1]', #32 ) ;
#208 = APPROVAL_STATUS ( 'not_yet_approved' ) ;
#209 = FACE_OUTER_BOUND ( 'NONE', #273, .T. ) ;
#210 = CARTESIAN_POINT ( 'NONE',  ( 6.161603204064070566E-29, -8.797136381349191038E-15, -2.519600000000000062 ) ) ;
#211 = ADVANCED_FACE ( 'NONE', ( #172 ), #140, .T. ) ;
#212 = DIRECTION ( 'NONE',  ( -2.445468806185136597E-29, 3.491481338843145583E-15, 1.000000000000000000 ) ) ;
#213 = CARTESIAN_POINT ( 'NONE',  ( -0.2246500000000000441, 1.623276961461643666E-15, 1.928206385256392047E-17 ) ) ;
#214 = EDGE_CURVE ( 'NONE', #227, #195, #119, .T. ) ;
#215 = CARTESIAN_POINT ( 'NONE',  ( -0.2559000000000000163, 1.677831357381066836E-15, -0.03125000000000022204 ) ) ;
#216 = CARTESIAN_POINT ( 'NONE',  ( 0.2559000000000001829, -1.786940149219916923E-15, 1.247813636926180879E-29 ) ) ;
#217 = ORIENTED_EDGE ( 'NONE', *, *, #261, .T. ) ;
#218 = ORIENTED_EDGE ( 'NONE', *, *, #18, .T. ) ;
#219 = DIRECTION ( 'NONE',  ( 1.000000000000000000, -6.982962677686265922E-15, 4.876176775795935793E-29 ) ) ;
#220 = ORIENTED_EDGE ( 'NONE', *, *, #274, .T. ) ;
#221 = DIRECTION ( 'NONE',  ( -2.445468806185136597E-29, 3.491481338843145583E-15, 1.000000000000000000 ) ) ;
#222 = ADVANCED_FACE ( 'NONE', ( #240 ), #265, .T. ) ;
#223 = VECTOR ( 'NONE', #94, 39.37007874015748143 ) ;
#224 = DIRECTION ( 'NONE',  ( -2.441544682520182072E-29, 3.497100907278609147E-15, 1.000000000000000000 ) ) ;
#225 = CARTESIAN_POINT ( 'NONE',  ( 6.161603204064070566E-29, -8.797136381349191038E-15, -2.519600000000000062 ) ) ;
#226 = CALENDAR_DATE ( 2024, 23, 4 ) ;
#227 = VERTEX_POINT ( 'NONE', #200 ) ;
#228 = DIRECTION ( 'NONE',  ( 2.441544682520182072E-29, -3.497100907278608753E-15, -1.000000000000000000 ) ) ;
#229 = DIRECTION ( 'NONE',  ( -6.982962677686265133E-15, -1.000000000000000000, 4.270180529369694815E-15 ) ) ;
#230 = AXIS2_PLACEMENT_3D ( 'NONE', #342, #52, #48 ) ;
#231 = CARTESIAN_POINT ( 'NONE',  ( 0.2559000000000000163, -1.864710229468584088E-15, -0.03125000000000022204 ) ) ;
#232 =( LENGTH_UNIT ( ) NAMED_UNIT ( * ) SI_UNIT ( $, .METRE. ) );
#233 = DIRECTION ( 'NONE',  ( -6.982962677686265133E-15, -1.000000000000000000, 4.270180529369694815E-15 ) ) ;
#234 = DIRECTION ( 'NONE',  ( -2.445468806185136597E-29, 3.491481338843145583E-15, 1.000000000000000000 ) ) ;
#235 = DATE_AND_TIME ( #359, #40 ) ;
#236 = ADVANCED_FACE ( 'NONE', ( #196 ), #279, .F. ) ;
#237 = AXIS2_PLACEMENT_3D ( 'NONE', #93, #145, #256 ) ;
#238 = AXIS2_PLACEMENT_3D ( 'NONE', #121, #293, #351 ) ;
#239 = CC_DESIGN_DATE_AND_TIME_ASSIGNMENT ( #235, #334, ( #27 ) ) ;
#240 = FACE_OUTER_BOUND ( 'NONE', #251, .T. ) ;
#241 = ORIENTED_EDGE ( 'NONE', *, *, #83, .T. ) ;
#242 = AXIS2_PLACEMENT_3D ( 'NONE', #61, #234, #174 ) ;
#243 = CC_DESIGN_APPROVAL ( #340, ( #27 ) ) ;
#244 = ORIENTED_EDGE ( 'NONE', *, *, #136, .F. ) ;
#245 = CARTESIAN_POINT ( 'NONE',  ( 0.2554000000000007931, -1.058058504923026850E-14, -2.519600000000000062 ) ) ;
#246 = ADVANCED_FACE ( 'NONE', ( #346 ), #159, .F. ) ;
#247 = VECTOR ( 'NONE', #354, 39.37007874015748854 ) ;
#248 = ORIENTED_EDGE ( 'NONE', *, *, #353, .F. ) ;
#249 = CC_DESIGN_APPROVAL ( #332, ( #8 ) ) ;
#250 = CARTESIAN_POINT ( 'NONE',  ( 9.804510981596294215E-29, -1.404330811335871114E-14, -4.015699999999999825 ) ) ;
#251 = EDGE_LOOP ( 'NONE', ( #158, #69, #343, #164 ) ) ;
#252 = CARTESIAN_POINT ( 'NONE',  ( 1.818278860810193522E-15, 0.2558999999999863606, -3.935015039925869651 ) ) ;
#253 = VERTEX_POINT ( 'NONE', #311 ) ;
#254 = AXIS2_PLACEMENT_3D ( 'NONE', #89, #212, #28 ) ;
#255 = AXIS2_PLACEMENT_3D ( 'NONE', #23, #262, #385 ) ;
#256 = DIRECTION ( 'NONE',  ( 1.000000000000000000, -6.982962677686266711E-15, 0.000000000000000000 ) ) ;
#257 = ADVANCED_BREP_SHAPE_REPRESENTATION ( '62112', ( #207, #336, #80 ), #198 ) ;
#258 = APPROVAL_ROLE ( '' ) ;
#259 = CARTESIAN_POINT ( 'NONE',  ( -0.2559000000000003494, -6.977111779869668309E-15, -2.519099999999999895 ) ) ;
#260 = LENGTH_MEASURE_WITH_UNIT ( LENGTH_MEASURE( 0.02539999999999999897 ), #232 );
#261 = EDGE_CURVE ( 'NONE', #314, #253, #82, .T. ) ;
#262 = DIRECTION ( 'NONE',  ( -2.445468806185136597E-29, 3.491481338843145583E-15, 1.000000000000000000 ) ) ;
#263 = PERSON_AND_ORGANIZATION ( #65, #73 ) ;
#264 = AXIS2_PLACEMENT_3D ( 'NONE', #369, #224, #350 ) ;
#265 = CONICAL_SURFACE ( 'NONE', #96, 0.2559000000000000163, 0.7853981633974440602 ) ;
#266 = FACE_OUTER_BOUND ( 'NONE', #105, .T. ) ;
#267 = COORDINATED_UNIVERSAL_TIME_OFFSET ( 5, 0, .BEHIND. ) ;
#268 = DIRECTION ( 'NONE',  ( -2.445468806185136597E-29, 3.491481338843145583E-15, 1.000000000000000000 ) ) ;
#269 = APPROVAL_STATUS ( 'not_yet_approved' ) ;
#270 = AXIS2_PLACEMENT_3D ( 'NONE', #75, #221, #103 ) ;
#271 = APPLICATION_CONTEXT ( 'configuration controlled 3d designs of mechanical parts and assemblies' ) ;
#272 = ORIENTED_EDGE ( 'NONE', *, *, #161, .F. ) ;
#273 = EDGE_LOOP ( 'NONE', ( #189, #217, #34 ) ) ;
#274 = EDGE_CURVE ( 'NONE', #345, #253, #308, .T. ) ;
#275 = APPROVAL_STATUS ( 'not_yet_approved' ) ;
#276 = VECTOR ( 'NONE', #190, 39.37007874015748854 ) ;
#277 = DIRECTION ( 'NONE',  ( -2.441544682520182072E-29, 3.497100907278609147E-15, 1.000000000000000000 ) ) ;
#278 = ORIENTED_EDGE ( 'NONE', *, *, #104, .F. ) ;
#279 = PLANE ( 'NONE',  #230 ) ;
#280 = ORIENTED_EDGE ( 'NONE', *, *, #47, .F. ) ;
#281 = CARTESIAN_POINT ( 'NONE',  ( 6.161603204064070566E-29, -8.797136381349191038E-15, -2.519600000000000062 ) ) ;
#282 = ORIENTED_EDGE ( 'NONE', *, *, #297, .T. ) ;
#283 = ORIENTED_EDGE ( 'NONE', *, *, #307, .F. ) ;
#284 = CC_DESIGN_DATE_AND_TIME_ASSIGNMENT ( #389, #122, ( #8 ) ) ;
#285 = ORIENTED_EDGE ( 'NONE', *, *, #297, .F. ) ;
#286 = CARTESIAN_POINT ( 'NONE',  ( 0.2559000000000003494, -1.058233078989968606E-14, -2.519099999999999895 ) ) ;
#287 = DIRECTION ( 'NONE',  ( 1.000000000000000000, -6.982962677686266711E-15, 4.876176775795935793E-29 ) ) ;
#288 = PERSON_AND_ORGANIZATION_ROLE ( 'design_owner' ) ;
#289 = LOCAL_TIME ( 2, 9, 11.00000000000000000, #113 ) ;
#290 = DIRECTION ( 'NONE',  ( -0.7071067811861129204, 7.493145998868782749E-15, 0.7071067811869821140 ) ) ;
#291 = PERSON_AND_ORGANIZATION_ROLE ( 'creator' ) ;
#292 = LINE ( 'NONE', #358, #168 ) ;
#293 = DIRECTION ( 'NONE',  ( -2.445468806185136597E-29, 3.491481338843145583E-15, 1.000000000000000000 ) ) ;
#294 = FACE_OUTER_BOUND ( 'NONE', #125, .T. ) ;
#295 = CONICAL_SURFACE ( 'NONE', #176, 0.2559000000000000163, 0.7853981633974440602 ) ;
#296 = AXIS2_PLACEMENT_3D ( 'NONE', #115, #228, #56 ) ;
#297 = EDGE_CURVE ( 'NONE', #111, #319, #183, .T. ) ;
#298 = CARTESIAN_POINT ( 'NONE',  ( 1.818278860810192733E-15, 0.2558999999999912456, -2.519600000000001394 ) ) ;
#299 = SECURITY_CLASSIFICATION_LEVEL ( 'unclassified' ) ;
#300 = ORIENTED_EDGE ( 'NONE', *, *, #18, .F. ) ;
#301 = AXIS2_PLACEMENT_3D ( 'NONE', #380, #170, #287 ) ;
#302 = AXIS2_PLACEMENT_3D ( 'NONE', #45, #194, #137 ) ;
#303 = VERTEX_POINT ( 'NONE', #42 ) ;
#304 = APPROVAL_ROLE ( '' ) ;
#305 = DATE_AND_TIME ( #99, #124 ) ;
#306 = CONICAL_SURFACE ( 'NONE', #186, 0.2559000000000003494, 0.7853981633968336595 ) ;
#307 = EDGE_CURVE ( 'NONE', #111, #370, #12, .T. ) ;
#308 = CIRCLE ( 'NONE', #129, 0.2559000000000000719 ) ;
#309 = CARTESIAN_POINT ( 'NONE',  ( 6.161603204064070566E-29, -8.797136381349191038E-15, -2.519600000000000062 ) ) ;
#310 = ORIENTED_EDGE ( 'NONE', *, *, #261, .F. ) ;
#311 = CARTESIAN_POINT ( 'NONE',  ( -1.786940149219820287E-15, -0.2559000000000139496, -3.935015039925867431 ) ) ;
#312 = DIRECTION ( 'NONE',  ( -6.982962677686265133E-15, -1.000000000000000000, 4.270180529369694815E-15 ) ) ;
#313 = APPROVAL ( #269, 'UNSPECIFIED' ) ;
#314 = VERTEX_POINT ( 'NONE', #250 ) ;
#315 = VECTOR ( 'NONE', #143, 39.37007874015748143 ) ;
#316 = VERTEX_POINT ( 'NONE', #245 ) ;
#317 = VECTOR ( 'NONE', #339, 39.37007874015748143 ) ;
#318 = EDGE_CURVE ( 'NONE', #361, #370, #134, .T. ) ;
#319 = VERTEX_POINT ( 'NONE', #286 ) ;
#320 = CARTESIAN_POINT ( 'NONE',  ( 9.804510981596293094E-29, -1.404330811335871114E-14, -4.015699999999999825 ) ) ;
#321 = CARTESIAN_POINT ( 'NONE',  ( -8.630940819484985852E-28, 1.236519890331063059E-13, 35.35437874015748605 ) ) ;
#322 = DIRECTION ( 'NONE',  ( -2.445468806185136597E-29, 3.491481338843145583E-15, 1.000000000000000000 ) ) ;
#323 = CARTESIAN_POINT ( 'NONE',  ( 9.824458824100514024E-29, -1.401498998409872344E-14, -4.015699999999999825 ) ) ;
#324 = ADVANCED_FACE ( 'NONE', ( #364 ), #17, .T. ) ;
#325 = APPROVAL_PERSON_ORGANIZATION ( #19, #332, #258 ) ;
#326 = CARTESIAN_POINT ( 'NONE',  ( 7.642090019328606165E-31, -1.091087918388490760E-16, -0.03125000000000022204 ) ) ;
#327 = CALENDAR_DATE ( 2024, 23, 4 ) ;
#328 = DIRECTION ( 'NONE',  ( -2.445468806185136597E-29, 3.491481338843145583E-15, 1.000000000000000000 ) ) ;
#329 = DIRECTION ( 'NONE',  ( 0.000000000000000000, 0.000000000000000000, 1.000000000000000000 ) ) ;
#330 = DIRECTION ( 'NONE',  ( 1.000000000000000000, -6.982962677686266711E-15, 0.000000000000000000 ) ) ;
#331 = DIRECTION ( 'NONE',  ( -2.441544682520182072E-29, 3.497100907278609147E-15, 1.000000000000000000 ) ) ;
#332 = APPROVAL ( #208, 'UNSPECIFIED' ) ;
#333 = APPLICATION_CONTEXT ( 'configuration controlled 3d designs of mechanical parts and assemblies' ) ;
#334 = DATE_TIME_ROLE ( 'classification_date' ) ;
#335 = ORIENTED_EDGE ( 'NONE', *, *, #90, .F. ) ;
#336 = MANIFOLD_SOLID_BREP ( 'Body-Move/Copy2[2]', #62 ) ;
#337 = PERSON_AND_ORGANIZATION ( #65, #73 ) ;
#338 = EDGE_CURVE ( 'NONE', #303, #51, #7, .T. ) ;
#339 = DIRECTION ( 'NONE',  ( -6.659769872151629722E-15, -0.9537169507482263775, 0.3007057995042748955 ) ) ;
#340 = APPROVAL ( #275, 'UNSPECIFIED' ) ;
#341 = DIRECTION ( 'NONE',  ( -2.445468806185136877E-29, 3.491481338843145188E-15, 1.000000000000000000 ) ) ;
#342 = CARTESIAN_POINT ( 'NONE',  ( -2.357684283517117943E-46, 3.366148305782392841E-32, 9.641031926287540811E-18 ) ) ;
#343 = ORIENTED_EDGE ( 'NONE', *, *, #318, .T. ) ;
#344 = CARTESIAN_POINT ( 'NONE',  ( -8.630940819484985852E-28, 1.236519890331063059E-13, 35.35437874015748605 ) ) ;
#345 = VERTEX_POINT ( 'NONE', #252 ) ;
#346 = FACE_OUTER_BOUND ( 'NONE', #163, .T. ) ;
#347 = AXIS2_PLACEMENT_3D ( 'NONE', #177, #268, #150 ) ;
#348 = EDGE_LOOP ( 'NONE', ( #102, #138 ) ) ;
#349 = CC_DESIGN_APPROVAL ( #313, ( #205 ) ) ;
#350 = DIRECTION ( 'NONE',  ( -6.982962677686265133E-15, -1.000000000000000000, 4.270180529369694815E-15 ) ) ;
#351 = DIRECTION ( 'NONE',  ( 1.000000000000000000, -6.982962677686266711E-15, 4.875485759418170741E-29 ) ) ;
#352 = DATE_AND_TIME ( #226, #289 ) ;
#353 = EDGE_CURVE ( 'NONE', #345, #51, #14, .T. ) ;
#354 = DIRECTION ( 'NONE',  ( 6.776566513254254982E-15, 0.9537169507482283759, 0.3007057995042682341 ) ) ;
#355 = DIRECTION ( 'NONE',  ( 0.7071067811865444641, -7.319954787623245001E-15, -0.7071067811865504593 ) ) ;
#356 = DIRECTION ( 'NONE',  ( 1.000000000000000000, -6.982962677686266711E-15, 0.000000000000000000 ) ) ;
#357 =( CONVERSION_BASED_UNIT ( 'INCH', #260 ) LENGTH_UNIT ( ) NAMED_UNIT ( #107 ) );
#358 = CARTESIAN_POINT ( 'NONE',  ( 0.2559000000000003494, -1.058233078989968606E-14, -2.519099999999999895 ) ) ;
#359 = CALENDAR_DATE ( 2024, 23, 4 ) ;
#360 = CIRCLE ( 'NONE', #238, 0.2246500000000000441 ) ;
#361 = VERTEX_POINT ( 'NONE', #213 ) ;
#362 = ORIENTED_EDGE ( 'NONE', *, *, #3, .F. ) ;
#363 = AXIS2_PLACEMENT_3D ( 'NONE', #309, #41, #233 ) ;
#364 = FACE_OUTER_BOUND ( 'NONE', #199, .T. ) ;
#365 = ADVANCED_FACE ( 'NONE', ( #294 ), #92, .T. ) ;
#366 = CIRCLE ( 'NONE', #49, 0.2559000000000000719 ) ;
#367 = AXIS2_PLACEMENT_3D ( 'NONE', #210, #322, #386 ) ;
#368 = ORIENTED_EDGE ( 'NONE', *, *, #117, .T. ) ;
#369 = CARTESIAN_POINT ( 'NONE',  ( 9.617402268354165283E-29, -1.374698560164973353E-14, -3.935015039925868319 ) ) ;
#370 = VERTEX_POINT ( 'NONE', #26 ) ;
#371 = CARTESIAN_POINT ( 'NONE',  ( 1.818278860810158023E-15, 0.2558999999999912456, -2.519600000000001394 ) ) ;
#372 = VERTEX_POINT ( 'NONE', #63 ) ;
#373 = DIRECTION ( 'NONE',  ( -2.438088387897960049E-29, 3.491481338843145188E-15, 1.000000000000000000 ) ) ;
#374 = CIRCLE ( 'NONE', #25, 0.2559000000000000163 ) ;
#375 = CONICAL_SURFACE ( 'NONE', #38, 124.8659371009145787, 1.265363707695890572 ) ;
#376 = ORIENTED_EDGE ( 'NONE', *, *, #379, .F. ) ;
#377 = CIRCLE ( 'NONE', #367, 0.2554000000000007931 ) ;
#378 = DIRECTION ( 'NONE',  ( -2.441544682520182072E-29, 3.497100907278609147E-15, 1.000000000000000000 ) ) ;
#379 = EDGE_CURVE ( 'NONE', #372, #316, #377, .T. ) ;
#380 = CARTESIAN_POINT ( 'NONE',  ( 0.000000000000000000, 0.000000000000000000, 0.000000000000000000 ) ) ;
#381 = DATE_AND_TIME ( #327, #64 ) ;
#382 = CC_DESIGN_PERSON_AND_ORGANIZATION_ASSIGNMENT ( #337, #37, ( #205 ) ) ;
#383 = DIRECTION ( 'NONE',  ( -2.441544682520182072E-29, 3.497100907278609147E-15, 1.000000000000000000 ) ) ;
#384 = PERSON_AND_ORGANIZATION ( #65, #73 ) ;
#385 = DIRECTION ( 'NONE',  ( 1.000000000000000000, -6.982962677686266711E-15, 0.000000000000000000 ) ) ;
#386 = DIRECTION ( 'NONE',  ( 1.000000000000000000, -6.982962677686264344E-15, 0.000000000000000000 ) ) ;
#387 = FACE_OUTER_BOUND ( 'NONE', #9, .T. ) ;
#388 = DIRECTION ( 'NONE',  ( -2.445468806185136597E-29, 3.491481338843145583E-15, 1.000000000000000000 ) ) ;
#389 = DATE_AND_TIME ( #146, #151 ) ;
#390 = LINE ( 'NONE', #323, #247 ) ;
ENDSEC;
END-ISO-10303-21;
