ISO-10303-21;
HEADER;
FILE_DESCRIPTION (( 'STEP AP203' ),
    '1' );
FILE_NAME ('63022.STEP',
    '2024-04-23T07:52:20',
    ( '' ),
    ( '' ),
    'SwSTEP 2.0',
    'SolidWorks 2023',
    '' );
FILE_SCHEMA (( 'CONFIG_CONTROL_DESIGN' ));
ENDSEC;

DATA;
#1 = CARTESIAN_POINT ( 'NONE',  ( -1.209798283909094479E-15, -0.1732500000000072593, -2.078799999999999759 ) ) ;
#2 = CARTESIAN_POINT ( 'NONE',  ( 5.083640554297662384E-29, -7.258091407187131961E-15, -2.078800000000000203 ) ) ;
#3 = VERTEX_POINT ( 'NONE', #23 ) ;
#4 = APPROVAL_ROLE ( '' ) ;
#5 = ADVANCED_FACE ( 'NONE', ( #51 ), #222, .F. ) ;
#6 = CIRCLE ( 'NONE', #225, 0.1732499999999999873 ) ;
#7 = CARTESIAN_POINT ( 'NONE',  ( 7.642090019328598283E-31, -1.091087918388489651E-16, -0.03125000000000019429 ) ) ;
#8 = DATE_AND_TIME ( #277, #264 ) ;
#9 = PERSON_AND_ORGANIZATION ( #96, #61 ) ;
#10 = SECURITY_CLASSIFICATION_LEVEL ( 'unclassified' ) ;
#11 = CARTESIAN_POINT ( 'NONE',  ( -0.1732499999999999873, 1.100689492070296457E-15, -0.03125000000000019429 ) ) ;
#12 = PRODUCT ( '63022', '63022', '', ( #236 ) ) ;
#13 = AXIS2_PLACEMENT_3D ( 'NONE', #302, #64, #182 ) ;
#14 = FACE_OUTER_BOUND ( 'NONE', #133, .T. ) ;
#15 = ORIENTED_EDGE ( 'NONE', *, *, #336, .F. ) ;
#16 = APPROVAL_DATE_TIME ( #83, #384 ) ;
#17 = DIRECTION ( 'NONE',  ( 6.863315791527696626E-15, 0.9659258262890698665, 0.2588190451025147998 ) ) ;
#18 = LINE ( 'NONE', #53, #172 ) ;
#19 = DIRECTION ( 'NONE',  ( -2.445468806185136597E-29, 3.491481338843145583E-15, 1.000000000000000000 ) ) ;
#20 = PERSON_AND_ORGANIZATION_ROLE ( 'creator' ) ;
#21 = AXIS2_PLACEMENT_3D ( 'NONE', #323, #347, #294 ) ;
#22 = LINE ( 'NONE', #226, #257 ) ;
#23 = CARTESIAN_POINT ( 'NONE',  ( -0.1732500000000002649, -6.025330376813335989E-15, -2.078300000000000480 ) ) ;
#24 = AXIS2_PLACEMENT_3D ( 'NONE', #174, #256, #376 ) ;
#25 = PRODUCT_DEFINITION_FORMATION_WITH_SPECIFIED_SOURCE ( 'ANY', '', #12, .NOT_KNOWN. ) ;
#26 = FACE_OUTER_BOUND ( 'NONE', #38, .T. ) ;
#27 = DIRECTION ( 'NONE',  ( -0.7071067811867406405, 7.493145998871051513E-15, 0.7071067811863543939 ) ) ;
#28 = ORIENTED_EDGE ( 'NONE', *, *, #104, .F. ) ;
#29 = ADVANCED_FACE ( 'NONE', ( #296 ), #386, .T. ) ;
#30 = CARTESIAN_POINT ( 'NONE',  ( 5.082417819894570704E-29, -7.256345666517711246E-15, -2.078300000000000480 ) ) ;
#31 = DIRECTION ( 'NONE',  ( -2.445468806185136597E-29, 3.491481338843145583E-15, 1.000000000000000000 ) ) ;
#32 = COORDINATED_UNIVERSAL_TIME_OFFSET ( 5, 0, .BEHIND. ) ;
#33 = AXIS2_PLACEMENT_3D ( 'NONE', #103, #189, #248 ) ;
#34 = VERTEX_POINT ( 'NONE', #318 ) ;
#35 = CLOSED_SHELL ( 'NONE', ( #322, #161, #169, #385, #279 ) ) ;
#36 = ORIENTED_EDGE ( 'NONE', *, *, #39, .F. ) ;
#37 = ADVANCED_BREP_SHAPE_REPRESENTATION ( '63022', ( #93, #215, #91 ), #252 ) ;
#38 = EDGE_LOOP ( 'NONE', ( #327, #349 ) ) ;
#39 = EDGE_CURVE ( 'NONE', #212, #3, #351, .T. ) ;
#40 = CARTESIAN_POINT ( 'NONE',  ( 5.083640554297662384E-29, -7.258091407187131961E-15, -2.078800000000000203 ) ) ;
#41 = AXIS2_PLACEMENT_3D ( 'NONE', #30, #69, #166 ) ;
#42 = LINE ( 'NONE', #11, #263 ) ;
#43 = ORIENTED_EDGE ( 'NONE', *, *, #177, .F. ) ;
#44 = CARTESIAN_POINT ( 'NONE',  ( 0.1732499999999999873, -1.297690069952766931E-15, -0.03125000000000019429 ) ) ;
#45 = DIRECTION ( 'NONE',  ( -6.982962677686266711E-15, -1.000000000000000000, 3.153648477534503352E-15 ) ) ;
#46 = FACE_OUTER_BOUND ( 'NONE', #276, .T. ) ;
#47 = ORIENTED_EDGE ( 'NONE', *, *, #204, .T. ) ;
#48 = LINE ( 'NONE', #44, #297 ) ;
#49 = PERSON_AND_ORGANIZATION ( #96, #61 ) ;
#50 = AXIS2_PLACEMENT_3D ( 'NONE', #287, #110, #170 ) ;
#51 = FACE_OUTER_BOUND ( 'NONE', #250, .T. ) ;
#52 = APPLICATION_PROTOCOL_DEFINITION ( 'international standard', 'config_control_design', 1994, #60 ) ;
#53 = CARTESIAN_POINT ( 'NONE',  ( -0.1732500000000001261, 1.231015289704374468E-15, -8.522055043866630428E-30 ) ) ;
#54 = VERTEX_POINT ( 'NONE', #206 ) ;
#55 = APPROVAL_DATE_TIME ( #8, #224 ) ;
#56 = FACE_OUTER_BOUND ( 'NONE', #120, .T. ) ;
#57 = ORIENTED_EDGE ( 'NONE', *, *, #62, .F. ) ;
#58 = PRODUCT_RELATED_PRODUCT_CATEGORY ( 'detail', '', ( #12 ) ) ;
#59 = ORIENTED_EDGE ( 'NONE', *, *, #80, .T. ) ;
#60 = APPLICATION_CONTEXT ( 'configuration controlled 3d designs of mechanical parts and assemblies' ) ;
#61 = ORGANIZATION ( 'UNSPECIFIED', 'UNSPECIFIED', '' ) ;
#62 = EDGE_CURVE ( 'NONE', #148, #359, #200, .T. ) ;
#63 = ORIENTED_EDGE ( 'NONE', *, *, #303, .F. ) ;
#64 = DIRECTION ( 'NONE',  ( 2.445468806185136597E-29, -3.491481338843145583E-15, -1.000000000000000000 ) ) ;
#65 = ORIENTED_EDGE ( 'NONE', *, *, #364, .F. ) ;
#66 = APPROVAL_DATE_TIME ( #274, #153 ) ;
#67 = CARTESIAN_POINT ( 'NONE',  ( -0.1732499999999999873, -2.451711939473904522E-15, -0.03125000000000019429 ) ) ;
#68 = DIRECTION ( 'NONE',  ( -6.982962677686266711E-15, -1.000000000000000000, 3.153648477534503352E-15 ) ) ;
#69 = DIRECTION ( 'NONE',  ( -2.445468806185136597E-29, 3.491481338843145583E-15, 1.000000000000000000 ) ) ;
#70 = CC_DESIGN_DATE_AND_TIME_ASSIGNMENT ( #209, #300, ( #79 ) ) ;
#71 = APPROVAL_ROLE ( '' ) ;
#72 = ORIENTED_EDGE ( 'NONE', *, *, #107, .T. ) ;
#73 = VECTOR ( 'NONE', #142, 39.37007874015748143 ) ;
#74 = DATE_AND_TIME ( #100, #173 ) ;
#75 = CARTESIAN_POINT ( 'NONE',  ( 5.083640554297662384E-29, -7.258091407187131961E-15, -2.078800000000000203 ) ) ;
#76 = PERSON_AND_ORGANIZATION ( #96, #61 ) ;
#77 = DIRECTION ( 'NONE',  ( 1.000000000000000000, -6.982962677686268288E-15, 0.000000000000000000 ) ) ;
#78 = VECTOR ( 'NONE', #117, 39.37007874015748143 ) ;
#79 = SECURITY_CLASSIFICATION ( '', '', #10 ) ;
#80 = EDGE_CURVE ( 'NONE', #243, #223, #288, .T. ) ;
#81 = CARTESIAN_POINT ( 'NONE',  ( -1.209798283909094479E-15, -0.1732500000000072593, -2.078799999999999759 ) ) ;
#82 = VERTEX_POINT ( 'NONE', #140 ) ;
#83 = DATE_AND_TIME ( #338, #313 ) ;
#84 = DIRECTION ( 'NONE',  ( -2.445468806185136597E-29, 3.491481338843145583E-15, 1.000000000000000000 ) ) ;
#85 = VERTEX_POINT ( 'NONE', #67 ) ;
#86 = PERSON_AND_ORGANIZATION ( #96, #61 ) ;
#87 = CARTESIAN_POINT ( 'NONE',  ( 0.1732500000000002649, -8.466143950426858184E-15, -2.078300000000000480 ) ) ;
#88 = CARTESIAN_POINT ( 'NONE',  ( 5.083640554297662384E-29, -7.258091407187131961E-15, -2.078800000000000203 ) ) ;
#89 = VECTOR ( 'NONE', #333, 39.37007874015748143 ) ;
#90 = CARTESIAN_POINT ( 'NONE',  ( 8.087422235308702647E-29, -1.154666098172111659E-14, -3.307100000000000151 ) ) ;
#91 = AXIS2_PLACEMENT_3D ( 'NONE', #196, #315, #137 ) ;
#92 = CALENDAR_DATE ( 2024, 23, 4 ) ;
#93 = MANIFOLD_SOLID_BREP ( 'Body-Move/Copy2[1]', #35 ) ;
#94 = AXIS2_PLACEMENT_3D ( 'NONE', #40, #157, #371 ) ;
#95 = APPROVAL_PERSON_ORGANIZATION ( #49, #384, #372 ) ;
#96 = PERSON ( 'UNSPECIFIED', 'UNSPECIFIED', 'UNSPECIFIED', ('UNSPECIFIED'), ('UNSPECIFIED'), ('UNSPECIFIED') ) ;
#97 = ORIENTED_EDGE ( 'NONE', *, *, #204, .F. ) ;
#98 = EDGE_CURVE ( 'NONE', #243, #34, #389, .T. ) ;
#99 = EDGE_LOOP ( 'NONE', ( #171, #47, #109, #43 ) ) ;
#100 = CALENDAR_DATE ( 2024, 23, 4 ) ;
#101 = FACE_OUTER_BOUND ( 'NONE', #160, .T. ) ;
#102 = DIRECTION ( 'NONE',  ( -2.445468806185136597E-29, 3.491481338843145583E-15, 1.000000000000000000 ) ) ;
#103 = CARTESIAN_POINT ( 'NONE',  ( -1.182960040634177160E-47, 1.688953421129294899E-33, 4.837354856632017316E-19 ) ) ;
#104 = EDGE_CURVE ( 'NONE', #34, #148, #131, .T. ) ;
#105 = AXIS2_PLACEMENT_3D ( 'NONE', #227, #84, #199 ) ;
#106 = AXIS2_PLACEMENT_3D ( 'NONE', #136, #198, #304 ) ;
#107 = EDGE_CURVE ( 'NONE', #82, #374, #306, .T. ) ;
#108 = DIRECTION ( 'NONE',  ( -2.445468806185136597E-29, 3.491481338843145583E-15, 1.000000000000000000 ) ) ;
#109 = ORIENTED_EDGE ( 'NONE', *, *, #355, .T. ) ;
#110 = DIRECTION ( 'NONE',  ( -2.445454886265190022E-29, 3.491501272960781744E-15, 1.000000000000000000 ) ) ;
#111 = EDGE_LOOP ( 'NONE', ( #301, #59, #63 ) ) ;
#112 = CARTESIAN_POINT ( 'NONE',  ( 8.087363854367610339E-29, -1.154674385980860306E-14, -3.307100000000000151 ) ) ;
#113 = CIRCLE ( 'NONE', #319, 0.1732499999999999873 ) ;
#114 = DIRECTION ( 'NONE',  ( 1.000000000000000000, -6.982962677686265922E-15, 4.876164886021179859E-29 ) ) ;
#115 = ORIENTED_EDGE ( 'NONE', *, *, #39, .T. ) ;
#116 = DIRECTION ( 'NONE',  ( -2.438088387897960049E-29, 3.491481338843145188E-15, 1.000000000000000000 ) ) ;
#117 = DIRECTION ( 'NONE',  ( -2.445468806185136877E-29, 3.491481338843145188E-15, 1.000000000000000000 ) ) ;
#118 = ADVANCED_FACE ( 'NONE', ( #330 ), #178, .T. ) ;
#119 = CYLINDRICAL_SURFACE ( 'NONE', #354, 0.1732500000000001261 ) ;
#120 = EDGE_LOOP ( 'NONE', ( #314, #255, #57, #28 ) ) ;
#121 = CC_DESIGN_APPROVAL ( #153, ( #135 ) ) ;
#122 = EDGE_CURVE ( 'NONE', #359, #148, #283, .T. ) ;
#123 = EDGE_CURVE ( 'NONE', #223, #34, #113, .T. ) ;
#124 = CARTESIAN_POINT ( 'NONE',  ( -0.1727500000000000979, -6.027979603987446401E-15, -2.078800000000000203 ) ) ;
#125 = CARTESIAN_POINT ( 'NONE',  ( 0.1732499999999999873, -1.318907075747994658E-15, -0.03125000000000019429 ) ) ;
#126 = ORIENTED_EDGE ( 'NONE', *, *, #298, .F. ) ;
#127 = CARTESIAN_POINT ( 'NONE',  ( 5.083640554297662384E-29, -7.258091407187131961E-15, -2.078800000000000203 ) ) ;
#128 = CIRCLE ( 'NONE', #134, 0.1419999999999999873 ) ;
#129 = LOCAL_TIME ( 3, 52, 20.00000000000000000, #32 ) ;
#130 = DIRECTION ( 'NONE',  ( 1.000000000000000000, -6.982962677686264344E-15, 0.000000000000000000 ) ) ;
#131 = LINE ( 'NONE', #1, #345 ) ;
#132 = PERSON_AND_ORGANIZATION ( #96, #61 ) ;
#133 = EDGE_LOOP ( 'NONE', ( #344, #194 ) ) ;
#134 = AXIS2_PLACEMENT_3D ( 'NONE', #373, #108, #114 ) ;
#135 = PRODUCT_DEFINITION ( 'UNKNOWN', '', #25, #380 ) ;
#136 = CARTESIAN_POINT ( 'NONE',  ( -8.819035863666618962E-28, 1.259139776170611872E-13, 36.06297874015748306 ) ) ;
#137 = DIRECTION ( 'NONE',  ( 1.000000000000000000, 0.000000000000000000, 0.000000000000000000 ) ) ;
#138 = ORIENTED_EDGE ( 'NONE', *, *, #364, .T. ) ;
#139 = CARTESIAN_POINT ( 'NONE',  ( 1.231015289704453157E-15, 0.1732499999999885798, -3.260677802411309223 ) ) ;
#140 = CARTESIAN_POINT ( 'NONE',  ( 0.1727500000000000979, -8.464398209757434314E-15, -2.078800000000000203 ) ) ;
#141 = EDGE_LOOP ( 'NONE', ( #15, #184, #375, #377 ) ) ;
#142 = DIRECTION ( 'NONE',  ( -2.445454886265190022E-29, 3.491501272960781744E-15, 1.000000000000000000 ) ) ;
#143 = CYLINDRICAL_SURFACE ( 'NONE', #24, 0.1732499999999999873 ) ;
#144 = DIRECTION ( 'NONE',  ( 1.000000000000000000, -6.982962677686264344E-15, 0.000000000000000000 ) ) ;
#145 = UNCERTAINTY_MEASURE_WITH_UNIT (LENGTH_MEASURE( 1.000000000000000082E-05 ), #186, 'distance_accuracy_value', 'NONE');
#146 = CC_DESIGN_SECURITY_CLASSIFICATION ( #79, ( #25 ) ) ;
#147 = CC_DESIGN_PERSON_AND_ORGANIZATION_ASSIGNMENT ( #86, #20, ( #25 ) ) ;
#148 = VERTEX_POINT ( 'NONE', #81 ) ;
#149 = DIRECTION ( 'NONE',  ( -2.445454886265190022E-29, 3.491501272960781744E-15, 1.000000000000000000 ) ) ;
#150 = CONICAL_SURFACE ( 'NONE', #106, 146.9311341562565758, 1.308996938995749870 ) ;
#151 = APPLICATION_PROTOCOL_DEFINITION ( 'international standard', 'config_control_design', 1994, #310 ) ;
#152 = CONICAL_SURFACE ( 'NONE', #346, 0.1732499999999999873, 0.7853981633974453924 ) ;
#153 = APPROVAL ( #185, 'UNSPECIFIED' ) ;
#154 = EDGE_LOOP ( 'NONE', ( #213, #357, #269 ) ) ;
#155 = CARTESIAN_POINT ( 'NONE',  ( -0.1419999999999999873, 1.046135096150873090E-15, 4.837354856560765612E-19 ) ) ;
#156 = AXIS2_PLACEMENT_3D ( 'NONE', #158, #320, #369 ) ;
#157 = DIRECTION ( 'NONE',  ( -2.445468806185136597E-29, 3.491481338843145583E-15, 1.000000000000000000 ) ) ;
#158 = CARTESIAN_POINT ( 'NONE',  ( -8.819035863666618962E-28, 1.259139776170611872E-13, 36.06297874015748306 ) ) ;
#159 =( NAMED_UNIT ( * ) SI_UNIT ( $, .STERADIAN. ) SOLID_ANGLE_UNIT ( ) );
#160 = EDGE_LOOP ( 'NONE', ( #175, #167, #370, #230 ) ) ;
#161 = ADVANCED_FACE ( 'NONE', ( #191 ), #325, .T. ) ;
#162 = DIRECTION ( 'NONE',  ( 0.7071067811865454633, -7.319954787623248157E-15, -0.7071067811865495711 ) ) ;
#163 = DIRECTION ( 'NONE',  ( 2.445468806185136597E-29, -3.491481338843145583E-15, -1.000000000000000000 ) ) ;
#164 = CLOSED_SHELL ( 'NONE', ( #118, #352, #29, #5, #208, #211, #312, #316 ) ) ;
#165 = DATE_TIME_ROLE ( 'creation_date' ) ;
#166 = DIRECTION ( 'NONE',  ( 1.000000000000000000, -6.982962677686264344E-15, 0.000000000000000000 ) ) ;
#167 = ORIENTED_EDGE ( 'NONE', *, *, #123, .T. ) ;
#168 = EDGE_LOOP ( 'NONE', ( #126, #218, #203, #65 ) ) ;
#169 = ADVANCED_FACE ( 'NONE', ( #220 ), #150, .T. ) ;
#170 = DIRECTION ( 'NONE',  ( -6.982962677686266711E-15, -1.000000000000000000, 3.153648477534503352E-15 ) ) ;
#171 = ORIENTED_EDGE ( 'NONE', *, *, #332, .F. ) ;
#172 = VECTOR ( 'NONE', #197, 39.37007874015748143 ) ;
#173 = LOCAL_TIME ( 3, 52, 20.00000000000000000, #305 ) ;
#174 = CARTESIAN_POINT ( 'NONE',  ( 5.083640554297662384E-29, -7.258091407187131961E-15, -2.078800000000000203 ) ) ;
#175 = ORIENTED_EDGE ( 'NONE', *, *, #237, .F. ) ;
#176 = EDGE_LOOP ( 'NONE', ( #115, #387, #280, #383 ) ) ;
#177 = EDGE_CURVE ( 'NONE', #390, #85, #42, .T. ) ;
#178 = CONICAL_SURFACE ( 'NONE', #13, 0.1732499999999999873, 0.7853981633974453924 ) ;
#179 = CIRCLE ( 'NONE', #216, 0.1732499999999999873 ) ;
#180 = APPROVAL_STATUS ( 'not_yet_approved' ) ;
#181 = PERSON_AND_ORGANIZATION_ROLE ( 'design_owner' ) ;
#182 = DIRECTION ( 'NONE',  ( -1.000000000000000000, 6.982962677686266711E-15, 0.000000000000000000 ) ) ;
#183 = EDGE_CURVE ( 'NONE', #374, #82, #362, .T. ) ;
#184 = ORIENTED_EDGE ( 'NONE', *, *, #183, .T. ) ;
#185 = APPROVAL_STATUS ( 'not_yet_approved' ) ;
#186 =( CONVERSION_BASED_UNIT ( 'INCH', #309 ) LENGTH_UNIT ( ) NAMED_UNIT ( #268 ) );
#187 = CC_DESIGN_PERSON_AND_ORGANIZATION_ASSIGNMENT ( #132, #247, ( #79 ) ) ;
#188 = PERSON_AND_ORGANIZATION ( #96, #61 ) ;
#189 = DIRECTION ( 'NONE',  ( -2.445468806185136597E-29, 3.491481338843145583E-15, 1.000000000000000000 ) ) ;
#190 = AXIS2_PLACEMENT_3D ( 'NONE', #2, #328, #68 ) ;
#191 = FACE_OUTER_BOUND ( 'NONE', #111, .T. ) ;
#192 =( LENGTH_UNIT ( ) NAMED_UNIT ( * ) SI_UNIT ( $, .METRE. ) );
#193 = CC_DESIGN_PERSON_AND_ORGANIZATION_ASSIGNMENT ( #258, #253, ( #25 ) ) ;
#194 = ORIENTED_EDGE ( 'NONE', *, *, #332, .T. ) ;
#195 = DIRECTION ( 'NONE',  ( -6.982962677686266711E-15, -1.000000000000000000, 3.153648477534503352E-15 ) ) ;
#196 = CARTESIAN_POINT ( 'NONE',  ( 0.000000000000000000, 0.000000000000000000, 0.000000000000000000 ) ) ;
#197 = DIRECTION ( 'NONE',  ( -2.445468806185136877E-29, 3.491481338843145188E-15, 1.000000000000000000 ) ) ;
#198 = DIRECTION ( 'NONE',  ( -2.445454886265190022E-29, 3.491501272960781744E-15, 1.000000000000000000 ) ) ;
#199 = DIRECTION ( 'NONE',  ( 1.000000000000000000, -6.982962677686264344E-15, 0.000000000000000000 ) ) ;
#200 = CIRCLE ( 'NONE', #21, 0.1732499999999999873 ) ;
#201 = AXIS2_PLACEMENT_3D ( 'NONE', #242, #281, #130 ) ;
#202 = APPROVAL_PERSON_ORGANIZATION ( #267, #224, #71 ) ;
#203 = ORIENTED_EDGE ( 'NONE', *, *, #266, .T. ) ;
#204 = EDGE_CURVE ( 'NONE', #54, #282, #48, .T. ) ;
#205 = DIRECTION ( 'NONE',  ( 2.438088387897960049E-29, -3.491481338843145188E-15, -1.000000000000000000 ) ) ;
#206 = CARTESIAN_POINT ( 'NONE',  ( 0.1419999999999999873, -1.135940392818162003E-15, 4.837354856706404434E-19 ) ) ;
#207 = AXIS2_PLACEMENT_3D ( 'NONE', #358, #102, #331 ) ;
#208 = ADVANCED_FACE ( 'NONE', ( #278 ), #210, .T. ) ;
#209 = DATE_AND_TIME ( #92, #129 ) ;
#210 = CONICAL_SURFACE ( 'NONE', #201, 0.1732500000000002649, 0.7853981633977213939 ) ;
#211 = ADVANCED_FACE ( 'NONE', ( #219 ), #246, .T. ) ;
#212 = VERTEX_POINT ( 'NONE', #365 ) ;
#213 = ORIENTED_EDGE ( 'NONE', *, *, #80, .F. ) ;
#214 = DIRECTION ( 'NONE',  ( 1.000000000000000000, -6.982962677686266711E-15, 0.000000000000000000 ) ) ;
#215 = MANIFOLD_SOLID_BREP ( 'Body-Move/Copy2[2]', #164 ) ;
#216 = AXIS2_PLACEMENT_3D ( 'NONE', #234, #31, #265 ) ;
#217 = EDGE_CURVE ( 'NONE', #390, #54, #233, .T. ) ;
#218 = ORIENTED_EDGE ( 'NONE', *, *, #295, .T. ) ;
#219 = FACE_OUTER_BOUND ( 'NONE', #168, .T. ) ;
#220 = FACE_OUTER_BOUND ( 'NONE', #154, .T. ) ;
#221 = CARTESIAN_POINT ( 'NONE',  ( 0.000000000000000000, 0.000000000000000000, 0.000000000000000000 ) ) ;
#222 = PLANE ( 'NONE',  #361 ) ;
#223 = VERTEX_POINT ( 'NONE', #139 ) ;
#224 = APPROVAL ( #180, 'UNSPECIFIED' ) ;
#225 = AXIS2_PLACEMENT_3D ( 'NONE', #7, #275, #214 ) ;
#226 = CARTESIAN_POINT ( 'NONE',  ( -0.1732500000000002649, -6.025330376813335989E-15, -2.078300000000000480 ) ) ;
#227 = CARTESIAN_POINT ( 'NONE',  ( 5.082417819894570704E-29, -7.256345666517711246E-15, -2.078300000000000480 ) ) ;
#228 = LINE ( 'NONE', #87, #324 ) ;
#229 = PLANE ( 'NONE',  #245 ) ;
#230 = ORIENTED_EDGE ( 'NONE', *, *, #122, .F. ) ;
#231 = PLANE ( 'NONE',  #335 ) ;
#232 = AXIS2_PLACEMENT_3D ( 'NONE', #127, #240, #77 ) ;
#233 = CIRCLE ( 'NONE', #33, 0.1419999999999999873 ) ;
#234 = CARTESIAN_POINT ( 'NONE',  ( 7.642090019328598283E-31, -1.091087918388489651E-16, -0.03125000000000019429 ) ) ;
#235 = DIRECTION ( 'NONE',  ( 1.000000000000000000, -6.982962677686266711E-15, 4.876176775795936353E-29 ) ) ;
#236 = MECHANICAL_CONTEXT ( 'NONE', #60, 'mechanical' ) ;
#237 = EDGE_CURVE ( 'NONE', #223, #359, #379, .T. ) ;
#238 = ORIENTED_EDGE ( 'NONE', *, *, #217, .F. ) ;
#239 = CC_DESIGN_PERSON_AND_ORGANIZATION_ASSIGNMENT ( #188, #360, ( #135 ) ) ;
#240 = DIRECTION ( 'NONE',  ( -2.445468806185136597E-29, 3.491481338843145583E-15, 1.000000000000000000 ) ) ;
#241 = CYLINDRICAL_SURFACE ( 'NONE', #190, 0.1732499999999999873 ) ;
#242 = CARTESIAN_POINT ( 'NONE',  ( 5.082417819894570704E-29, -7.256345666517711246E-15, -2.078300000000000480 ) ) ;
#243 = VERTEX_POINT ( 'NONE', #112 ) ;
#244 = COORDINATED_UNIVERSAL_TIME_OFFSET ( 5, 0, .BEHIND. ) ;
#245 = AXIS2_PLACEMENT_3D ( 'NONE', #289, #205, #254 ) ;
#246 = CYLINDRICAL_SURFACE ( 'NONE', #207, 0.1732500000000001261 ) ;
#247 = PERSON_AND_ORGANIZATION_ROLE ( 'classification_officer' ) ;
#248 = DIRECTION ( 'NONE',  ( 1.000000000000000000, -6.982962677686265922E-15, 4.876164886021179859E-29 ) ) ;
#249 = CARTESIAN_POINT ( 'NONE',  ( 7.973869401172761894E-29, -1.138461925879030796E-14, -3.260677802411308779 ) ) ;
#250 = EDGE_LOOP ( 'NONE', ( #329, #353 ) ) ;
#251 = VECTOR ( 'NONE', #17, 39.37007874015748143 ) ;
#252 =( GEOMETRIC_REPRESENTATION_CONTEXT ( 3 ) GLOBAL_UNCERTAINTY_ASSIGNED_CONTEXT ( ( #145 ) ) GLOBAL_UNIT_ASSIGNED_CONTEXT ( ( #186, #366, #159 ) ) REPRESENTATION_CONTEXT ( 'NONE', 'WORKASPACE' ) );
#253 = PERSON_AND_ORGANIZATION_ROLE ( 'design_supplier' ) ;
#254 = DIRECTION ( 'NONE',  ( -1.000000000000000000, 6.982962677686265922E-15, -4.876176775795935793E-29 ) ) ;
#255 = ORIENTED_EDGE ( 'NONE', *, *, #237, .T. ) ;
#256 = DIRECTION ( 'NONE',  ( -2.445454886265190022E-29, 3.491501272960781744E-15, 1.000000000000000000 ) ) ;
#257 = VECTOR ( 'NONE', #27, 39.37007874015748143 ) ;
#258 = PERSON_AND_ORGANIZATION ( #96, #61 ) ;
#259 = CC_DESIGN_DATE_AND_TIME_ASSIGNMENT ( #74, #165, ( #135 ) ) ;
#260 = FACE_OUTER_BOUND ( 'NONE', #176, .T. ) ;
#261 = ORIENTED_EDGE ( 'NONE', *, *, #177, .T. ) ;
#262 = DIRECTION ( 'NONE',  ( 2.445454886265189742E-29, -3.491501272960781744E-15, -1.000000000000000000 ) ) ;
#263 = VECTOR ( 'NONE', #317, 39.37007874015748143 ) ;
#264 = LOCAL_TIME ( 3, 52, 20.00000000000000000, #367 ) ;
#265 = DIRECTION ( 'NONE',  ( 1.000000000000000000, -6.982962677686266711E-15, 0.000000000000000000 ) ) ;
#266 = EDGE_CURVE ( 'NONE', #212, #282, #291, .T. ) ;
#267 = PERSON_AND_ORGANIZATION ( #96, #61 ) ;
#268 = DIMENSIONAL_EXPONENTS ( 1.000000000000000000, 0.000000000000000000, 0.000000000000000000, 0.000000000000000000, 0.000000000000000000, 0.000000000000000000, 0.000000000000000000 ) ;
#269 = ORIENTED_EDGE ( 'NONE', *, *, #123, .F. ) ;
#270 = CIRCLE ( 'NONE', #41, 0.1732500000000002649 ) ;
#271 = DIRECTION ( 'NONE',  ( 6.982962677686265922E-15, 1.000000000000000000, -3.491501272960781744E-15 ) ) ;
#272 = ORIENTED_EDGE ( 'NONE', *, *, #273, .F. ) ;
#273 = EDGE_CURVE ( 'NONE', #82, #212, #228, .T. ) ;
#274 = DATE_AND_TIME ( #356, #284 ) ;
#275 = DIRECTION ( 'NONE',  ( -2.445468806185136597E-29, 3.491481338843145583E-15, 1.000000000000000000 ) ) ;
#276 = EDGE_LOOP ( 'NONE', ( #97, #238, #261, #138 ) ) ;
#277 = CALENDAR_DATE ( 2024, 23, 4 ) ;
#278 = FACE_OUTER_BOUND ( 'NONE', #141, .T. ) ;
#279 = ADVANCED_FACE ( 'NONE', ( #26 ), #231, .F. ) ;
#280 = ORIENTED_EDGE ( 'NONE', *, *, #355, .F. ) ;
#281 = DIRECTION ( 'NONE',  ( -2.445468806185136597E-29, 3.491481338843145583E-15, 1.000000000000000000 ) ) ;
#282 = VERTEX_POINT ( 'NONE', #125 ) ;
#283 = CIRCLE ( 'NONE', #378, 0.1732499999999999873 ) ;
#284 = LOCAL_TIME ( 3, 52, 20.00000000000000000, #244 ) ;
#285 = COORDINATED_UNIVERSAL_TIME_OFFSET ( 5, 0, .BEHIND. ) ;
#286 = CC_DESIGN_PERSON_AND_ORGANIZATION_ASSIGNMENT ( #9, #181, ( #12 ) ) ;
#287 = CARTESIAN_POINT ( 'NONE',  ( 7.973869401172761894E-29, -1.138461925879030796E-14, -3.260677802411308779 ) ) ;
#288 = LINE ( 'NONE', #90, #251 ) ;
#289 = CARTESIAN_POINT ( 'NONE',  ( -5.914800203170885802E-48, 8.444767105646474497E-34, 2.418677428316008658E-19 ) ) ;
#290 = DIRECTION ( 'NONE',  ( 1.000000000000000000, -6.982962677686265922E-15, 4.876176775795935793E-29 ) ) ;
#291 = LINE ( 'NONE', #382, #78 ) ;
#292 = CIRCLE ( 'NONE', #50, 0.1732499999999999873 ) ;
#293 = DIRECTION ( 'NONE',  ( -1.000000000000000000, 6.982962677686266711E-15, 0.000000000000000000 ) ) ;
#294 = DIRECTION ( 'NONE',  ( -6.982962677686266711E-15, -1.000000000000000000, 3.153648477534503352E-15 ) ) ;
#295 = EDGE_CURVE ( 'NONE', #3, #212, #270, .T. ) ;
#296 = FACE_OUTER_BOUND ( 'NONE', #337, .T. ) ;
#297 = VECTOR ( 'NONE', #162, 39.37007874015748143 ) ;
#298 = EDGE_CURVE ( 'NONE', #3, #85, #18, .T. ) ;
#299 = CARTESIAN_POINT ( 'NONE',  ( 1.231015289704453157E-15, 0.1732499999999927154, -2.078800000000000647 ) ) ;
#300 = DATE_TIME_ROLE ( 'classification_date' ) ;
#301 = ORIENTED_EDGE ( 'NONE', *, *, #98, .F. ) ;
#302 = CARTESIAN_POINT ( 'NONE',  ( 7.642090019328598283E-31, -1.091087918388489651E-16, -0.03125000000000019429 ) ) ;
#303 = EDGE_CURVE ( 'NONE', #34, #223, #292, .T. ) ;
#304 = DIRECTION ( 'NONE',  ( -6.982962677686265922E-15, -1.000000000000000000, 3.510303681827602962E-15 ) ) ;
#305 = COORDINATED_UNIVERSAL_TIME_OFFSET ( 5, 0, .BEHIND. ) ;
#306 = CIRCLE ( 'NONE', #232, 0.1727500000000000979 ) ;
#307 = APPROVAL_PERSON_ORGANIZATION ( #76, #153, #4 ) ;
#308 = CARTESIAN_POINT ( 'NONE',  ( 8.087363854367609218E-29, -1.154674385980860306E-14, -3.307100000000000151 ) ) ;
#309 = LENGTH_MEASURE_WITH_UNIT ( LENGTH_MEASURE( 0.02539999999999999897 ), #192 );
#310 = APPLICATION_CONTEXT ( 'configuration controlled 3d designs of mechanical parts and assemblies' ) ;
#311 = DIRECTION ( 'NONE',  ( -2.445454886265190022E-29, 3.491501272960781744E-15, 1.000000000000000000 ) ) ;
#312 = ADVANCED_FACE ( 'NONE', ( #46 ), #152, .T. ) ;
#313 = LOCAL_TIME ( 3, 52, 20.00000000000000000, #285 ) ;
#314 = ORIENTED_EDGE ( 'NONE', *, *, #303, .T. ) ;
#315 = DIRECTION ( 'NONE',  ( 0.000000000000000000, 0.000000000000000000, 1.000000000000000000 ) ) ;
#316 = ADVANCED_FACE ( 'NONE', ( #14 ), #229, .F. ) ;
#317 = DIRECTION ( 'NONE',  ( -0.7071067811865454633, 2.468850131082235367E-15, -0.7071067811865495711 ) ) ;
#318 = CARTESIAN_POINT ( 'NONE',  ( -1.209798283909065488E-15, -0.1732500000000113394, -3.260677802411308335 ) ) ;
#319 = AXIS2_PLACEMENT_3D ( 'NONE', #249, #149, #45 ) ;
#320 = DIRECTION ( 'NONE',  ( -2.445454886265190022E-29, 3.491501272960781744E-15, 1.000000000000000000 ) ) ;
#321 = DIRECTION ( 'NONE',  ( 0.7071067811867406405, -2.468850131084279700E-15, 0.7071067811863543939 ) ) ;
#322 = ADVANCED_FACE ( 'NONE', ( #56 ), #143, .T. ) ;
#323 = CARTESIAN_POINT ( 'NONE',  ( 5.083640554297662384E-29, -7.258091407187131961E-15, -2.078800000000000203 ) ) ;
#324 = VECTOR ( 'NONE', #321, 39.37007874015748143 ) ;
#325 = CONICAL_SURFACE ( 'NONE', #156, 146.9311341562565758, 1.308996938995749870 ) ;
#326 = DIRECTION ( 'NONE',  ( -2.445454886265190022E-29, 3.491501272960781744E-15, 1.000000000000000000 ) ) ;
#327 = ORIENTED_EDGE ( 'NONE', *, *, #62, .T. ) ;
#328 = DIRECTION ( 'NONE',  ( -2.445454886265190022E-29, 3.491501272960781744E-15, 1.000000000000000000 ) ) ;
#329 = ORIENTED_EDGE ( 'NONE', *, *, #107, .F. ) ;
#330 = FACE_OUTER_BOUND ( 'NONE', #99, .T. ) ;
#331 = DIRECTION ( 'NONE',  ( 1.000000000000000000, -6.982962677686266711E-15, 4.876176775795936353E-29 ) ) ;
#332 = EDGE_CURVE ( 'NONE', #54, #390, #128, .T. ) ;
#333 = DIRECTION ( 'NONE',  ( -6.745023994389843077E-15, -0.9659258262890679791, 0.2588190451025215721 ) ) ;
#334 = PRODUCT_DEFINITION_SHAPE ( 'NONE', 'NONE',  #135 ) ;
#335 = AXIS2_PLACEMENT_3D ( 'NONE', #88, #262, #271 ) ;
#336 = EDGE_CURVE ( 'NONE', #374, #3, #22, .T. ) ;
#337 = EDGE_LOOP ( 'NONE', ( #72, #381, #36, #272 ) ) ;
#338 = CALENDAR_DATE ( 2024, 23, 4 ) ;
#339 = DIRECTION ( 'NONE',  ( -2.445468806185136597E-29, 3.491481338843145583E-15, 1.000000000000000000 ) ) ;
#340 = CARTESIAN_POINT ( 'NONE',  ( 5.083640554297662384E-29, -7.258091407187131961E-15, -2.078800000000000203 ) ) ;
#341 = CARTESIAN_POINT ( 'NONE',  ( 1.231015289704424166E-15, 0.1732499999999927154, -2.078800000000000647 ) ) ;
#342 = APPROVAL_STATUS ( 'not_yet_approved' ) ;
#343 = CARTESIAN_POINT ( 'NONE',  ( 7.642090019328598283E-31, -1.091087918388489651E-16, -0.03125000000000019429 ) ) ;
#344 = ORIENTED_EDGE ( 'NONE', *, *, #217, .T. ) ;
#345 = VECTOR ( 'NONE', #326, 39.37007874015748143 ) ;
#346 = AXIS2_PLACEMENT_3D ( 'NONE', #343, #163, #293 ) ;
#347 = DIRECTION ( 'NONE',  ( -2.445454886265190022E-29, 3.491501272960781744E-15, 1.000000000000000000 ) ) ;
#348 = SHAPE_DEFINITION_REPRESENTATION ( #334, #37 ) ;
#349 = ORIENTED_EDGE ( 'NONE', *, *, #122, .T. ) ;
#350 = CARTESIAN_POINT ( 'NONE',  ( 5.082417819894570704E-29, -7.256345666517711246E-15, -2.078300000000000480 ) ) ;
#351 = CIRCLE ( 'NONE', #368, 0.1732500000000002649 ) ;
#352 = ADVANCED_FACE ( 'NONE', ( #260 ), #119, .T. ) ;
#353 = ORIENTED_EDGE ( 'NONE', *, *, #183, .F. ) ;
#354 = AXIS2_PLACEMENT_3D ( 'NONE', #221, #339, #235 ) ;
#355 = EDGE_CURVE ( 'NONE', #282, #85, #179, .T. ) ;
#356 = CALENDAR_DATE ( 2024, 23, 4 ) ;
#357 = ORIENTED_EDGE ( 'NONE', *, *, #98, .T. ) ;
#358 = CARTESIAN_POINT ( 'NONE',  ( 0.000000000000000000, 0.000000000000000000, 0.000000000000000000 ) ) ;
#359 = VERTEX_POINT ( 'NONE', #299 ) ;
#360 = PERSON_AND_ORGANIZATION_ROLE ( 'creator' ) ;
#361 = AXIS2_PLACEMENT_3D ( 'NONE', #340, #116, #290 ) ;
#362 = CIRCLE ( 'NONE', #94, 0.1727500000000000979 ) ;
#363 = CC_DESIGN_APPROVAL ( #384, ( #25 ) ) ;
#364 = EDGE_CURVE ( 'NONE', #85, #282, #6, .T. ) ;
#365 = CARTESIAN_POINT ( 'NONE',  ( 0.1732500000000002649, -8.466143950426858184E-15, -2.078300000000000480 ) ) ;
#366 =( NAMED_UNIT ( * ) PLANE_ANGLE_UNIT ( ) SI_UNIT ( $, .RADIAN. ) );
#367 = COORDINATED_UNIVERSAL_TIME_OFFSET ( 5, 0, .BEHIND. ) ;
#368 = AXIS2_PLACEMENT_3D ( 'NONE', #350, #19, #144 ) ;
#369 = DIRECTION ( 'NONE',  ( -6.982962677686265922E-15, -1.000000000000000000, 3.510303681827602962E-15 ) ) ;
#370 = ORIENTED_EDGE ( 'NONE', *, *, #104, .T. ) ;
#371 = DIRECTION ( 'NONE',  ( 1.000000000000000000, -6.982962677686268288E-15, 0.000000000000000000 ) ) ;
#372 = APPROVAL_ROLE ( '' ) ;
#373 = CARTESIAN_POINT ( 'NONE',  ( -1.182960040634177160E-47, 1.688953421129294899E-33, 4.837354856632017316E-19 ) ) ;
#374 = VERTEX_POINT ( 'NONE', #124 ) ;
#375 = ORIENTED_EDGE ( 'NONE', *, *, #273, .T. ) ;
#376 = DIRECTION ( 'NONE',  ( -6.982962677686266711E-15, -1.000000000000000000, 3.153648477534503352E-15 ) ) ;
#377 = ORIENTED_EDGE ( 'NONE', *, *, #295, .F. ) ;
#378 = AXIS2_PLACEMENT_3D ( 'NONE', #75, #311, #195 ) ;
#379 = LINE ( 'NONE', #341, #73 ) ;
#380 = DESIGN_CONTEXT ( 'detailed design', #310, 'design' ) ;
#381 = ORIENTED_EDGE ( 'NONE', *, *, #336, .T. ) ;
#382 = CARTESIAN_POINT ( 'NONE',  ( 0.1732500000000001261, -1.209798283909146544E-15, 8.447976264066465684E-30 ) ) ;
#383 = ORIENTED_EDGE ( 'NONE', *, *, #266, .F. ) ;
#384 = APPROVAL ( #342, 'UNSPECIFIED' ) ;
#385 = ADVANCED_FACE ( 'NONE', ( #101 ), #241, .T. ) ;
#386 = CONICAL_SURFACE ( 'NONE', #105, 0.1732500000000002649, 0.7853981633977213939 ) ;
#387 = ORIENTED_EDGE ( 'NONE', *, *, #298, .T. ) ;
#388 = CC_DESIGN_APPROVAL ( #224, ( #79 ) ) ;
#389 = LINE ( 'NONE', #308, #89 ) ;
#390 = VERTEX_POINT ( 'NONE', #155 ) ;
ENDSEC;
END-ISO-10303-21;
