ISO-10303-21;
HEADER;
FILE_DESCRIPTION (( 'STEP AP203' ),
    '1' );
FILE_NAME ('68300.STEP',
    '2024-04-23T13:00:49',
    ( '' ),
    ( '' ),
    'SwSTEP 2.0',
    'SolidWorks 2023',
    '' );
FILE_SCHEMA (( 'CONFIG_CONTROL_DESIGN' ));
ENDSEC;

DATA;
#1 =( NAMED_UNIT ( * ) SI_UNIT ( $, .STERADIAN. ) SOLID_ANGLE_UNIT ( ) );
#2 = ORIENTED_EDGE ( 'NONE', *, *, #16, .T. ) ;
#3 = DATE_AND_TIME ( #276, #138 ) ;
#4 = AXIS2_PLACEMENT_3D ( 'NONE', #50, #168, #257 ) ;
#5 = EDGE_LOOP ( 'NONE', ( #102, #209, #247, #249 ) ) ;
#6 = SECURITY_CLASSIFICATION ( '', '', #171 ) ;
#7 = COORDINATED_UNIVERSAL_TIME_OFFSET ( 5, 0, .BEHIND. ) ;
#8 = EDGE_CURVE ( 'NONE', #80, #282, #181, .T. ) ;
#9 = ORIENTED_EDGE ( 'NONE', *, *, #39, .T. ) ;
#10 = PERSON_AND_ORGANIZATION_ROLE ( 'design_owner' ) ;
#11 = EDGE_LOOP ( 'NONE', ( #216, #320, #134, #270 ) ) ;
#12 = PERSON_AND_ORGANIZATION ( #389, #192 ) ;
#13 = CARTESIAN_POINT ( 'NONE',  ( -5.989671091818653319E-48, 8.551662891793946922E-34, 2.449293598294706769E-19 ) ) ;
#14 = CIRCLE ( 'NONE', #214, 0.03545000000000012030 ) ;
#15 = DIRECTION ( 'NONE',  ( -2.445565582939778901E-29, 3.491342749022307435E-15, 1.000000000000000000 ) ) ;
#16 = EDGE_CURVE ( 'NONE', #48, #318, #223, .T. ) ;
#17 = COORDINATED_UNIVERSAL_TIME_OFFSET ( 5, 0, .BEHIND. ) ;
#18 = CARTESIAN_POINT ( 'NONE',  ( -9.185328859968164188E-28, 1.311314764398667248E-13, 37.55907874015748149 ) ) ;
#19 = DIRECTION ( 'NONE',  ( -2.445565582939778621E-29, 3.491342749022307435E-15, 1.000000000000000000 ) ) ;
#20 = VECTOR ( 'NONE', #23, 39.37007874015748143 ) ;
#21 = CC_DESIGN_APPROVAL ( #200, ( #6 ) ) ;
#22 = DATE_AND_TIME ( #260, #162 ) ;
#23 = DIRECTION ( 'NONE',  ( 0.7071067811865452413, -7.319954787623248157E-15, -0.7071067811865497932 ) ) ;
#24 = CC_DESIGN_PERSON_AND_ORGANIZATION_ASSIGNMENT ( #306, #274, ( #166 ) ) ;
#25 = LINE ( 'NONE', #146, #29 ) ;
#26 = EDGE_LOOP ( 'NONE', ( #339, #129, #71, #190 ) ) ;
#27 = DIRECTION ( 'NONE',  ( 2.445565582939778341E-29, -3.491342749022307435E-15, -1.000000000000000000 ) ) ;
#28 = VECTOR ( 'NONE', #376, 39.37007874015748143 ) ;
#29 = VECTOR ( 'NONE', #264, 39.37007874015748854 ) ;
#30 = APPLICATION_CONTEXT ( 'configuration controlled 3d designs of mechanical parts and assemblies' ) ;
#31 = CARTESIAN_POINT ( 'NONE',  ( 0.000000000000000000, 0.000000000000000000, 0.000000000000000000 ) ) ;
#32 = ORIENTED_EDGE ( 'NONE', *, *, #382, .F. ) ;
#33 = CARTESIAN_POINT ( 'NONE',  ( 7.642090019328602662E-31, -1.091087918388490267E-16, -0.03125000000000020817 ) ) ;
#34 = ORIENTED_EDGE ( 'NONE', *, *, #182, .T. ) ;
#35 = PLANE ( 'NONE',  #60 ) ;
#36 = CIRCLE ( 'NONE', #326, 0.004200000000000002343 ) ;
#37 =( GEOMETRIC_REPRESENTATION_CONTEXT ( 3 ) GLOBAL_UNCERTAINTY_ASSIGNED_CONTEXT ( ( #335 ) ) GLOBAL_UNIT_ASSIGNED_CONTEXT ( ( #359, #68, #1 ) ) REPRESENTATION_CONTEXT ( 'NONE', 'WORKASPACE' ) );
#38 = APPLICATION_PROTOCOL_DEFINITION ( 'international standard', 'config_control_design', 1994, #90 ) ;
#39 = EDGE_CURVE ( 'NONE', #76, #188, #191, .T. ) ;
#40 = COORDINATED_UNIVERSAL_TIME_OFFSET ( 5, 0, .BEHIND. ) ;
#41 = ORIENTED_EDGE ( 'NONE', *, *, #262, .F. ) ;
#42 = EDGE_CURVE ( 'NONE', #342, #80, #113, .T. ) ;
#43 = AXIS2_PLACEMENT_3D ( 'NONE', #344, #88, #323 ) ;
#44 = CALENDAR_DATE ( 2024, 23, 4 ) ;
#45 = CIRCLE ( 'NONE', #137, 0.03545000000000000234 ) ;
#46 = VERTEX_POINT ( 'NONE', #118 ) ;
#47 = LOCAL_TIME ( 9, 0, 49.00000000000000000, #242 ) ;
#48 = VERTEX_POINT ( 'NONE', #139 ) ;
#49 = PERSON_AND_ORGANIZATION ( #389, #192 ) ;
#50 = CARTESIAN_POINT ( 'NONE',  ( 4.376729173302737976E-29, -6.248595120565446721E-15, -1.789699491055473102 ) ) ;
#51 = DIRECTION ( 'NONE',  ( 1.000000000000000000, -6.982962677686267499E-15, 4.876516496999543226E-29 ) ) ;
#52 = AXIS2_PLACEMENT_3D ( 'NONE', #202, #343, #59 ) ;
#53 = ADVANCED_FACE ( 'NONE', ( #84 ), #380, .T. ) ;
#54 = AXIS2_PLACEMENT_3D ( 'NONE', #101, #70, #97 ) ;
#55 = APPROVAL_STATUS ( 'not_yet_approved' ) ;
#56 = DIRECTION ( 'NONE',  ( -1.000000000000000000, 6.982962677686265922E-15, 0.000000000000000000 ) ) ;
#57 = DESIGN_CONTEXT ( 'detailed design', #90, 'design' ) ;
#58 = CARTESIAN_POINT ( 'NONE',  ( 0.03545000000000006479, -2.475460269239785738E-16, 1.728604667019662243E-30 ) ) ;
#59 = DIRECTION ( 'NONE',  ( 1.000000000000000000, -6.982962677686271444E-15, 0.000000000000000000 ) ) ;
#60 = AXIS2_PLACEMENT_3D ( 'NONE', #61, #126, #325 ) ;
#61 = CARTESIAN_POINT ( 'NONE',  ( -2.994835545909326660E-48, 4.275831445896973461E-34, 1.224646799147353384E-19 ) ) ;
#62 = DIRECTION ( 'NONE',  ( -2.445468806185136597E-29, 3.491481338843145583E-15, 1.000000000000000000 ) ) ;
#63 = CYLINDRICAL_SURFACE ( 'NONE', #98, 0.03545000000000006479 ) ;
#64 = CC_DESIGN_SECURITY_CLASSIFICATION ( #6, ( #251 ) ) ;
#65 = DIRECTION ( 'NONE',  ( -2.445468806185136877E-29, 3.491481338843145188E-15, 1.000000000000000000 ) ) ;
#66 = ORIENTED_EDGE ( 'NONE', *, *, #42, .T. ) ;
#67 = FACE_OUTER_BOUND ( 'NONE', #194, .T. ) ;
#68 =( NAMED_UNIT ( * ) PLANE_ANGLE_UNIT ( ) SI_UNIT ( $, .RADIAN. ) );
#69 = LOCAL_TIME ( 9, 0, 49.00000000000000000, #252 ) ;
#70 = DIRECTION ( 'NONE',  ( -2.438088387897960049E-29, 3.491481338843145188E-15, 1.000000000000000000 ) ) ;
#71 = ORIENTED_EDGE ( 'NONE', *, *, #78, .T. ) ;
#72 = ADVANCED_FACE ( 'NONE', ( #175 ), #321, .T. ) ;
#73 = MECHANICAL_CONTEXT ( 'NONE', #30, 'mechanical' ) ;
#74 = ORIENTED_EDGE ( 'NONE', *, *, #182, .F. ) ;
#75 = CIRCLE ( 'NONE', #43, 0.03545000000000000234 ) ;
#76 = VERTEX_POINT ( 'NONE', #79 ) ;
#77 = ORIENTED_EDGE ( 'NONE', *, *, #125, .T. ) ;
#78 = EDGE_CURVE ( 'NONE', #364, #282, #140, .T. ) ;
#79 = CARTESIAN_POINT ( 'NONE',  ( -0.03545000000000012030, -3.293013603500488207E-15, -1.015299999999999647 ) ) ;
#80 = VERTEX_POINT ( 'NONE', #196 ) ;
#81 = CIRCLE ( 'NONE', #345, 0.03545000000000000234 ) ;
#82 = DIRECTION ( 'NONE',  ( 2.445468806185136597E-29, -3.491481338843145583E-15, -1.000000000000000000 ) ) ;
#83 = CC_DESIGN_PERSON_AND_ORGANIZATION_ASSIGNMENT ( #189, #10, ( #299 ) ) ;
#84 = FACE_OUTER_BOUND ( 'NONE', #11, .T. ) ;
#85 = CARTESIAN_POINT ( 'NONE',  ( 2.484107213322861388E-29, -3.546646743996867068E-15, -1.015799999999999814 ) ) ;
#86 = CONICAL_SURFACE ( 'NONE', #303, 0.03545000000000000928, 0.7853981633974450594 ) ;
#87 = CARTESIAN_POINT ( 'NONE',  ( -0.03545000000000006479, 2.518873998269559763E-16, -1.743762489495367242E-30 ) ) ;
#88 = DIRECTION ( 'NONE',  ( -2.445565582939778621E-29, 3.491342749022307435E-15, 1.000000000000000000 ) ) ;
#89 = ADVANCED_FACE ( 'NONE', ( #291 ), #104, .T. ) ;
#90 = APPLICATION_CONTEXT ( 'configuration controlled 3d designs of mechanical parts and assemblies' ) ;
#91 = CARTESIAN_POINT ( 'NONE',  ( 2.482884478919768306E-29, -3.544901003327444775E-15, -1.015299999999999647 ) ) ;
#92 = ORIENTED_EDGE ( 'NONE', *, *, #107, .T. ) ;
#93 = AXIS2_PLACEMENT_3D ( 'NONE', #157, #310, #331 ) ;
#94 = DIRECTION ( 'NONE',  ( 6.090539988449795790E-15, 0.8571673007021165525, 0.5150380749100472721 ) ) ;
#95 = APPROVAL ( #99, 'UNSPECIFIED' ) ;
#96 = APPROVAL_DATE_TIME ( #156, #95 ) ;
#97 = DIRECTION ( 'NONE',  ( 1.000000000000000000, -6.982962677686265922E-15, 4.876176775795935793E-29 ) ) ;
#98 = AXIS2_PLACEMENT_3D ( 'NONE', #295, #354, #150 ) ;
#99 = APPROVAL_STATUS ( 'not_yet_approved' ) ;
#100 = VERTEX_POINT ( 'NONE', #312 ) ;
#101 = CARTESIAN_POINT ( 'NONE',  ( 2.484107213322861388E-29, -3.546646743996867068E-15, -1.015799999999999814 ) ) ;
#102 = ORIENTED_EDGE ( 'NONE', *, *, #147, .T. ) ;
#103 = ORIENTED_EDGE ( 'NONE', *, *, #334, .T. ) ;
#104 = CONICAL_SURFACE ( 'NONE', #213, 65.52281426576911372, 1.029744258676658974 ) ;
#105 = PERSON_AND_ORGANIZATION_ROLE ( 'classification_officer' ) ;
#106 = ORIENTED_EDGE ( 'NONE', *, *, #334, .F. ) ;
#107 = EDGE_CURVE ( 'NONE', #188, #80, #225, .T. ) ;
#108 = CC_DESIGN_DATE_AND_TIME_ASSIGNMENT ( #112, #319, ( #6 ) ) ;
#109 = PERSON_AND_ORGANIZATION ( #389, #192 ) ;
#110 = CARTESIAN_POINT ( 'NONE',  ( -0.03545000000000000928, 1.384372350851291527E-16, -0.03125000000000020817 ) ) ;
#111 = DIRECTION ( 'NONE',  ( -2.445565582939778621E-29, 3.491342749022307435E-15, 1.000000000000000000 ) ) ;
#112 = DATE_AND_TIME ( #255, #69 ) ;
#113 = LINE ( 'NONE', #348, #20 ) ;
#114 = EDGE_CURVE ( 'NONE', #46, #318, #45, .T. ) ;
#115 = AXIS2_PLACEMENT_3D ( 'NONE', #31, #62, #383 ) ;
#116 = ORIENTED_EDGE ( 'NONE', *, *, #273, .F. ) ;
#117 = DIRECTION ( 'NONE',  ( -2.445468806185136597E-29, 3.491481338843145583E-15, 1.000000000000000000 ) ) ;
#118 = CARTESIAN_POINT ( 'NONE',  ( 2.518873998269994129E-16, 0.03544999999999645657, -1.015800000000000036 ) ) ;
#119 = DIRECTION ( 'NONE',  ( -2.445468806185136597E-29, 3.491481338843145583E-15, 1.000000000000000000 ) ) ;
#120 = AXIS2_PLACEMENT_3D ( 'NONE', #172, #82, #56 ) ;
#121 = DIRECTION ( 'NONE',  ( 6.982962677686265922E-15, 1.000000000000000000, -3.491342749022307435E-15 ) ) ;
#122 = CARTESIAN_POINT ( 'NONE',  ( -2.475460269239532809E-16, -0.03545000000000354812, -1.015799999999999814 ) ) ;
#123 = ORIENTED_EDGE ( 'NONE', *, *, #294, .T. ) ;
#124 = DIRECTION ( 'NONE',  ( -2.445468806185136597E-29, 3.491481338843145583E-15, 1.000000000000000000 ) ) ;
#125 = EDGE_CURVE ( 'NONE', #160, #48, #81, .T. ) ;
#126 = DIRECTION ( 'NONE',  ( 2.438088387897960049E-29, -3.491481338843145188E-15, -1.000000000000000000 ) ) ;
#127 = DIMENSIONAL_EXPONENTS ( 1.000000000000000000, 0.000000000000000000, 0.000000000000000000, 0.000000000000000000, 0.000000000000000000, 0.000000000000000000, 0.000000000000000000 ) ;
#128 = APPROVAL_STATUS ( 'not_yet_approved' ) ;
#129 = ORIENTED_EDGE ( 'NONE', *, *, #294, .F. ) ;
#130 = VECTOR ( 'NONE', #15, 39.37007874015748143 ) ;
#131 = CARTESIAN_POINT ( 'NONE',  ( 2.484107213322861388E-29, -3.546646743996867068E-15, -1.015799999999999814 ) ) ;
#132 = VERTEX_POINT ( 'NONE', #374 ) ;
#133 = PERSON_AND_ORGANIZATION_ROLE ( 'creator' ) ;
#134 = ORIENTED_EDGE ( 'NONE', *, *, #262, .T. ) ;
#135 = EDGE_LOOP ( 'NONE', ( #116, #32 ) ) ;
#136 = CC_DESIGN_PERSON_AND_ORGANIZATION_ASSIGNMENT ( #279, #133, ( #251 ) ) ;
#137 = AXIS2_PLACEMENT_3D ( 'NONE', #85, #111, #142 ) ;
#138 = LOCAL_TIME ( 9, 0, 49.00000000000000000, #7 ) ;
#139 = CARTESIAN_POINT ( 'NONE',  ( -2.475460269239343483E-16, -0.03545000000000624735, -1.789699491055473102 ) ) ;
#140 = LINE ( 'NONE', #110, #369 ) ;
#141 = EDGE_CURVE ( 'NONE', #238, #48, #288, .T. ) ;
#142 = DIRECTION ( 'NONE',  ( -6.982962677686265922E-15, -1.000000000000000000, 3.853100132107564390E-15 ) ) ;
#143 = AXIS2_PLACEMENT_3D ( 'NONE', #180, #301, #185 ) ;
#144 = CARTESIAN_POINT ( 'NONE',  ( 2.518873998269992157E-16, 0.03544999999999375040, -1.789699491055473102 ) ) ;
#145 = DIRECTION ( 'NONE',  ( -2.445468806185136877E-29, 3.491481338843145188E-15, 1.000000000000000000 ) ) ;
#146 = CARTESIAN_POINT ( 'NONE',  ( -0.03545000000000012030, -3.293013603500488207E-15, -1.015299999999999647 ) ) ;
#147 = EDGE_CURVE ( 'NONE', #48, #160, #155, .T. ) ;
#148 = EDGE_LOOP ( 'NONE', ( #74, #66, #277, #385 ) ) ;
#149 = CARTESIAN_POINT ( 'NONE',  ( -0.03545000000000000928, -1.575117497756189581E-15, -0.03125000000000020817 ) ) ;
#150 = DIRECTION ( 'NONE',  ( 1.000000000000000000, -6.982962677686265922E-15, 4.876176775795935232E-29 ) ) ;
#151 = ORIENTED_EDGE ( 'NONE', *, *, #300, .T. ) ;
#152 = FACE_OUTER_BOUND ( 'NONE', #355, .T. ) ;
#153 = ORIENTED_EDGE ( 'NONE', *, *, #300, .F. ) ;
#154 = FACE_OUTER_BOUND ( 'NONE', #244, .T. ) ;
#155 = CIRCLE ( 'NONE', #4, 0.03545000000000000234 ) ;
#156 = DATE_AND_TIME ( #248, #235 ) ;
#157 = CARTESIAN_POINT ( 'NONE',  ( 0.000000000000000000, 0.000000000000000000, 0.000000000000000000 ) ) ;
#158 = ADVANCED_FACE ( 'NONE', ( #317 ), #290, .T. ) ;
#159 = APPROVAL_ROLE ( '' ) ;
#160 = VERTEX_POINT ( 'NONE', #144 ) ;
#161 = AXIS2_PLACEMENT_3D ( 'NONE', #179, #27, #121 ) ;
#162 = LOCAL_TIME ( 9, 0, 49.00000000000000000, #17 ) ;
#163 = APPROVAL_DATE_TIME ( #3, #212 ) ;
#164 = EDGE_LOOP ( 'NONE', ( #153, #9, #92, #337 ) ) ;
#165 = PERSON_AND_ORGANIZATION ( #389, #192 ) ;
#166 = PRODUCT_DEFINITION ( 'UNKNOWN', '', #251, #57 ) ;
#167 = ORIENTED_EDGE ( 'NONE', *, *, #141, .T. ) ;
#168 = DIRECTION ( 'NONE',  ( -2.445565582939778621E-29, 3.491342749022307435E-15, 1.000000000000000000 ) ) ;
#169 = ADVANCED_BREP_SHAPE_REPRESENTATION ( '68300', ( #231, #363, #93 ), #37 ) ;
#170 = CARTESIAN_POINT ( 'NONE',  ( 0.03545000000000012030, -3.792447030251423448E-15, -1.015299999999999647 ) ) ;
#171 = SECURITY_CLASSIFICATION_LEVEL ( 'unclassified' ) ;
#172 = CARTESIAN_POINT ( 'NONE',  ( 7.642090019328602662E-31, -1.091087918388490267E-16, -0.03125000000000020817 ) ) ;
#173 = CARTESIAN_POINT ( 'NONE',  ( 4.376729173302737976E-29, -6.248595120565446721E-15, -1.789699491055473102 ) ) ;
#174 = CLOSED_SHELL ( 'NONE', ( #158, #341, #89, #230, #241 ) ) ;
#175 = FACE_OUTER_BOUND ( 'NONE', #26, .T. ) ;
#176 = CIRCLE ( 'NONE', #198, 0.03495000000000012680 ) ;
#177 = DIRECTION ( 'NONE',  ( 1.000000000000000000, -6.982962677686271444E-15, 0.000000000000000000 ) ) ;
#178 = EDGE_CURVE ( 'NONE', #160, #46, #283, .T. ) ;
#179 = CARTESIAN_POINT ( 'NONE',  ( 2.484107213322861388E-29, -3.546646743996867068E-15, -1.015799999999999814 ) ) ;
#180 = CARTESIAN_POINT ( 'NONE',  ( 2.484107213322861388E-29, -3.546646743996867068E-15, -1.015799999999999814 ) ) ;
#181 = CIRCLE ( 'NONE', #226, 0.03545000000000000928 ) ;
#182 = EDGE_CURVE ( 'NONE', #342, #364, #36, .T. ) ;
#183 = CYLINDRICAL_SURFACE ( 'NONE', #115, 0.03545000000000006479 ) ;
#184 = ORIENTED_EDGE ( 'NONE', *, *, #141, .F. ) ;
#185 = DIRECTION ( 'NONE',  ( 1.000000000000000000, -6.982962677686269866E-15, 0.000000000000000000 ) ) ;
#186 = CC_DESIGN_APPROVAL ( #212, ( #251 ) ) ;
#187 = CC_DESIGN_PERSON_AND_ORGANIZATION_ASSIGNMENT ( #109, #105, ( #6 ) ) ;
#188 = VERTEX_POINT ( 'NONE', #170 ) ;
#189 = PERSON_AND_ORGANIZATION ( #389, #192 ) ;
#190 = ORIENTED_EDGE ( 'NONE', *, *, #254, .T. ) ;
#191 = CIRCLE ( 'NONE', #360, 0.03545000000000012030 ) ;
#192 = ORGANIZATION ( 'UNSPECIFIED', 'UNSPECIFIED', '' ) ;
#193 = LENGTH_MEASURE_WITH_UNIT ( LENGTH_MEASURE( 0.02539999999999999897 ), #365 );
#194 = EDGE_LOOP ( 'NONE', ( #123, #34 ) ) ;
#195 = EDGE_LOOP ( 'NONE', ( #280, #77, #2, #245 ) ) ;
#196 = CARTESIAN_POINT ( 'NONE',  ( 0.03545000000000000928, -3.566548187628272307E-16, -0.03125000000000020817 ) ) ;
#197 = VECTOR ( 'NONE', #201, 39.37007874015748854 ) ;
#198 = AXIS2_PLACEMENT_3D ( 'NONE', #131, #219, #333 ) ;
#199 = DIRECTION ( 'NONE',  ( -2.445468806185136597E-29, 3.491481338843145583E-15, 1.000000000000000000 ) ) ;
#200 = APPROVAL ( #55, 'UNSPECIFIED' ) ;
#201 = DIRECTION ( 'NONE',  ( -5.985567269335959423E-15, -0.8571673007021127777, 0.5150380749100531563 ) ) ;
#202 = CARTESIAN_POINT ( 'NONE',  ( 2.482884478919768306E-29, -3.544901003327444775E-15, -1.015299999999999647 ) ) ;
#203 = CC_DESIGN_DATE_AND_TIME_ASSIGNMENT ( #215, #275, ( #166 ) ) ;
#204 = DIRECTION ( 'NONE',  ( -2.445565582939778621E-29, 3.491342749022307435E-15, 1.000000000000000000 ) ) ;
#205 = CARTESIAN_POINT ( 'NONE',  ( 2.484107213322861388E-29, -3.546646743996867068E-15, -1.015799999999999814 ) ) ;
#206 = LINE ( 'NONE', #327, #208 ) ;
#207 = PLANE ( 'NONE',  #161 ) ;
#208 = VECTOR ( 'NONE', #94, 39.37007874015748143 ) ;
#209 = ORIENTED_EDGE ( 'NONE', *, *, #178, .T. ) ;
#210 = DIRECTION ( 'NONE',  ( 1.000000000000000000, -6.982962677686266711E-15, 0.000000000000000000 ) ) ;
#211 = FACE_OUTER_BOUND ( 'NONE', #305, .T. ) ;
#212 = APPROVAL ( #128, 'UNSPECIFIED' ) ;
#213 = AXIS2_PLACEMENT_3D ( 'NONE', #18, #377, #232 ) ;
#214 = AXIS2_PLACEMENT_3D ( 'NONE', #91, #124, #177 ) ;
#215 = DATE_AND_TIME ( #44, #47 ) ;
#216 = ORIENTED_EDGE ( 'NONE', *, *, #350, .F. ) ;
#217 = ORIENTED_EDGE ( 'NONE', *, *, #284, .F. ) ;
#218 = EDGE_CURVE ( 'NONE', #318, #46, #75, .T. ) ;
#219 = DIRECTION ( 'NONE',  ( -2.445468806185136597E-29, 3.491481338843145583E-15, 1.000000000000000000 ) ) ;
#220 = EDGE_LOOP ( 'NONE', ( #103, #151, #329, #311 ) ) ;
#221 = APPROVAL_DATE_TIME ( #22, #200 ) ;
#222 = ORIENTED_EDGE ( 'NONE', *, *, #273, .T. ) ;
#223 = LINE ( 'NONE', #346, #130 ) ;
#224 = ADVANCED_FACE ( 'NONE', ( #236 ), #183, .T. ) ;
#225 = LINE ( 'NONE', #58, #278 ) ;
#226 = AXIS2_PLACEMENT_3D ( 'NONE', #229, #199, #287 ) ;
#227 = AXIS2_PLACEMENT_3D ( 'NONE', #338, #302, #246 ) ;
#228 = DIRECTION ( 'NONE',  ( -0.7071067811865452413, 2.468850131082233000E-15, -0.7071067811865497932 ) ) ;
#229 = CARTESIAN_POINT ( 'NONE',  ( 7.642090019328602662E-31, -1.091087918388490267E-16, -0.03125000000000020817 ) ) ;
#230 = ADVANCED_FACE ( 'NONE', ( #297 ), #293, .T. ) ;
#231 = MANIFOLD_SOLID_BREP ( 'Body-Move/Copy2[1]', #174 ) ;
#232 = DIRECTION ( 'NONE',  ( -6.982962677686265922E-15, -1.000000000000000000, 3.468864327941557927E-15 ) ) ;
#233 = AXIS2_PLACEMENT_3D ( 'NONE', #205, #204, #240 ) ;
#234 = CARTESIAN_POINT ( 'NONE',  ( -5.989671091818653319E-48, 8.551662891793946922E-34, 2.449293598294706769E-19 ) ) ;
#235 = LOCAL_TIME ( 9, 0, 49.00000000000000000, #40 ) ;
#236 = FACE_OUTER_BOUND ( 'NONE', #164, .T. ) ;
#237 = FACE_OUTER_BOUND ( 'NONE', #148, .T. ) ;
#238 = VERTEX_POINT ( 'NONE', #386 ) ;
#239 = DIRECTION ( 'NONE',  ( -6.982962677686265922E-15, -1.000000000000000000, 3.468864327941557927E-15 ) ) ;
#240 = DIRECTION ( 'NONE',  ( -6.982962677686265922E-15, -1.000000000000000000, 3.853100132107564390E-15 ) ) ;
#241 = ADVANCED_FACE ( 'NONE', ( #154 ), #207, .F. ) ;
#242 = COORDINATED_UNIVERSAL_TIME_OFFSET ( 5, 0, .BEHIND. ) ;
#243 = FACE_OUTER_BOUND ( 'NONE', #135, .T. ) ;
#244 = EDGE_LOOP ( 'NONE', ( #336, #361 ) ) ;
#245 = ORIENTED_EDGE ( 'NONE', *, *, #114, .F. ) ;
#246 = DIRECTION ( 'NONE',  ( 1.000000000000000000, -6.982962677686271444E-15, 0.000000000000000000 ) ) ;
#247 = ORIENTED_EDGE ( 'NONE', *, *, #218, .F. ) ;
#248 = CALENDAR_DATE ( 2024, 23, 4 ) ;
#249 = ORIENTED_EDGE ( 'NONE', *, *, #16, .F. ) ;
#250 = VECTOR ( 'NONE', #65, 39.37007874015748143 ) ;
#251 = PRODUCT_DEFINITION_FORMATION_WITH_SPECIFIED_SOURCE ( 'ANY', '', #299, .NOT_KNOWN. ) ;
#252 = COORDINATED_UNIVERSAL_TIME_OFFSET ( 5, 0, .BEHIND. ) ;
#253 = DIRECTION ( 'NONE',  ( -6.982962677686265922E-15, -1.000000000000000000, 0.000000000000000000 ) ) ;
#254 = EDGE_CURVE ( 'NONE', #282, #80, #308, .T. ) ;
#255 = CALENDAR_DATE ( 2024, 23, 4 ) ;
#256 = DIRECTION ( 'NONE',  ( 1.000000000000000000, -6.982962677686271444E-15, 0.000000000000000000 ) ) ;
#257 = DIRECTION ( 'NONE',  ( -6.982962677686265922E-15, -1.000000000000000000, 0.000000000000000000 ) ) ;
#258 = CIRCLE ( 'NONE', #272, 0.004200000000000002343 ) ;
#259 = AXIS2_PLACEMENT_3D ( 'NONE', #315, #19, #313 ) ;
#260 = CALENDAR_DATE ( 2024, 23, 4 ) ;
#261 = CARTESIAN_POINT ( 'NONE',  ( 2.518873998269803324E-16, 0.03544999999999645657, -1.015800000000000036 ) ) ;
#262 = EDGE_CURVE ( 'NONE', #100, #188, #330, .T. ) ;
#263 = DIRECTION ( 'NONE',  ( -2.445565582939778621E-29, 3.491342749022307435E-15, 1.000000000000000000 ) ) ;
#264 = DIRECTION ( 'NONE',  ( -0.7071067811864205632, 7.493145998869895043E-15, 0.7071067811866742492 ) ) ;
#265 = DIRECTION ( 'NONE',  ( 2.445468806185136597E-29, -3.491481338843145583E-15, -1.000000000000000000 ) ) ;
#266 = APPROVAL_PERSON_ORGANIZATION ( #165, #95, #304 ) ;
#267 = CARTESIAN_POINT ( 'NONE',  ( 7.642090019328602662E-31, -1.091087918388490267E-16, -0.03125000000000020817 ) ) ;
#268 = ORIENTED_EDGE ( 'NONE', *, *, #125, .F. ) ;
#269 = CARTESIAN_POINT ( 'NONE',  ( -9.185328859968164188E-28, 1.311314764398667248E-13, 37.55907874015748149 ) ) ;
#270 = ORIENTED_EDGE ( 'NONE', *, *, #39, .F. ) ;
#271 = FACE_OUTER_BOUND ( 'NONE', #220, .T. ) ;
#272 = AXIS2_PLACEMENT_3D ( 'NONE', #234, #352, #387 ) ;
#273 = EDGE_CURVE ( 'NONE', #100, #132, #285, .T. ) ;
#274 = PERSON_AND_ORGANIZATION_ROLE ( 'creator' ) ;
#275 = DATE_TIME_ROLE ( 'creation_date' ) ;
#276 = CALENDAR_DATE ( 2024, 23, 4 ) ;
#277 = ORIENTED_EDGE ( 'NONE', *, *, #8, .T. ) ;
#278 = VECTOR ( 'NONE', #145, 39.37007874015748143 ) ;
#279 = PERSON_AND_ORGANIZATION ( #389, #192 ) ;
#280 = ORIENTED_EDGE ( 'NONE', *, *, #178, .F. ) ;
#281 = APPLICATION_PROTOCOL_DEFINITION ( 'international standard', 'config_control_design', 1994, #30 ) ;
#282 = VERTEX_POINT ( 'NONE', #149 ) ;
#283 = LINE ( 'NONE', #261, #28 ) ;
#284 = EDGE_CURVE ( 'NONE', #238, #160, #206, .T. ) ;
#285 = CIRCLE ( 'NONE', #143, 0.03495000000000012680 ) ;
#286 = APPROVAL_ROLE ( '' ) ;
#287 = DIRECTION ( 'NONE',  ( 1.000000000000000000, -6.982962677686266711E-15, 0.000000000000000000 ) ) ;
#288 = LINE ( 'NONE', #373, #197 ) ;
#289 = ADVANCED_FACE ( 'NONE', ( #67 ), #35, .F. ) ;
#290 = CYLINDRICAL_SURFACE ( 'NONE', #259, 0.03545000000000000234 ) ;
#291 = FACE_OUTER_BOUND ( 'NONE', #307, .T. ) ;
#292 = DIRECTION ( 'NONE',  ( -2.445565582939778621E-29, 3.491342749022307435E-15, 1.000000000000000000 ) ) ;
#293 = CYLINDRICAL_SURFACE ( 'NONE', #233, 0.03545000000000000234 ) ;
#294 = EDGE_CURVE ( 'NONE', #364, #342, #258, .T. ) ;
#295 = CARTESIAN_POINT ( 'NONE',  ( 0.000000000000000000, 0.000000000000000000, 0.000000000000000000 ) ) ;
#296 = CONICAL_SURFACE ( 'NONE', #227, 0.03545000000000012030, 0.7853981633972689780 ) ;
#297 = FACE_OUTER_BOUND ( 'NONE', #195, .T. ) ;
#298 = ORIENTED_EDGE ( 'NONE', *, *, #147, .F. ) ;
#299 = PRODUCT ( '68300', '68300', '', ( #73 ) ) ;
#300 = EDGE_CURVE ( 'NONE', #76, #282, #322, .T. ) ;
#301 = DIRECTION ( 'NONE',  ( -2.445468806185136597E-29, 3.491481338843145583E-15, 1.000000000000000000 ) ) ;
#302 = DIRECTION ( 'NONE',  ( -2.445468806185136597E-29, 3.491481338843145583E-15, 1.000000000000000000 ) ) ;
#303 = AXIS2_PLACEMENT_3D ( 'NONE', #33, #265, #381 ) ;
#304 = APPROVAL_ROLE ( '' ) ;
#305 = EDGE_LOOP ( 'NONE', ( #222, #368, #106, #41 ) ) ;
#306 = PERSON_AND_ORGANIZATION ( #389, #192 ) ;
#307 = EDGE_LOOP ( 'NONE', ( #217, #167, #268 ) ) ;
#308 = CIRCLE ( 'NONE', #349, 0.03545000000000000928 ) ;
#309 = CC_DESIGN_APPROVAL ( #95, ( #166 ) ) ;
#310 = DIRECTION ( 'NONE',  ( 0.000000000000000000, 0.000000000000000000, 1.000000000000000000 ) ) ;
#311 = ORIENTED_EDGE ( 'NONE', *, *, #107, .F. ) ;
#312 = CARTESIAN_POINT ( 'NONE',  ( 0.03495000000000012680, -3.790701289582002733E-15, -1.015799999999999814 ) ) ;
#313 = DIRECTION ( 'NONE',  ( -6.982962677686265922E-15, -1.000000000000000000, 3.853100132107564390E-15 ) ) ;
#314 = APPROVAL_PERSON_ORGANIZATION ( #49, #200, #286 ) ;
#315 = CARTESIAN_POINT ( 'NONE',  ( 2.484107213322861388E-29, -3.546646743996867068E-15, -1.015799999999999814 ) ) ;
#316 = ADVANCED_FACE ( 'NONE', ( #237 ), #86, .T. ) ;
#317 = FACE_OUTER_BOUND ( 'NONE', #5, .T. ) ;
#318 = VERTEX_POINT ( 'NONE', #122 ) ;
#319 = DATE_TIME_ROLE ( 'classification_date' ) ;
#320 = ORIENTED_EDGE ( 'NONE', *, *, #382, .T. ) ;
#321 = CONICAL_SURFACE ( 'NONE', #120, 0.03545000000000000928, 0.7853981633974450594 ) ;
#322 = LINE ( 'NONE', #87, #250 ) ;
#323 = DIRECTION ( 'NONE',  ( -6.982962677686265922E-15, -1.000000000000000000, 3.853100132107564390E-15 ) ) ;
#324 = ADVANCED_FACE ( 'NONE', ( #271 ), #63, .T. ) ;
#325 = DIRECTION ( 'NONE',  ( -1.000000000000000000, 6.982962677686265922E-15, -4.876176775795935793E-29 ) ) ;
#326 = AXIS2_PLACEMENT_3D ( 'NONE', #13, #371, #51 ) ;
#327 = CARTESIAN_POINT ( 'NONE',  ( 4.428920994756070036E-29, -6.322821718479398174E-15, -1.810999999999999943 ) ) ;
#328 = APPROVAL_PERSON_ORGANIZATION ( #332, #212, #159 ) ;
#329 = ORIENTED_EDGE ( 'NONE', *, *, #8, .F. ) ;
#330 = LINE ( 'NONE', #358, #375 ) ;
#331 = DIRECTION ( 'NONE',  ( 1.000000000000000000, 0.000000000000000000, 0.000000000000000000 ) ) ;
#332 = PERSON_AND_ORGANIZATION ( #389, #192 ) ;
#333 = DIRECTION ( 'NONE',  ( 1.000000000000000000, -6.982962677686269866E-15, 0.000000000000000000 ) ) ;
#334 = EDGE_CURVE ( 'NONE', #188, #76, #14, .T. ) ;
#335 = UNCERTAINTY_MEASURE_WITH_UNIT (LENGTH_MEASURE( 1.000000000000000082E-05 ), #359, 'distance_accuracy_value', 'NONE');
#336 = ORIENTED_EDGE ( 'NONE', *, *, #218, .T. ) ;
#337 = ORIENTED_EDGE ( 'NONE', *, *, #254, .F. ) ;
#338 = CARTESIAN_POINT ( 'NONE',  ( 2.482884478919768306E-29, -3.544901003327444775E-15, -1.015299999999999647 ) ) ;
#339 = ORIENTED_EDGE ( 'NONE', *, *, #42, .F. ) ;
#340 = CONICAL_SURFACE ( 'NONE', #362, 65.52281426576911372, 1.029744258676658974 ) ;
#341 = ADVANCED_FACE ( 'NONE', ( #152 ), #340, .T. ) ;
#342 = VERTEX_POINT ( 'NONE', #357 ) ;
#343 = DIRECTION ( 'NONE',  ( -2.445468806185136597E-29, 3.491481338843145583E-15, 1.000000000000000000 ) ) ;
#344 = CARTESIAN_POINT ( 'NONE',  ( 2.484107213322861388E-29, -3.546646743996867068E-15, -1.015799999999999814 ) ) ;
#345 = AXIS2_PLACEMENT_3D ( 'NONE', #173, #263, #253 ) ;
#346 = CARTESIAN_POINT ( 'NONE',  ( -2.475460269239532809E-16, -0.03545000000000354812, -1.015799999999999814 ) ) ;
#347 = CARTESIAN_POINT ( 'NONE',  ( 2.482884478919768306E-29, -3.544901003327444775E-15, -1.015299999999999647 ) ) ;
#348 = CARTESIAN_POINT ( 'NONE',  ( 0.03545000000000000928, -3.523134458598498775E-16, -0.03125000000000020817 ) ) ;
#349 = AXIS2_PLACEMENT_3D ( 'NONE', #267, #119, #210 ) ;
#350 = EDGE_CURVE ( 'NONE', #132, #76, #25, .T. ) ;
#351 = PRODUCT_RELATED_PRODUCT_CATEGORY ( 'detail', '', ( #299 ) ) ;
#352 = DIRECTION ( 'NONE',  ( -2.445468806185136597E-29, 3.491481338843145583E-15, 1.000000000000000000 ) ) ;
#353 = DIRECTION ( 'NONE',  ( 0.7071067811864205632, -2.468850131080928224E-15, 0.7071067811866742492 ) ) ;
#354 = DIRECTION ( 'NONE',  ( -2.445468806185136597E-29, 3.491481338843145583E-15, 1.000000000000000000 ) ) ;
#355 = EDGE_LOOP ( 'NONE', ( #184, #366, #298 ) ) ;
#356 = CLOSED_SHELL ( 'NONE', ( #316, #324, #367, #378, #53, #224, #72, #289 ) ) ;
#357 = CARTESIAN_POINT ( 'NONE',  ( 0.004200000000000001475, -1.905637687252452205E-16, 2.449293598302387377E-19 ) ) ;
#358 = CARTESIAN_POINT ( 'NONE',  ( 0.03545000000000012030, -3.792447030251423448E-15, -1.015299999999999647 ) ) ;
#359 =( CONVERSION_BASED_UNIT ( 'INCH', #193 ) LENGTH_UNIT ( ) NAMED_UNIT ( #127 ) );
#360 = AXIS2_PLACEMENT_3D ( 'NONE', #347, #117, #256 ) ;
#361 = ORIENTED_EDGE ( 'NONE', *, *, #114, .T. ) ;
#362 = AXIS2_PLACEMENT_3D ( 'NONE', #269, #292, #239 ) ;
#363 = MANIFOLD_SOLID_BREP ( 'Body-Move/Copy2[2]', #356 ) ;
#364 = VERTEX_POINT ( 'NONE', #379 ) ;
#365 =( LENGTH_UNIT ( ) NAMED_UNIT ( * ) SI_UNIT ( $, .METRE. ) );
#366 = ORIENTED_EDGE ( 'NONE', *, *, #284, .T. ) ;
#367 = ADVANCED_FACE ( 'NONE', ( #211 ), #296, .T. ) ;
#368 = ORIENTED_EDGE ( 'NONE', *, *, #350, .T. ) ;
#369 = VECTOR ( 'NONE', #228, 39.37007874015748143 ) ;
#370 = PERSON_AND_ORGANIZATION_ROLE ( 'design_supplier' ) ;
#371 = DIRECTION ( 'NONE',  ( -2.445468806185136597E-29, 3.491481338843145583E-15, 1.000000000000000000 ) ) ;
#372 = SHAPE_DEFINITION_REPRESENTATION ( #384, #169 ) ;
#373 = CARTESIAN_POINT ( 'NONE',  ( 4.428722659049208593E-29, -6.323103277559413393E-15, -1.810999999999999943 ) ) ;
#374 = CARTESIAN_POINT ( 'NONE',  ( -0.03495000000000012680, -3.295662830674599408E-15, -1.015799999999999814 ) ) ;
#375 = VECTOR ( 'NONE', #353, 39.37007874015748854 ) ;
#376 = DIRECTION ( 'NONE',  ( -2.445565582939778901E-29, 3.491342749022307435E-15, 1.000000000000000000 ) ) ;
#377 = DIRECTION ( 'NONE',  ( -2.445565582939778621E-29, 3.491342749022307435E-15, 1.000000000000000000 ) ) ;
#378 = ADVANCED_FACE ( 'NONE', ( #243 ), #388, .F. ) ;
#379 = CARTESIAN_POINT ( 'NONE',  ( -0.004200000000000001475, 8.388283916570576097E-17, 2.449293598290750909E-19 ) ) ;
#380 = CONICAL_SURFACE ( 'NONE', #52, 0.03545000000000012030, 0.7853981633972689780 ) ;
#381 = DIRECTION ( 'NONE',  ( -1.000000000000000000, 6.982962677686265922E-15, 0.000000000000000000 ) ) ;
#382 = EDGE_CURVE ( 'NONE', #132, #100, #176, .T. ) ;
#383 = DIRECTION ( 'NONE',  ( 1.000000000000000000, -6.982962677686265922E-15, 4.876176775795935232E-29 ) ) ;
#384 = PRODUCT_DEFINITION_SHAPE ( 'NONE', 'NONE',  #166 ) ;
#385 = ORIENTED_EDGE ( 'NONE', *, *, #78, .F. ) ;
#386 = CARTESIAN_POINT ( 'NONE',  ( 4.428919270703939368E-29, -6.322821718479398174E-15, -1.810999999999999943 ) ) ;
#387 = DIRECTION ( 'NONE',  ( 1.000000000000000000, -6.982962677686267499E-15, 4.876516496999543226E-29 ) ) ;
#388 = PLANE ( 'NONE',  #54 ) ;
#389 = PERSON ( 'UNSPECIFIED', 'UNSPECIFIED', 'UNSPECIFIED', ('UNSPECIFIED'), ('UNSPECIFIED'), ('UNSPECIFIED') ) ;
#390 = CC_DESIGN_PERSON_AND_ORGANIZATION_ASSIGNMENT ( #12, #370, ( #251 ) ) ;
ENDSEC;
END-ISO-10303-21;
