ISO-10303-21;
HEADER;
FILE_DESCRIPTION (( 'STEP AP203' ),
    '1' );
FILE_NAME ('68606.STEP',
    '2024-04-23T13:18:11',
    ( '' ),
    ( '' ),
    'SwSTEP 2.0',
    'SolidWorks 2023',
    '' );
FILE_SCHEMA (( 'CONFIG_CONTROL_DESIGN' ));
ENDSEC;

DATA;
#1 = CARTESIAN_POINT ( 'NONE',  ( -8.766642259802657234E-28, 1.252879567755739165E-13, 35.86617874015747987 ) ) ;
#2 = DIRECTION ( 'NONE',  ( 1.000000000000000000, -6.982962677686265922E-15, 4.876176775795935793E-29 ) ) ;
#3 = CARTESIAN_POINT ( 'NONE',  ( 5.372205873427506359E-29, -7.670086205170621002E-15, -2.196799999999999642 ) ) ;
#4 = AXIS2_PLACEMENT_3D ( 'NONE', #155, #368, #312 ) ;
#5 = DIRECTION ( 'NONE',  ( -6.982962677686265133E-15, -1.000000000000000000, 2.832398127179122126E-15 ) ) ;
#6 = PRODUCT_DEFINITION_SHAPE ( 'NONE', 'NONE',  #325 ) ;
#7 = CARTESIAN_POINT ( 'NONE',  ( 0.1928999999999999881, -1.456122292364529769E-15, -0.03125000000000020817 ) ) ;
#8 = CARTESIAN_POINT ( 'NONE',  ( 1.370636937281317188E-15, 0.1928999999999879977, -3.443078863625244956 ) ) ;
#9 = CIRCLE ( 'NONE', #82, 0.1928999999999999881 ) ;
#10 = CC_DESIGN_SECURITY_CLASSIFICATION ( #346, ( #60 ) ) ;
#11 = DIRECTION ( 'NONE',  ( -1.000000000000000000, 6.982962677686265922E-15, -4.876176775795935793E-29 ) ) ;
#12 = LINE ( 'NONE', #44, #350 ) ;
#13 = LENGTH_MEASURE_WITH_UNIT ( LENGTH_MEASURE( 0.02539999999999999897 ), #347 );
#14 = EDGE_CURVE ( 'NONE', #267, #256, #38, .T. ) ;
#15 = ORIENTED_EDGE ( 'NONE', *, *, #285, .T. ) ;
#16 = CIRCLE ( 'NONE', #4, 0.1928999999999999881 ) ;
#17 = CIRCLE ( 'NONE', #359, 0.1924000000000005151 ) ;
#18 = ORIENTED_EDGE ( 'NONE', *, *, #290, .F. ) ;
#19 = CARTESIAN_POINT ( 'NONE',  ( 5.372205873427506359E-29, -7.670086205170621002E-15, -2.196799999999999642 ) ) ;
#20 = UNCERTAINTY_MEASURE_WITH_UNIT (LENGTH_MEASURE( 1.000000000000000082E-05 ), #322, 'distance_accuracy_value', 'NONE');
#21 = DATE_AND_TIME ( #57, #102 ) ;
#22 = ADVANCED_FACE ( 'NONE', ( #184 ), #215, .T. ) ;
#23 = DATE_TIME_ROLE ( 'creation_date' ) ;
#24 = CARTESIAN_POINT ( 'NONE',  ( -0.1928999999999999881, 1.237904708686831765E-15, -0.03125000000000020817 ) ) ;
#25 = AXIS2_PLACEMENT_3D ( 'NONE', #370, #244, #223 ) ;
#26 = APPROVAL_PERSON_ORGANIZATION ( #275, #251, #238 ) ;
#27 = PERSON_AND_ORGANIZATION_ROLE ( 'design_supplier' ) ;
#28 = EDGE_LOOP ( 'NONE', ( #49, #95 ) ) ;
#29 = CALENDAR_DATE ( 2024, 23, 4 ) ;
#30 = VERTEX_POINT ( 'NONE', #387 ) ;
#31 = CARTESIAN_POINT ( 'NONE',  ( -1.178467787315319593E-46, 1.682539673960458460E-32, 4.818985154644832828E-18 ) ) ;
#32 = EDGE_CURVE ( 'NONE', #145, #380, #304, .T. ) ;
#33 = LINE ( 'NONE', #309, #153 ) ;
#34 = DIRECTION ( 'NONE',  ( -6.659769872151633666E-15, -0.9537169507482269326, 0.3007057995042729526 ) ) ;
#35 = EDGE_CURVE ( 'NONE', #30, #213, #252, .T. ) ;
#36 = CYLINDRICAL_SURFACE ( 'NONE', #140, 0.1929000000000001547 ) ;
#37 = CARTESIAN_POINT ( 'NONE',  ( -0.1928999999999999881, -2.518087690888788562E-15, -0.03125000000000020817 ) ) ;
#38 = CIRCLE ( 'NONE', #169, 0.1929000000000002935 ) ;
#39 = CARTESIAN_POINT ( 'NONE',  ( 0.1924000000000005151, -9.013608224357463791E-15, -2.196800000000000086 ) ) ;
#40 = CARTESIAN_POINT ( 'NONE',  ( -1.347013500525626829E-15, -0.1929000000000076487, -2.196799999999999198 ) ) ;
#41 = CARTESIAN_POINT ( 'NONE',  ( 5.372205873427506359E-29, -7.670086205170621002E-15, -2.196799999999999642 ) ) ;
#42 = AXIS2_PLACEMENT_3D ( 'NONE', #31, #298, #276 ) ;
#43 = LOCAL_TIME ( 9, 18, 11.00000000000000000, #123 ) ;
#44 = CARTESIAN_POINT ( 'NONE',  ( 0.1929000000000002935, -9.015353965026881351E-15, -2.196299999999999919 ) ) ;
#45 = DIMENSIONAL_EXPONENTS ( 1.000000000000000000, 0.000000000000000000, 0.000000000000000000, 0.000000000000000000, 0.000000000000000000, 0.000000000000000000, 0.000000000000000000 ) ;
#46 = LINE ( 'NONE', #314, #282 ) ;
#47 = DIRECTION ( 'NONE',  ( -2.445468806185136597E-29, 3.491481338843145583E-15, 1.000000000000000000 ) ) ;
#48 = EDGE_LOOP ( 'NONE', ( #18, #15, #323, #108 ) ) ;
#49 = ORIENTED_EDGE ( 'NONE', *, *, #115, .T. ) ;
#50 = PERSON_AND_ORGANIZATION_ROLE ( 'classification_officer' ) ;
#51 = ADVANCED_FACE ( 'NONE', ( #266 ), #117, .F. ) ;
#52 = PRODUCT ( '68606', '68606', '', ( #61 ) ) ;
#53 = APPLICATION_PROTOCOL_DEFINITION ( 'international standard', 'config_control_design', 1994, #344 ) ;
#54 = MANIFOLD_SOLID_BREP ( 'Body-Move/Copy2[1]', #129 ) ;
#55 = DIRECTION ( 'NONE',  ( 6.982962677686265922E-15, 1.000000000000000000, -3.493106619122012696E-15 ) ) ;
#56 = ORIENTED_EDGE ( 'NONE', *, *, #243, .T. ) ;
#57 = CALENDAR_DATE ( 2024, 23, 4 ) ;
#58 = ORIENTED_EDGE ( 'NONE', *, *, #96, .F. ) ;
#59 = AXIS2_PLACEMENT_3D ( 'NONE', #1, #190, #216 ) ;
#60 = PRODUCT_DEFINITION_FORMATION_WITH_SPECIFIED_SOURCE ( 'ANY', '', #52, .NOT_KNOWN. ) ;
#61 = MECHANICAL_CONTEXT ( 'NONE', #344, 'mechanical' ) ;
#62 = DATE_AND_TIME ( #273, #158 ) ;
#63 = DIRECTION ( 'NONE',  ( 1.000000000000000000, -6.982962677686263555E-15, 0.000000000000000000 ) ) ;
#64 = DIRECTION ( 'NONE',  ( 1.000000000000000000, -6.982962677686267499E-15, 4.875908573715771378E-29 ) ) ;
#65 = VECTOR ( 'NONE', #182, 39.37007874015748143 ) ;
#66 = AXIS2_PLACEMENT_3D ( 'NONE', #375, #292, #168 ) ;
#67 = DIRECTION ( 'NONE',  ( -6.982962677686265133E-15, -1.000000000000000000, 2.832398127179122126E-15 ) ) ;
#68 = EDGE_CURVE ( 'NONE', #213, #118, #176, .T. ) ;
#69 = DIRECTION ( 'NONE',  ( -0.7071067811862576935, 7.493145998869306553E-15, 0.7071067811868373409 ) ) ;
#70 = CARTESIAN_POINT ( 'NONE',  ( 7.642090019328602662E-31, -1.091087918388490267E-16, -0.03125000000000020817 ) ) ;
#71 = EDGE_LOOP ( 'NONE', ( #263, #356 ) ) ;
#72 = CARTESIAN_POINT ( 'NONE',  ( 8.564701478741366192E-29, -1.223949628274162067E-14, -3.503899999999999793 ) ) ;
#73 = CIRCLE ( 'NONE', #288, 0.1928999999999999881 ) ;
#74 = AXIS2_PLACEMENT_3D ( 'NONE', #326, #381, #232 ) ;
#75 = ADVANCED_FACE ( 'NONE', ( #283 ), #198, .T. ) ;
#76 = CARTESIAN_POINT ( 'NONE',  ( 1.370636937281286422E-15, 0.1928999999999922998, -2.196800000000000086 ) ) ;
#77 = FACE_OUTER_BOUND ( 'NONE', #28, .T. ) ;
#78 = FACE_OUTER_BOUND ( 'NONE', #204, .T. ) ;
#79 = ORIENTED_EDGE ( 'NONE', *, *, #307, .T. ) ;
#80 = ORIENTED_EDGE ( 'NONE', *, *, #191, .T. ) ;
#81 = DIRECTION ( 'NONE',  ( -2.444333879032325908E-29, 3.493106619122012696E-15, 1.000000000000000000 ) ) ;
#82 = AXIS2_PLACEMENT_3D ( 'NONE', #334, #131, #67 ) ;
#83 = AXIS2_PLACEMENT_3D ( 'NONE', #87, #327, #55 ) ;
#84 = VECTOR ( 'NONE', #137, 39.37007874015748143 ) ;
#85 = ORIENTED_EDGE ( 'NONE', *, *, #196, .F. ) ;
#86 = PERSON_AND_ORGANIZATION_ROLE ( 'creator' ) ;
#87 = CARTESIAN_POINT ( 'NONE',  ( 5.372205873427506359E-29, -7.670086205170621002E-15, -2.196799999999999642 ) ) ;
#88 = ORIENTED_EDGE ( 'NONE', *, *, #143, .F. ) ;
#89 = APPROVAL_ROLE ( '' ) ;
#90 = DIRECTION ( 'NONE',  ( 1.000000000000000000, -6.982962677686265922E-15, 4.876176775795935793E-29 ) ) ;
#91 = EDGE_CURVE ( 'NONE', #225, #377, #305, .T. ) ;
#92 = CLOSED_SHELL ( 'NONE', ( #75, #22, #264, #390, #162, #214, #362, #367 ) ) ;
#93 = CC_DESIGN_APPROVAL ( #241, ( #60 ) ) ;
#94 = CALENDAR_DATE ( 2024, 23, 4 ) ;
#95 = ORIENTED_EDGE ( 'NONE', *, *, #35, .T. ) ;
#96 = EDGE_CURVE ( 'NONE', #30, #226, #98, .T. ) ;
#97 = FACE_OUTER_BOUND ( 'NONE', #141, .T. ) ;
#98 = LINE ( 'NONE', #249, #193 ) ;
#99 = DIRECTION ( 'NONE',  ( -2.445468806185136597E-29, 3.491481338843145583E-15, 1.000000000000000000 ) ) ;
#100 = CARTESIAN_POINT ( 'NONE',  ( -1.178467787315319593E-46, 1.682539673960458460E-32, 4.818985154644832828E-18 ) ) ;
#101 = DIRECTION ( 'NONE',  ( -2.445468806185136597E-29, 3.491481338843145583E-15, 1.000000000000000000 ) ) ;
#102 = LOCAL_TIME ( 9, 18, 11.00000000000000000, #271 ) ;
#103 = EDGE_LOOP ( 'NONE', ( #270, #114, #333, #321 ) ) ;
#104 = ORIENTED_EDGE ( 'NONE', *, *, #96, .T. ) ;
#105 = LINE ( 'NONE', #76, #84 ) ;
#106 = CC_DESIGN_PERSON_AND_ORGANIZATION_ASSIGNMENT ( #181, #379, ( #52 ) ) ;
#107 = DIRECTION ( 'NONE',  ( -6.982962677686265133E-15, -1.000000000000000000, 2.832398127179122126E-15 ) ) ;
#108 = ORIENTED_EDGE ( 'NONE', *, *, #126, .F. ) ;
#109 = CC_DESIGN_DATE_AND_TIME_ASSIGNMENT ( #349, #358, ( #346 ) ) ;
#110 = DIRECTION ( 'NONE',  ( -1.000000000000000000, 6.982962677686267499E-15, 0.000000000000000000 ) ) ;
#111 = EDGE_LOOP ( 'NONE', ( #58, #231, #150, #352 ) ) ;
#112 = ORIENTED_EDGE ( 'NONE', *, *, #218, .F. ) ;
#113 = DIRECTION ( 'NONE',  ( -2.444333879032325908E-29, 3.493106619122012696E-15, 1.000000000000000000 ) ) ;
#114 = ORIENTED_EDGE ( 'NONE', *, *, #121, .T. ) ;
#115 = EDGE_CURVE ( 'NONE', #213, #30, #187, .T. ) ;
#116 = COORDINATED_UNIVERSAL_TIME_OFFSET ( 5, 0, .BEHIND. ) ;
#117 = PLANE ( 'NONE',  #83 ) ;
#118 = VERTEX_POINT ( 'NONE', #37 ) ;
#119 = VERTEX_POINT ( 'NONE', #194 ) ;
#120 = PERSON_AND_ORGANIZATION ( #374, #125 ) ;
#121 = EDGE_CURVE ( 'NONE', #122, #256, #220, .T. ) ;
#122 = VERTEX_POINT ( 'NONE', #339 ) ;
#123 = COORDINATED_UNIVERSAL_TIME_OFFSET ( 5, 0, .BEHIND. ) ;
#124 = ORIENTED_EDGE ( 'NONE', *, *, #338, .F. ) ;
#125 = ORGANIZATION ( 'UNSPECIFIED', 'UNSPECIFIED', '' ) ;
#126 = EDGE_CURVE ( 'NONE', #119, #377, #250, .T. ) ;
#127 = DIRECTION ( 'NONE',  ( 1.000000000000000000, -6.982962677686263555E-15, 0.000000000000000000 ) ) ;
#128 = DIRECTION ( 'NONE',  ( 1.000000000000000000, -6.982962677686267499E-15, 0.000000000000000000 ) ) ;
#129 = CLOSED_SHELL ( 'NONE', ( #316, #134, #279, #348, #51 ) ) ;
#130 = CARTESIAN_POINT ( 'NONE',  ( -0.1929000000000002935, -6.297703527219964944E-15, -2.196299999999999919 ) ) ;
#131 = DIRECTION ( 'NONE',  ( -2.444333879032325908E-29, 3.493106619122012696E-15, 1.000000000000000000 ) ) ;
#132 = LINE ( 'NONE', #157, #259 ) ;
#133 = DIRECTION ( 'NONE',  ( -6.982962677686265133E-15, -1.000000000000000000, 2.832398127179122126E-15 ) ) ;
#134 = ADVANCED_FACE ( 'NONE', ( #97 ), #146, .T. ) ;
#135 = DIRECTION ( 'NONE',  ( 1.000000000000000000, -6.982962677686267499E-15, 0.000000000000000000 ) ) ;
#136 = ORIENTED_EDGE ( 'NONE', *, *, #354, .T. ) ;
#137 = DIRECTION ( 'NONE',  ( -2.444333879032325908E-29, 3.493106619122012696E-15, 1.000000000000000000 ) ) ;
#138 = CARTESIAN_POINT ( 'NONE',  ( -8.766642259802657234E-28, 1.252879567755739165E-13, 35.86617874015747987 ) ) ;
#139 = APPLICATION_CONTEXT ( 'configuration controlled 3d designs of mechanical parts and assemblies' ) ;
#140 = AXIS2_PLACEMENT_3D ( 'NONE', #284, #160, #2 ) ;
#141 = EDGE_LOOP ( 'NONE', ( #230, #171, #88 ) ) ;
#142 = ORIENTED_EDGE ( 'NONE', *, *, #35, .F. ) ;
#143 = EDGE_CURVE ( 'NONE', #225, #380, #9, .T. ) ;
#144 = PERSON_AND_ORGANIZATION ( #374, #125 ) ;
#145 = VERTEX_POINT ( 'NONE', #72 ) ;
#146 = CONICAL_SURFACE ( 'NONE', #59, 124.8659371009154597, 1.265363707695892570 ) ;
#147 = CC_DESIGN_APPROVAL ( #251, ( #325 ) ) ;
#148 = SECURITY_CLASSIFICATION_LEVEL ( 'unclassified' ) ;
#149 = COORDINATED_UNIVERSAL_TIME_OFFSET ( 5, 0, .BEHIND. ) ;
#150 = ORIENTED_EDGE ( 'NONE', *, *, #68, .T. ) ;
#151 = APPLICATION_PROTOCOL_DEFINITION ( 'international standard', 'config_control_design', 1994, #139 ) ;
#152 = DIRECTION ( 'NONE',  ( -2.445468806185136597E-29, 3.491481338843145583E-15, 1.000000000000000000 ) ) ;
#153 = VECTOR ( 'NONE', #34, 39.37007874015748854 ) ;
#154 = CC_DESIGN_APPROVAL ( #174, ( #346 ) ) ;
#155 = CARTESIAN_POINT ( 'NONE',  ( 5.372205873427506359E-29, -7.670086205170621002E-15, -2.196799999999999642 ) ) ;
#156 = CARTESIAN_POINT ( 'NONE',  ( -0.1929000000000002935, -6.297703527219964944E-15, -2.196299999999999919 ) ) ;
#157 = CARTESIAN_POINT ( 'NONE',  ( -0.1929000000000001547, 1.370636937281234358E-15, -9.488625789101721572E-30 ) ) ;
#158 = LOCAL_TIME ( 9, 18, 11.00000000000000000, #149 ) ;
#159 = DIRECTION ( 'NONE',  ( -2.444333879032325908E-29, 3.493106619122012696E-15, 1.000000000000000000 ) ) ;
#160 = DIRECTION ( 'NONE',  ( -2.445468806185136597E-29, 3.491481338843145583E-15, 1.000000000000000000 ) ) ;
#161 = DIRECTION ( 'NONE',  ( -2.445468806185136597E-29, 3.491481338843145583E-15, 1.000000000000000000 ) ) ;
#162 = ADVANCED_FACE ( 'NONE', ( #280 ), #306, .T. ) ;
#163 = DIRECTION ( 'NONE',  ( 1.000000000000000000, -6.982962677686263555E-15, 0.000000000000000000 ) ) ;
#164 = APPROVAL_PERSON_ORGANIZATION ( #120, #174, #237 ) ;
#165 = DIRECTION ( 'NONE',  ( -2.445468806185136597E-29, 3.491481338843145583E-15, 1.000000000000000000 ) ) ;
#166 = FACE_OUTER_BOUND ( 'NONE', #111, .T. ) ;
#167 = ADVANCED_BREP_SHAPE_REPRESENTATION ( '68606', ( #54, #315, #74 ), #200 ) ;
#168 = DIRECTION ( 'NONE',  ( 1.000000000000000000, -6.982962677686265922E-15, 4.876176775795935793E-29 ) ) ;
#169 = AXIS2_PLACEMENT_3D ( 'NONE', #330, #152, #63 ) ;
#170 = AXIS2_PLACEMENT_3D ( 'NONE', #199, #291, #110 ) ;
#171 = ORIENTED_EDGE ( 'NONE', *, *, #32, .T. ) ;
#172 = PERSON_AND_ORGANIZATION ( #374, #125 ) ;
#173 = EDGE_LOOP ( 'NONE', ( #388, #80, #203 ) ) ;
#174 = APPROVAL ( #355, 'UNSPECIFIED' ) ;
#175 = PERSON_AND_ORGANIZATION ( #374, #125 ) ;
#176 = LINE ( 'NONE', #24, #287 ) ;
#177 = APPROVAL_DATE_TIME ( #21, #241 ) ;
#178 = EDGE_LOOP ( 'NONE', ( #236, #56, #112, #384 ) ) ;
#179 = AXIS2_PLACEMENT_3D ( 'NONE', #100, #101, #64 ) ;
#180 = ORIENTED_EDGE ( 'NONE', *, *, #290, .T. ) ;
#181 = PERSON_AND_ORGANIZATION ( #374, #125 ) ;
#182 = DIRECTION ( 'NONE',  ( 6.776566513254258926E-15, 0.9537169507482290420, 0.3007057995042663467 ) ) ;
#183 = APPROVAL_DATE_TIME ( #62, #174 ) ;
#184 = FACE_OUTER_BOUND ( 'NONE', #178, .T. ) ;
#185 = CARTESIAN_POINT ( 'NONE',  ( 5.370983139024414679E-29, -7.668340464501200288E-15, -2.196299999999999919 ) ) ;
#186 = CC_DESIGN_PERSON_AND_ORGANIZATION_ASSIGNMENT ( #144, #86, ( #325 ) ) ;
#187 = CIRCLE ( 'NONE', #179, 0.1616499999999999604 ) ;
#188 = LOCAL_TIME ( 9, 18, 11.00000000000000000, #116 ) ;
#189 = DIRECTION ( 'NONE',  ( -2.444333879032325908E-29, 3.493106619122012696E-15, 1.000000000000000000 ) ) ;
#190 = DIRECTION ( 'NONE',  ( -2.444333879032325908E-29, 3.493106619122012696E-15, 1.000000000000000000 ) ) ;
#191 = EDGE_CURVE ( 'NONE', #145, #225, #33, .T. ) ;
#192 = DIRECTION ( 'NONE',  ( -2.445468806185136597E-29, 3.491481338843145583E-15, 1.000000000000000000 ) ) ;
#193 = VECTOR ( 'NONE', #311, 39.37007874015748143 ) ;
#194 = CARTESIAN_POINT ( 'NONE',  ( 1.370636937281317188E-15, 0.1928999999999922998, -2.196800000000000086 ) ) ;
#195 = DIRECTION ( 'NONE',  ( -2.445468806185136877E-29, 3.491481338843145188E-15, 1.000000000000000000 ) ) ;
#196 = EDGE_CURVE ( 'NONE', #377, #119, #16, .T. ) ;
#197 = FACE_OUTER_BOUND ( 'NONE', #173, .T. ) ;
#198 = CONICAL_SURFACE ( 'NONE', #25, 0.1928999999999999881, 0.7853981633974450594 ) ;
#199 = CARTESIAN_POINT ( 'NONE',  ( 7.642090019328602662E-31, -1.091087918388490267E-16, -0.03125000000000020817 ) ) ;
#200 =( GEOMETRIC_REPRESENTATION_CONTEXT ( 3 ) GLOBAL_UNCERTAINTY_ASSIGNED_CONTEXT ( ( #20 ) ) GLOBAL_UNIT_ASSIGNED_CONTEXT ( ( #322, #229, #265 ) ) REPRESENTATION_CONTEXT ( 'NONE', 'WORKASPACE' ) );
#201 = ORIENTED_EDGE ( 'NONE', *, *, #68, .F. ) ;
#202 = CARTESIAN_POINT ( 'NONE',  ( 5.370983139024414679E-29, -7.668340464501200288E-15, -2.196299999999999919 ) ) ;
#203 = ORIENTED_EDGE ( 'NONE', *, *, #285, .F. ) ;
#204 = EDGE_LOOP ( 'NONE', ( #209, #180, #85, #206 ) ) ;
#205 = VERTEX_POINT ( 'NONE', #39 ) ;
#206 = ORIENTED_EDGE ( 'NONE', *, *, #91, .F. ) ;
#207 = EDGE_LOOP ( 'NONE', ( #124, #361 ) ) ;
#208 = APPROVAL_STATUS ( 'not_yet_approved' ) ;
#209 = ORIENTED_EDGE ( 'NONE', *, *, #143, .T. ) ;
#210 = PERSON_AND_ORGANIZATION ( #374, #125 ) ;
#211 = CARTESIAN_POINT ( 'NONE',  ( 8.569731619661745219E-29, -1.223235545130838958E-14, -3.503899999999999793 ) ) ;
#212 = AXIS2_PLACEMENT_3D ( 'NONE', #363, #310, #128 ) ;
#213 = VERTEX_POINT ( 'NONE', #217 ) ;
#214 = ADVANCED_FACE ( 'NONE', ( #242 ), #36, .T. ) ;
#215 = CYLINDRICAL_SURFACE ( 'NONE', #371, 0.1929000000000001547 ) ;
#216 = DIRECTION ( 'NONE',  ( -6.982962677686266711E-15, -1.000000000000000000, 3.500519750498693388E-15 ) ) ;
#217 = CARTESIAN_POINT ( 'NONE',  ( -0.1616499999999999604, 1.183350312767408201E-15, 4.818985154636748544E-18 ) ) ;
#218 = EDGE_CURVE ( 'NONE', #226, #118, #228, .T. ) ;
#219 = DIRECTION ( 'NONE',  ( 1.000000000000000000, -6.982962677686263555E-15, 0.000000000000000000 ) ) ;
#220 = LINE ( 'NONE', #156, #239 ) ;
#221 = CONICAL_SURFACE ( 'NONE', #293, 0.1929000000000002935, 0.7853981633970383847 ) ;
#222 = CIRCLE ( 'NONE', #261, 0.1924000000000005151 ) ;
#223 = DIRECTION ( 'NONE',  ( -1.000000000000000000, 6.982962677686267499E-15, 0.000000000000000000 ) ) ;
#224 = CC_DESIGN_PERSON_AND_ORGANIZATION_ASSIGNMENT ( #385, #50, ( #346 ) ) ;
#225 = VERTEX_POINT ( 'NONE', #336 ) ;
#226 = VERTEX_POINT ( 'NONE', #7 ) ;
#227 = PLANE ( 'NONE',  #277 ) ;
#228 = CIRCLE ( 'NONE', #212, 0.1928999999999999881 ) ;
#229 =( NAMED_UNIT ( * ) PLANE_ANGLE_UNIT ( ) SI_UNIT ( $, .RADIAN. ) );
#230 = ORIENTED_EDGE ( 'NONE', *, *, #191, .F. ) ;
#231 = ORIENTED_EDGE ( 'NONE', *, *, #115, .F. ) ;
#232 = DIRECTION ( 'NONE',  ( 1.000000000000000000, 0.000000000000000000, 0.000000000000000000 ) ) ;
#233 = COORDINATED_UNIVERSAL_TIME_OFFSET ( 5, 0, .BEHIND. ) ;
#234 = CONICAL_SURFACE ( 'NONE', #170, 0.1928999999999999881, 0.7853981633974450594 ) ;
#235 = DATE_AND_TIME ( #268, #188 ) ;
#236 = ORIENTED_EDGE ( 'NONE', *, *, #14, .T. ) ;
#237 = APPROVAL_ROLE ( '' ) ;
#238 = APPROVAL_ROLE ( '' ) ;
#239 = VECTOR ( 'NONE', #69, 39.37007874015748143 ) ;
#240 = AXIS2_PLACEMENT_3D ( 'NONE', #202, #47, #163 ) ;
#241 = APPROVAL ( #353, 'UNSPECIFIED' ) ;
#242 = FACE_OUTER_BOUND ( 'NONE', #329, .T. ) ;
#243 = EDGE_CURVE ( 'NONE', #256, #118, #132, .T. ) ;
#244 = DIRECTION ( 'NONE',  ( 2.445468806185136597E-29, -3.491481338843145583E-15, -1.000000000000000000 ) ) ;
#245 = AXIS2_PLACEMENT_3D ( 'NONE', #185, #248, #127 ) ;
#246 = AXIS2_PLACEMENT_3D ( 'NONE', #41, #81, #133 ) ;
#247 = FACE_OUTER_BOUND ( 'NONE', #103, .T. ) ;
#248 = DIRECTION ( 'NONE',  ( -2.445468806185136597E-29, 3.491481338843145583E-15, 1.000000000000000000 ) ) ;
#249 = CARTESIAN_POINT ( 'NONE',  ( 0.1928999999999999881, -1.432498855608977264E-15, -0.03125000000000020817 ) ) ;
#250 = CIRCLE ( 'NONE', #317, 0.1928999999999999881 ) ;
#251 = APPROVAL ( #208, 'UNSPECIFIED' ) ;
#252 = CIRCLE ( 'NONE', #42, 0.1616499999999999604 ) ;
#253 = CONICAL_SURFACE ( 'NONE', #365, 124.8659371009154597, 1.265363707695892570 ) ;
#254 = PLANE ( 'NONE',  #66 ) ;
#255 = CYLINDRICAL_SURFACE ( 'NONE', #308, 0.1928999999999999881 ) ;
#256 = VERTEX_POINT ( 'NONE', #130 ) ;
#257 = ORIENTED_EDGE ( 'NONE', *, *, #121, .F. ) ;
#258 = DIRECTION ( 'NONE',  ( 0.7071067811862576935, -2.468850131079221129E-15, 0.7071067811868373409 ) ) ;
#259 = VECTOR ( 'NONE', #281, 39.37007874015748143 ) ;
#260 = CYLINDRICAL_SURFACE ( 'NONE', #246, 0.1928999999999999881 ) ;
#261 = AXIS2_PLACEMENT_3D ( 'NONE', #262, #161, #345 ) ;
#262 = CARTESIAN_POINT ( 'NONE',  ( 5.372205873427507480E-29, -7.670086205170622580E-15, -2.196800000000000086 ) ) ;
#263 = ORIENTED_EDGE ( 'NONE', *, *, #196, .T. ) ;
#264 = ADVANCED_FACE ( 'NONE', ( #247 ), #221, .T. ) ;
#265 =( NAMED_UNIT ( * ) SI_UNIT ( $, .STERADIAN. ) SOLID_ANGLE_UNIT ( ) );
#266 = FACE_OUTER_BOUND ( 'NONE', #71, .T. ) ;
#267 = VERTEX_POINT ( 'NONE', #337 ) ;
#268 = CALENDAR_DATE ( 2024, 23, 4 ) ;
#269 = VECTOR ( 'NONE', #159, 39.37007874015748143 ) ;
#270 = ORIENTED_EDGE ( 'NONE', *, *, #338, .T. ) ;
#271 = COORDINATED_UNIVERSAL_TIME_OFFSET ( 5, 0, .BEHIND. ) ;
#272 = ORIENTED_EDGE ( 'NONE', *, *, #274, .F. ) ;
#273 = CALENDAR_DATE ( 2024, 23, 4 ) ;
#274 = EDGE_CURVE ( 'NONE', #118, #226, #73, .T. ) ;
#275 = PERSON_AND_ORGANIZATION ( #374, #125 ) ;
#276 = DIRECTION ( 'NONE',  ( 1.000000000000000000, -6.982962677686267499E-15, 4.875908573715771378E-29 ) ) ;
#277 = AXIS2_PLACEMENT_3D ( 'NONE', #313, #319, #11 ) ;
#278 = DIRECTION ( 'NONE',  ( -0.7071067811865452413, 2.468850131082233000E-15, -0.7071067811865497932 ) ) ;
#279 = ADVANCED_FACE ( 'NONE', ( #197 ), #253, .T. ) ;
#280 = FACE_OUTER_BOUND ( 'NONE', #383, .T. ) ;
#281 = DIRECTION ( 'NONE',  ( -2.445468806185136877E-29, 3.491481338843145188E-15, 1.000000000000000000 ) ) ;
#282 = VECTOR ( 'NONE', #195, 39.37007874015748143 ) ;
#283 = FACE_OUTER_BOUND ( 'NONE', #302, .T. ) ;
#284 = CARTESIAN_POINT ( 'NONE',  ( 0.000000000000000000, 0.000000000000000000, 0.000000000000000000 ) ) ;
#285 = EDGE_CURVE ( 'NONE', #380, #225, #294, .T. ) ;
#286 = CARTESIAN_POINT ( 'NONE',  ( 5.372205873427507480E-29, -7.670086205170622580E-15, -2.196800000000000086 ) ) ;
#287 = VECTOR ( 'NONE', #278, 39.37007874015748143 ) ;
#288 = AXIS2_PLACEMENT_3D ( 'NONE', #70, #192, #135 ) ;
#289 = FACE_OUTER_BOUND ( 'NONE', #48, .T. ) ;
#290 = EDGE_CURVE ( 'NONE', #380, #119, #105, .T. ) ;
#291 = DIRECTION ( 'NONE',  ( 2.445468806185136597E-29, -3.491481338843145583E-15, -1.000000000000000000 ) ) ;
#292 = DIRECTION ( 'NONE',  ( -2.438088387897960049E-29, 3.491481338843145188E-15, 1.000000000000000000 ) ) ;
#293 = AXIS2_PLACEMENT_3D ( 'NONE', #366, #99, #219 ) ;
#294 = CIRCLE ( 'NONE', #389, 0.1928999999999999881 ) ;
#295 = ORIENTED_EDGE ( 'NONE', *, *, #342, .T. ) ;
#296 = ORIENTED_EDGE ( 'NONE', *, *, #382, .T. ) ;
#297 = DIRECTION ( 'NONE',  ( -2.445468806185136597E-29, 3.491481338843145583E-15, 1.000000000000000000 ) ) ;
#298 = DIRECTION ( 'NONE',  ( -2.445468806185136597E-29, 3.491481338843145583E-15, 1.000000000000000000 ) ) ;
#299 = PERSON_AND_ORGANIZATION_ROLE ( 'creator' ) ;
#300 = ORIENTED_EDGE ( 'NONE', *, *, #243, .F. ) ;
#301 = APPROVAL_PERSON_ORGANIZATION ( #175, #241, #89 ) ;
#302 = EDGE_LOOP ( 'NONE', ( #142, #104, #360, #201 ) ) ;
#303 = APPROVAL_DATE_TIME ( #235, #251 ) ;
#304 = LINE ( 'NONE', #211, #65 ) ;
#305 = LINE ( 'NONE', #364, #269 ) ;
#306 = CONICAL_SURFACE ( 'NONE', #245, 0.1929000000000002935, 0.7853981633970383847 ) ;
#307 = EDGE_CURVE ( 'NONE', #122, #205, #222, .T. ) ;
#308 = AXIS2_PLACEMENT_3D ( 'NONE', #19, #376, #107 ) ;
#309 = CARTESIAN_POINT ( 'NONE',  ( 8.564701478741366192E-29, -1.223949628274161909E-14, -3.503899999999999793 ) ) ;
#310 = DIRECTION ( 'NONE',  ( -2.445468806185136597E-29, 3.491481338843145583E-15, 1.000000000000000000 ) ) ;
#311 = DIRECTION ( 'NONE',  ( 0.7071067811865452413, -7.319954787623248157E-15, -0.7071067811865497932 ) ) ;
#312 = DIRECTION ( 'NONE',  ( -6.982962677686265133E-15, -1.000000000000000000, 2.832398127179122126E-15 ) ) ;
#313 = CARTESIAN_POINT ( 'NONE',  ( -5.892338936576597965E-47, 8.412698369802292298E-33, 2.409492577322416414E-18 ) ) ;
#314 = CARTESIAN_POINT ( 'NONE',  ( 0.1929000000000001547, -1.347013500525681852E-15, 9.406145000510367611E-30 ) ) ;
#315 = MANIFOLD_SOLID_BREP ( 'Body-Move/Copy2[2]', #92 ) ;
#316 = ADVANCED_FACE ( 'NONE', ( #78 ), #255, .T. ) ;
#317 = AXIS2_PLACEMENT_3D ( 'NONE', #3, #189, #5 ) ;
#318 = CIRCLE ( 'NONE', #240, 0.1929000000000002935 ) ;
#319 = DIRECTION ( 'NONE',  ( 2.438088387897960049E-29, -3.491481338843145188E-15, -1.000000000000000000 ) ) ;
#320 = CC_DESIGN_DATE_AND_TIME_ASSIGNMENT ( #351, #23, ( #325 ) ) ;
#321 = ORIENTED_EDGE ( 'NONE', *, *, #382, .F. ) ;
#322 =( CONVERSION_BASED_UNIT ( 'INCH', #13 ) LENGTH_UNIT ( ) NAMED_UNIT ( #45 ) );
#323 = ORIENTED_EDGE ( 'NONE', *, *, #91, .T. ) ;
#324 = DIRECTION ( 'NONE',  ( 1.000000000000000000, -6.982962677686267499E-15, 0.000000000000000000 ) ) ;
#325 = PRODUCT_DEFINITION ( 'UNKNOWN', '', #60, #343 ) ;
#326 = CARTESIAN_POINT ( 'NONE',  ( 0.000000000000000000, 0.000000000000000000, 0.000000000000000000 ) ) ;
#327 = DIRECTION ( 'NONE',  ( 2.444333879032325347E-29, -3.493106619122012696E-15, -1.000000000000000000 ) ) ;
#328 = PRODUCT_RELATED_PRODUCT_CATEGORY ( 'detail', '', ( #52 ) ) ;
#329 = EDGE_LOOP ( 'NONE', ( #300, #136, #295, #272 ) ) ;
#330 = CARTESIAN_POINT ( 'NONE',  ( 5.370983139024414679E-29, -7.668340464501200288E-15, -2.196299999999999919 ) ) ;
#331 = LOCAL_TIME ( 9, 18, 11.00000000000000000, #233 ) ;
#332 = SHAPE_DEFINITION_REPRESENTATION ( #6, #167 ) ;
#333 = ORIENTED_EDGE ( 'NONE', *, *, #14, .F. ) ;
#334 = CARTESIAN_POINT ( 'NONE',  ( 8.418527522508600498E-29, -1.202347115297182550E-14, -3.443078863625244512 ) ) ;
#335 = CC_DESIGN_PERSON_AND_ORGANIZATION_ASSIGNMENT ( #210, #27, ( #60 ) ) ;
#336 = CARTESIAN_POINT ( 'NONE',  ( -1.347013500525596655E-15, -0.1929000000000120341, -3.443078863625244068 ) ) ;
#337 = CARTESIAN_POINT ( 'NONE',  ( 0.1929000000000002935, -9.015353965026881351E-15, -2.196299999999999919 ) ) ;
#338 = EDGE_CURVE ( 'NONE', #205, #122, #17, .T. ) ;
#339 = CARTESIAN_POINT ( 'NONE',  ( -0.1924000000000005151, -6.300352754394074567E-15, -2.196800000000000086 ) ) ;
#340 = DIRECTION ( 'NONE',  ( -2.444333879032325908E-29, 3.493106619122012696E-15, 1.000000000000000000 ) ) ;
#341 = CARTESIAN_POINT ( 'NONE',  ( 8.418527522508600498E-29, -1.202347115297182550E-14, -3.443078863625244512 ) ) ;
#342 = EDGE_CURVE ( 'NONE', #267, #226, #46, .T. ) ;
#343 = DESIGN_CONTEXT ( 'detailed design', #139, 'design' ) ;
#344 = APPLICATION_CONTEXT ( 'configuration controlled 3d designs of mechanical parts and assemblies' ) ;
#345 = DIRECTION ( 'NONE',  ( 1.000000000000000000, -6.982962677686267499E-15, 0.000000000000000000 ) ) ;
#346 = SECURITY_CLASSIFICATION ( '', '', #148 ) ;
#347 =( LENGTH_UNIT ( ) NAMED_UNIT ( * ) SI_UNIT ( $, .METRE. ) );
#348 = ADVANCED_FACE ( 'NONE', ( #289 ), #260, .T. ) ;
#349 = DATE_AND_TIME ( #29, #43 ) ;
#350 = VECTOR ( 'NONE', #258, 39.37007874015748143 ) ;
#351 = DATE_AND_TIME ( #94, #331 ) ;
#352 = ORIENTED_EDGE ( 'NONE', *, *, #274, .T. ) ;
#353 = APPROVAL_STATUS ( 'not_yet_approved' ) ;
#354 = EDGE_CURVE ( 'NONE', #256, #267, #318, .T. ) ;
#355 = APPROVAL_STATUS ( 'not_yet_approved' ) ;
#356 = ORIENTED_EDGE ( 'NONE', *, *, #126, .T. ) ;
#357 = ORIENTED_EDGE ( 'NONE', *, *, #354, .F. ) ;
#358 = DATE_TIME_ROLE ( 'classification_date' ) ;
#359 = AXIS2_PLACEMENT_3D ( 'NONE', #286, #165, #324 ) ;
#360 = ORIENTED_EDGE ( 'NONE', *, *, #218, .T. ) ;
#361 = ORIENTED_EDGE ( 'NONE', *, *, #307, .F. ) ;
#362 = ADVANCED_FACE ( 'NONE', ( #166 ), #234, .T. ) ;
#363 = CARTESIAN_POINT ( 'NONE',  ( 7.642090019328602662E-31, -1.091087918388490267E-16, -0.03125000000000020817 ) ) ;
#364 = CARTESIAN_POINT ( 'NONE',  ( -1.347013500525626829E-15, -0.1929000000000076487, -2.196799999999999198 ) ) ;
#365 = AXIS2_PLACEMENT_3D ( 'NONE', #138, #113, #372 ) ;
#366 = CARTESIAN_POINT ( 'NONE',  ( 5.370983139024414679E-29, -7.668340464501200288E-15, -2.196299999999999919 ) ) ;
#367 = ADVANCED_FACE ( 'NONE', ( #77 ), #227, .F. ) ;
#368 = DIRECTION ( 'NONE',  ( -2.444333879032325908E-29, 3.493106619122012696E-15, 1.000000000000000000 ) ) ;
#369 = CC_DESIGN_PERSON_AND_ORGANIZATION_ASSIGNMENT ( #172, #299, ( #60 ) ) ;
#370 = CARTESIAN_POINT ( 'NONE',  ( 7.642090019328602662E-31, -1.091087918388490267E-16, -0.03125000000000020817 ) ) ;
#371 = AXIS2_PLACEMENT_3D ( 'NONE', #386, #297, #90 ) ;
#372 = DIRECTION ( 'NONE',  ( -6.982962677686266711E-15, -1.000000000000000000, 3.500519750498693388E-15 ) ) ;
#373 = DIRECTION ( 'NONE',  ( -6.982962677686265133E-15, -1.000000000000000000, 2.832398127179122126E-15 ) ) ;
#374 = PERSON ( 'UNSPECIFIED', 'UNSPECIFIED', 'UNSPECIFIED', ('UNSPECIFIED'), ('UNSPECIFIED'), ('UNSPECIFIED') ) ;
#375 = CARTESIAN_POINT ( 'NONE',  ( 3.194086371262518017E-29, -1.078927730313405579E-14, -2.196800000000000086 ) ) ;
#376 = DIRECTION ( 'NONE',  ( -2.444333879032325908E-29, 3.493106619122012696E-15, 1.000000000000000000 ) ) ;
#377 = VERTEX_POINT ( 'NONE', #40 ) ;
#378 = FACE_OUTER_BOUND ( 'NONE', #207, .T. ) ;
#379 = PERSON_AND_ORGANIZATION_ROLE ( 'design_owner' ) ;
#380 = VERTEX_POINT ( 'NONE', #8 ) ;
#381 = DIRECTION ( 'NONE',  ( 0.000000000000000000, 0.000000000000000000, 1.000000000000000000 ) ) ;
#382 = EDGE_CURVE ( 'NONE', #205, #267, #12, .T. ) ;
#383 = EDGE_LOOP ( 'NONE', ( #257, #79, #296, #357 ) ) ;
#384 = ORIENTED_EDGE ( 'NONE', *, *, #342, .F. ) ;
#385 = PERSON_AND_ORGANIZATION ( #374, #125 ) ;
#386 = CARTESIAN_POINT ( 'NONE',  ( 0.000000000000000000, 0.000000000000000000, 0.000000000000000000 ) ) ;
#387 = CARTESIAN_POINT ( 'NONE',  ( 0.1616499999999999604, -1.270749178474372533E-15, 4.818985154653222949E-18 ) ) ;
#388 = ORIENTED_EDGE ( 'NONE', *, *, #32, .F. ) ;
#389 = AXIS2_PLACEMENT_3D ( 'NONE', #341, #340, #373 ) ;
#390 = ADVANCED_FACE ( 'NONE', ( #378 ), #254, .F. ) ;
ENDSEC;
END-ISO-10303-21;
