ISO-10303-21;
HEADER;
FILE_DESCRIPTION (( 'STEP AP203' ),
    '1' );
FILE_NAME ('68645.STEP',
    '2024-04-23T13:21:43',
    ( '' ),
    ( '' ),
    'SwSTEP 2.0',
    'SolidWorks 2023',
    '' );
FILE_SCHEMA (( 'CONFIG_CONTROL_DESIGN' ));
ENDSEC;

DATA;
#1 = ORIENTED_EDGE ( 'NONE', *, *, #287, .F. ) ;
#2 = DIRECTION ( 'NONE',  ( 1.000000000000000000, -6.982962677686265922E-15, 4.876176775795935793E-29 ) ) ;
#3 = ORIENTED_EDGE ( 'NONE', *, *, #91, .T. ) ;
#4 = VERTEX_POINT ( 'NONE', #308 ) ;
#5 = AXIS2_PLACEMENT_3D ( 'NONE', #348, #35, #202 ) ;
#6 = VECTOR ( 'NONE', #267, 39.37007874015748143 ) ;
#7 = ORIENTED_EDGE ( 'NONE', *, *, #61, .T. ) ;
#8 = PERSON_AND_ORGANIZATION_ROLE ( 'creator' ) ;
#9 = DIRECTION ( 'NONE',  ( 0.7071067811865452413, -7.319954787623248157E-15, -0.7071067811865497932 ) ) ;
#10 = ADVANCED_FACE ( 'NONE', ( #164 ), #178, .T. ) ;
#11 = CARTESIAN_POINT ( 'NONE',  ( 7.642090019328599159E-31, -1.091087918388489774E-16, -0.03125000000000019429 ) ) ;
#12 = VECTOR ( 'NONE', #236, 39.37007874015748143 ) ;
#13 = LINE ( 'NONE', #146, #133 ) ;
#14 = LINE ( 'NONE', #311, #205 ) ;
#15 = DIRECTION ( 'NONE',  ( 1.000000000000000000, -6.982962677686282488E-15, 0.000000000000000000 ) ) ;
#16 = AXIS2_PLACEMENT_3D ( 'NONE', #124, #291, #257 ) ;
#17 = FACE_OUTER_BOUND ( 'NONE', #307, .T. ) ;
#18 = DIRECTION ( 'NONE',  ( -2.445500036165045055E-29, 3.491436615734416890E-15, 1.000000000000000000 ) ) ;
#19 = APPROVAL ( #23, 'UNSPECIFIED' ) ;
#20 = AXIS2_PLACEMENT_3D ( 'NONE', #140, #64, #254 ) ;
#21 = AXIS2_PLACEMENT_3D ( 'NONE', #188, #222, #184 ) ;
#22 = MANIFOLD_SOLID_BREP ( 'Body-Move/Copy2[1]', #96 ) ;
#23 = APPROVAL_STATUS ( 'not_yet_approved' ) ;
#24 = ORIENTED_EDGE ( 'NONE', *, *, #240, .T. ) ;
#25 = CARTESIAN_POINT ( 'NONE',  ( 0.01180000000000008820, -2.568682820986902509E-15, -0.7121000000000000663 ) ) ;
#26 = COORDINATED_UNIVERSAL_TIME_OFFSET ( 5, 0, .BEHIND. ) ;
#27 = VERTEX_POINT ( 'NONE', #30 ) ;
#28 = ADVANCED_FACE ( 'NONE', ( #85 ), #252, .F. ) ;
#29 = DIRECTION ( 'NONE',  ( -2.445468806185136597E-29, 3.491481338843145583E-15, 1.000000000000000000 ) ) ;
#30 = CARTESIAN_POINT ( 'NONE',  ( -0.01130000000000016408, -2.405089045744622743E-15, -0.7126000000000002332 ) ) ;
#31 = DIRECTION ( 'NONE',  ( 1.000000000000000000, -6.982962677686265922E-15, 0.000000000000000000 ) ) ;
#32 = EDGE_CURVE ( 'NONE', #334, #277, #126, .T. ) ;
#33 = ORIENTED_EDGE ( 'NONE', *, *, #287, .T. ) ;
#34 = SHAPE_DEFINITION_REPRESENTATION ( #228, #253 ) ;
#35 = DIRECTION ( 'NONE',  ( -2.445500036165044774E-29, 3.491436615734416890E-15, 1.000000000000000000 ) ) ;
#36 = MANIFOLD_SOLID_BREP ( 'Body-Move/Copy2[2]', #281 ) ;
#37 = PERSON_AND_ORGANIZATION ( #94, #309 ) ;
#38 = DIMENSIONAL_EXPONENTS ( 1.000000000000000000, 0.000000000000000000, 0.000000000000000000, 0.000000000000000000, 0.000000000000000000, 0.000000000000000000, 0.000000000000000000 ) ;
#39 = DATE_TIME_ROLE ( 'creation_date' ) ;
#40 = CARTESIAN_POINT ( 'NONE',  ( 0.01180000000000008820, -2.568682820986902509E-15, -0.7121000000000000663 ) ) ;
#41 = LOCAL_TIME ( 9, 21, 43.00000000000000000, #185 ) ;
#42 = EDGE_CURVE ( 'NONE', #115, #334, #340, .T. ) ;
#43 = CARTESIAN_POINT ( 'NONE',  ( 2.021939429901259130E-29, -2.886719793889215742E-15, -0.8268000000000000904 ) ) ;
#44 = LINE ( 'NONE', #93, #12 ) ;
#45 = CONICAL_SURFACE ( 'NONE', #57, 124.8659371009107133, 1.265363707695881690 ) ;
#46 = CC_DESIGN_PERSON_AND_ORGANIZATION_ASSIGNMENT ( #58, #215, ( #116 ) ) ;
#47 = DIRECTION ( 'NONE',  ( -2.445500036165044774E-29, 3.491436615734416890E-15, 1.000000000000000000 ) ) ;
#48 = AXIS2_PLACEMENT_3D ( 'NONE', #314, #318, #169 ) ;
#49 = CIRCLE ( 'NONE', #16, 0.01180000000000000146 ) ;
#50 = DATE_AND_TIME ( #362, #201 ) ;
#51 = ORIENTED_EDGE ( 'NONE', *, *, #97, .F. ) ;
#52 = CARTESIAN_POINT ( 'NONE',  ( 7.642090019328599159E-31, -1.091087918388489774E-16, -0.03125000000000019429 ) ) ;
#53 = EDGE_CURVE ( 'NONE', #4, #80, #13, .T. ) ;
#54 = DATE_AND_TIME ( #77, #356 ) ;
#55 = VERTEX_POINT ( 'NONE', #43 ) ;
#56 = DIRECTION ( 'NONE',  ( -2.445468806185136597E-29, 3.491481338843145583E-15, 1.000000000000000000 ) ) ;
#57 = AXIS2_PLACEMENT_3D ( 'NONE', #312, #67, #173 ) ;
#58 = PERSON_AND_ORGANIZATION ( #94, #309 ) ;
#59 = ORIENTED_EDGE ( 'NONE', *, *, #108, .T. ) ;
#60 = ORIENTED_EDGE ( 'NONE', *, *, #91, .F. ) ;
#61 = EDGE_CURVE ( 'NONE', #55, #272, #150, .T. ) ;
#62 = ORIENTED_EDGE ( 'NONE', *, *, #103, .T. ) ;
#63 =( CONVERSION_BASED_UNIT ( 'INCH', #134 ) LENGTH_UNIT ( ) NAMED_UNIT ( #38 ) );
#64 = DIRECTION ( 'NONE',  ( -2.445468806185136597E-29, 3.491481338843145583E-15, 1.000000000000000000 ) ) ;
#65 = LINE ( 'NONE', #286, #224 ) ;
#66 = PERSON_AND_ORGANIZATION ( #94, #309 ) ;
#67 = DIRECTION ( 'NONE',  ( -2.445500036165044774E-29, 3.491436615734416890E-15, 1.000000000000000000 ) ) ;
#68 = DIRECTION ( 'NONE',  ( 1.000000000000000000, -6.982962677686265922E-15, 0.000000000000000000 ) ) ;
#69 = AXIS2_PLACEMENT_3D ( 'NONE', #177, #175, #122 ) ;
#70 = FACE_OUTER_BOUND ( 'NONE', #297, .T. ) ;
#71 = CARTESIAN_POINT ( 'NONE',  ( 0.000000000000000000, 0.000000000000000000, 0.000000000000000000 ) ) ;
#72 = ORIENTED_EDGE ( 'NONE', *, *, #131, .T. ) ;
#73 = AXIS2_PLACEMENT_3D ( 'NONE', #181, #264, #238 ) ;
#74 = DIRECTION ( 'NONE',  ( -2.445500036165044774E-29, 3.491436615734416890E-15, 1.000000000000000000 ) ) ;
#75 = DIRECTION ( 'NONE',  ( 1.000000000000000000, -6.982962677686266711E-15, 4.876176775795935793E-29 ) ) ;
#76 = AXIS2_PLACEMENT_3D ( 'NONE', #301, #159, #2 ) ;
#77 = CALENDAR_DATE ( 2024, 23, 4 ) ;
#78 = ORIENTED_EDGE ( 'NONE', *, *, #131, .F. ) ;
#79 = APPROVAL_ROLE ( '' ) ;
#80 = VERTEX_POINT ( 'NONE', #349 ) ;
#81 = APPLICATION_PROTOCOL_DEFINITION ( 'international standard', 'config_control_design', 1994, #244 ) ;
#82 = CC_DESIGN_DATE_AND_TIME_ASSIGNMENT ( #54, #39, ( #116 ) ) ;
#83 = EDGE_LOOP ( 'NONE', ( #62, #72 ) ) ;
#84 = CC_DESIGN_SECURITY_CLASSIFICATION ( #211, ( #323 ) ) ;
#85 = FACE_OUTER_BOUND ( 'NONE', #83, .T. ) ;
#86 = ORIENTED_EDGE ( 'NONE', *, *, #214, .T. ) ;
#87 = ORIENTED_EDGE ( 'NONE', *, *, #189, .T. ) ;
#88 = AXIS2_PLACEMENT_3D ( 'NONE', #276, #29, #142 ) ;
#89 = DIRECTION ( 'NONE',  ( 1.000000000000000000, -6.982962677686282488E-15, 0.000000000000000000 ) ) ;
#90 = APPROVAL_PERSON_ORGANIZATION ( #157, #19, #79 ) ;
#91 = EDGE_CURVE ( 'NONE', #191, #275, #351, .T. ) ;
#92 = DIRECTION ( 'NONE',  ( -2.445468806185136597E-29, 3.491481338843145583E-15, 1.000000000000000000 ) ) ;
#93 = CARTESIAN_POINT ( 'NONE',  ( -0.01180000000000004483, 8.384404281969214046E-17, -5.804343406500810911E-31 ) ) ;
#94 = PERSON ( 'UNSPECIFIED', 'UNSPECIFIED', 'UNSPECIFIED', ('UNSPECIFIED'), ('UNSPECIFIED'), ('UNSPECIFIED') ) ;
#95 = DIRECTION ( 'NONE',  ( -2.445468806185136597E-29, 3.491481338843145583E-15, 1.000000000000000000 ) ) ;
#96 = CLOSED_SHELL ( 'NONE', ( #262, #310, #172, #288, #28 ) ) ;
#97 = EDGE_CURVE ( 'NONE', #27, #277, #65, .T. ) ;
#98 = DIRECTION ( 'NONE',  ( 2.445468806185136597E-29, -3.491481338843145583E-15, -1.000000000000000000 ) ) ;
#99 = FACE_OUTER_BOUND ( 'NONE', #111, .T. ) ;
#100 = CYLINDRICAL_SURFACE ( 'NONE', #255, 0.01180000000000000146 ) ;
#101 = VECTOR ( 'NONE', #260, 39.37007874015748143 ) ;
#102 =( GEOMETRIC_REPRESENTATION_CONTEXT ( 3 ) GLOBAL_UNCERTAINTY_ASSIGNED_CONTEXT ( ( #196 ) ) GLOBAL_UNIT_ASSIGNED_CONTEXT ( ( #63, #339, #304 ) ) REPRESENTATION_CONTEXT ( 'NONE', 'WORKASPACE' ) );
#103 = EDGE_CURVE ( 'NONE', #80, #226, #153, .T. ) ;
#104 = FACE_OUTER_BOUND ( 'NONE', #161, .T. ) ;
#105 = LINE ( 'NONE', #242, #6 ) ;
#106 = APPROVAL_DATE_TIME ( #50, #332 ) ;
#107 = ORIENTED_EDGE ( 'NONE', *, *, #42, .T. ) ;
#108 = EDGE_CURVE ( 'NONE', #27, #115, #361, .T. ) ;
#109 = CALENDAR_DATE ( 2024, 23, 4 ) ;
#110 = ORIENTED_EDGE ( 'NONE', *, *, #337, .T. ) ;
#111 = EDGE_LOOP ( 'NONE', ( #342, #137, #195, #279 ) ) ;
#112 = ORIENTED_EDGE ( 'NONE', *, *, #176, .T. ) ;
#113 = CIRCLE ( 'NONE', #48, 0.01180000000000000146 ) ;
#114 = VECTOR ( 'NONE', #18, 39.37007874015748143 ) ;
#115 = VERTEX_POINT ( 'NONE', #206 ) ;
#116 = PRODUCT_DEFINITION ( 'UNKNOWN', '', #323, #280 ) ;
#117 = DIRECTION ( 'NONE',  ( 6.982962677686265922E-15, 1.000000000000000000, -3.491436615734416890E-15 ) ) ;
#118 = DATE_AND_TIME ( #109, #41 ) ;
#119 = LINE ( 'NONE', #234, #268 ) ;
#120 = DIRECTION ( 'NONE',  ( -0.7071067811863723795, 7.493145998869721494E-15, 0.7071067811867226549 ) ) ;
#121 = CONICAL_SURFACE ( 'NONE', #180, 0.01180000000000008820, 0.7853981633972005882 ) ;
#122 = DIRECTION ( 'NONE',  ( -6.982962677686265133E-15, -1.000000000000000000, 0.000000000000000000 ) ) ;
#123 = EDGE_CURVE ( 'NONE', #55, #4, #119, .T. ) ;
#124 = CARTESIAN_POINT ( 'NONE',  ( 2.012818629662221517E-29, -2.873761683887107844E-15, -0.8230794742912279638 ) ) ;
#125 = LINE ( 'NONE', #237, #269 ) ;
#126 = CIRCLE ( 'NONE', #20, 0.01180000000000008820 ) ;
#127 = CARTESIAN_POINT ( 'NONE',  ( 8.384404281971192361E-17, 0.01179999999999712355, -0.8230794742912279638 ) ) ;
#128 = CARTESIAN_POINT ( 'NONE',  ( -0.01180000000000000493, -1.213852283794832519E-15, -0.03125000000000019429 ) ) ;
#129 = APPROVAL_PERSON_ORGANIZATION ( #37, #313, #220 ) ;
#130 = EDGE_LOOP ( 'NONE', ( #51, #59, #107, #221 ) ) ;
#131 = EDGE_CURVE ( 'NONE', #226, #80, #113, .T. ) ;
#132 = ORIENTED_EDGE ( 'NONE', *, *, #108, .F. ) ;
#133 = VECTOR ( 'NONE', #147, 39.37007874015748143 ) ;
#134 = LENGTH_MEASURE_WITH_UNIT ( LENGTH_MEASURE( 0.02539999999999999897 ), #336 );
#135 = CC_DESIGN_APPROVAL ( #19, ( #323 ) ) ;
#136 = PERSON_AND_ORGANIZATION ( #94, #309 ) ;
#137 = ORIENTED_EDGE ( 'NONE', *, *, #346, .T. ) ;
#138 = EDGE_LOOP ( 'NONE', ( #216, #33, #110 ) ) ;
#139 = EDGE_CURVE ( 'NONE', #272, #4, #316, .T. ) ;
#140 = CARTESIAN_POINT ( 'NONE',  ( 1.741418336884435696E-29, -2.486283861390203990E-15, -0.7121000000000000663 ) ) ;
#141 = DIRECTION ( 'NONE',  ( -2.445468806185136597E-29, 3.491481338843145583E-15, 1.000000000000000000 ) ) ;
#142 = DIRECTION ( 'NONE',  ( 1.000000000000000000, -6.982962677686246989E-15, 0.000000000000000000 ) ) ;
#143 = CALENDAR_DATE ( 2024, 23, 4 ) ;
#144 = FACE_OUTER_BOUND ( 'NONE', #138, .T. ) ;
#145 = APPLICATION_PROTOCOL_DEFINITION ( 'international standard', 'config_control_design', 1994, #149 ) ;
#146 = CARTESIAN_POINT ( 'NONE',  ( -8.239895959668052243E-17, -0.01180000000000248905, -0.7126000000000001222 ) ) ;
#147 = DIRECTION ( 'NONE',  ( -2.445500036165045055E-29, 3.491436615734416890E-15, 1.000000000000000000 ) ) ;
#148 = AXIS2_PLACEMENT_3D ( 'NONE', #353, #98, #208 ) ;
#149 = APPLICATION_CONTEXT ( 'configuration controlled 3d designs of mechanical parts and assemblies' ) ;
#150 = LINE ( 'NONE', #261, #174 ) ;
#151 = CARTESIAN_POINT ( 'NONE',  ( 1.742641071287528778E-29, -2.488029602059626283E-15, -0.7126000000000002332 ) ) ;
#152 = CARTESIAN_POINT ( 'NONE',  ( 0.000000000000000000, 0.000000000000000000, 0.000000000000000000 ) ) ;
#153 = CIRCLE ( 'NONE', #69, 0.01180000000000000146 ) ;
#154 = FACE_OUTER_BOUND ( 'NONE', #239, .T. ) ;
#155 = CARTESIAN_POINT ( 'NONE',  ( 1.742641071287528498E-29, -2.488029602059625888E-15, -0.7126000000000001222 ) ) ;
#156 = CIRCLE ( 'NONE', #207, 0.01130000000000016408 ) ;
#157 = PERSON_AND_ORGANIZATION ( #94, #309 ) ;
#158 = ORIENTED_EDGE ( 'NONE', *, *, #42, .F. ) ;
#159 = DIRECTION ( 'NONE',  ( -2.438088387897960049E-29, 3.491481338843145188E-15, 1.000000000000000000 ) ) ;
#160 = SECURITY_CLASSIFICATION_LEVEL ( 'unclassified' ) ;
#161 = EDGE_LOOP ( 'NONE', ( #166, #87, #60, #328 ) ) ;
#162 = DIRECTION ( 'NONE',  ( 1.000000000000000000, -6.982962677686266711E-15, 4.876176775795935793E-29 ) ) ;
#163 = CALENDAR_DATE ( 2024, 23, 4 ) ;
#164 = FACE_OUTER_BOUND ( 'NONE', #130, .T. ) ;
#165 = EDGE_CURVE ( 'NONE', #334, #191, #14, .T. ) ;
#166 = ORIENTED_EDGE ( 'NONE', *, *, #32, .T. ) ;
#167 = ORIENTED_EDGE ( 'NONE', *, *, #53, .F. ) ;
#168 = ADVANCED_FACE ( 'NONE', ( #290 ), #121, .T. ) ;
#169 = DIRECTION ( 'NONE',  ( -6.982962677686265133E-15, -1.000000000000000000, 0.000000000000000000 ) ) ;
#170 = COORDINATED_UNIVERSAL_TIME_OFFSET ( 5, 0, .BEHIND. ) ;
#171 = CARTESIAN_POINT ( 'NONE',  ( 1.741418336884435696E-29, -2.486283861390203990E-15, -0.7121000000000000663 ) ) ;
#172 = ADVANCED_FACE ( 'NONE', ( #70 ), #45, .T. ) ;
#173 = DIRECTION ( 'NONE',  ( -6.982962677686265922E-15, -1.000000000000000000, 3.500519750498826311E-15 ) ) ;
#174 = VECTOR ( 'NONE', #347, 39.37007874015748854 ) ;
#175 = DIRECTION ( 'NONE',  ( -2.445500036165044774E-29, 3.491436615734416890E-15, 1.000000000000000000 ) ) ;
#176 = EDGE_CURVE ( 'NONE', #4, #272, #49, .T. ) ;
#177 = CARTESIAN_POINT ( 'NONE',  ( 1.742641071287528498E-29, -2.488029602059625888E-15, -0.7126000000000001222 ) ) ;
#178 = CONICAL_SURFACE ( 'NONE', #88, 0.01180000000000008820, 0.7853981633972005882 ) ;
#179 = EDGE_LOOP ( 'NONE', ( #199, #7, #213 ) ) ;
#180 = AXIS2_PLACEMENT_3D ( 'NONE', #171, #92, #203 ) ;
#181 = CARTESIAN_POINT ( 'NONE',  ( -9.425761180745819891E-28, 1.345713828141564733E-13, 38.54327874015748279 ) ) ;
#182 = AXIS2_PLACEMENT_3D ( 'NONE', #194, #305, #117 ) ;
#183 = AXIS2_PLACEMENT_3D ( 'NONE', #273, #141, #251 ) ;
#184 = DIRECTION ( 'NONE',  ( 1.000000000000000000, 0.000000000000000000, 0.000000000000000000 ) ) ;
#185 = COORDINATED_UNIVERSAL_TIME_OFFSET ( 5, 0, .BEHIND. ) ;
#186 = DATE_TIME_ROLE ( 'classification_date' ) ;
#187 = ORIENTED_EDGE ( 'NONE', *, *, #139, .T. ) ;
#188 = CARTESIAN_POINT ( 'NONE',  ( 0.000000000000000000, 0.000000000000000000, 0.000000000000000000 ) ) ;
#189 = EDGE_CURVE ( 'NONE', #277, #275, #44, .T. ) ;
#190 = DATE_AND_TIME ( #163, #293 ) ;
#191 = VERTEX_POINT ( 'NONE', #204 ) ;
#192 = PLANE ( 'NONE',  #76 ) ;
#193 = AXIS2_PLACEMENT_3D ( 'NONE', #71, #56, #162 ) ;
#194 = CARTESIAN_POINT ( 'NONE',  ( 1.742641071287528498E-29, -2.488029602059625888E-15, -0.7126000000000001222 ) ) ;
#195 = ORIENTED_EDGE ( 'NONE', *, *, #165, .T. ) ;
#196 = UNCERTAINTY_MEASURE_WITH_UNIT (LENGTH_MEASURE( 1.000000000000000082E-05 ), #63, 'distance_accuracy_value', 'NONE');
#197 = DIRECTION ( 'NONE',  ( -2.445468806185136597E-29, 3.491481338843145583E-15, 1.000000000000000000 ) ) ;
#198 = EDGE_CURVE ( 'NONE', #115, #27, #156, .T. ) ;
#199 = ORIENTED_EDGE ( 'NONE', *, *, #123, .F. ) ;
#200 = PRODUCT_RELATED_PRODUCT_CATEGORY ( 'detail', '', ( #358 ) ) ;
#201 = LOCAL_TIME ( 9, 21, 43.00000000000000000, #26 ) ;
#202 = DIRECTION ( 'NONE',  ( -6.982962677686265133E-15, -1.000000000000000000, 0.000000000000000000 ) ) ;
#203 = DIRECTION ( 'NONE',  ( 1.000000000000000000, -6.982962677686246989E-15, 0.000000000000000000 ) ) ;
#204 = CARTESIAN_POINT ( 'NONE',  ( 0.01180000000000000493, -1.915077514355469534E-16, -0.03125000000000019429 ) ) ;
#205 = VECTOR ( 'NONE', #289, 39.37007874015748143 ) ;
#206 = CARTESIAN_POINT ( 'NONE',  ( 0.01130000000000016408, -2.566937080317482583E-15, -0.7126000000000002332 ) ) ;
#207 = AXIS2_PLACEMENT_3D ( 'NONE', #151, #263, #15 ) ;
#208 = DIRECTION ( 'NONE',  ( -1.000000000000000000, 6.982962677686265922E-15, 0.000000000000000000 ) ) ;
#209 = PERSON_AND_ORGANIZATION_ROLE ( 'design_owner' ) ;
#210 = CC_DESIGN_PERSON_AND_ORGANIZATION_ASSIGNMENT ( #321, #209, ( #358 ) ) ;
#211 = SECURITY_CLASSIFICATION ( '', '', #160 ) ;
#212 = CYLINDRICAL_SURFACE ( 'NONE', #232, 0.01180000000000004483 ) ;
#213 = ORIENTED_EDGE ( 'NONE', *, *, #176, .F. ) ;
#214 = EDGE_CURVE ( 'NONE', #360, #191, #125, .T. ) ;
#215 = PERSON_AND_ORGANIZATION_ROLE ( 'creator' ) ;
#216 = ORIENTED_EDGE ( 'NONE', *, *, #214, .F. ) ;
#217 = AXIS2_PLACEMENT_3D ( 'NONE', #266, #357, #292 ) ;
#218 = ORIENTED_EDGE ( 'NONE', *, *, #240, .F. ) ;
#219 = ADVANCED_FACE ( 'NONE', ( #144 ), #225, .T. ) ;
#220 = APPROVAL_ROLE ( '' ) ;
#221 = ORIENTED_EDGE ( 'NONE', *, *, #346, .F. ) ;
#222 = DIRECTION ( 'NONE',  ( 0.000000000000000000, 0.000000000000000000, 1.000000000000000000 ) ) ;
#223 = ORIENTED_EDGE ( 'NONE', *, *, #53, .T. ) ;
#224 = VECTOR ( 'NONE', #120, 39.37007874015748143 ) ;
#225 = CONICAL_SURFACE ( 'NONE', #148, 0.01180000000000000493, 0.7853981633974450594 ) ;
#226 = VERTEX_POINT ( 'NONE', #320 ) ;
#227 = FACE_OUTER_BOUND ( 'NONE', #300, .T. ) ;
#228 = PRODUCT_DEFINITION_SHAPE ( 'NONE', 'NONE',  #116 ) ;
#229 = ORIENTED_EDGE ( 'NONE', *, *, #32, .F. ) ;
#230 = LINE ( 'NONE', #343, #114 ) ;
#231 = AXIS2_PLACEMENT_3D ( 'NONE', #235, #284, #89 ) ;
#232 = AXIS2_PLACEMENT_3D ( 'NONE', #152, #326, #75 ) ;
#233 = APPROVAL_DATE_TIME ( #118, #313 ) ;
#234 = CARTESIAN_POINT ( 'NONE',  ( 2.021894920933894144E-29, -2.886783533263776408E-15, -0.8268000000000000904 ) ) ;
#235 = CARTESIAN_POINT ( 'NONE',  ( 1.742641071287528778E-29, -2.488029602059626283E-15, -0.7126000000000002332 ) ) ;
#236 = DIRECTION ( 'NONE',  ( -2.445468806185136877E-29, 3.491481338843145188E-15, 1.000000000000000000 ) ) ;
#237 = CARTESIAN_POINT ( 'NONE',  ( 0.01180000000000000493, -1.900626682125530970E-16, -0.03125000000000019429 ) ) ;
#238 = DIRECTION ( 'NONE',  ( -6.982962677686265922E-15, -1.000000000000000000, 3.500519750498826311E-15 ) ) ;
#239 = EDGE_LOOP ( 'NONE', ( #1, #86, #3 ) ) ;
#240 = EDGE_CURVE ( 'NONE', #272, #226, #230, .T. ) ;
#241 = CARTESIAN_POINT ( 'NONE',  ( -0.01180000000000008820, -2.402439818570511936E-15, -0.7121000000000000663 ) ) ;
#242 = CARTESIAN_POINT ( 'NONE',  ( -0.01180000000000000493, -2.670983224215100449E-17, -0.03125000000000019429 ) ) ;
#243 = CC_DESIGN_APPROVAL ( #313, ( #211 ) ) ;
#244 = APPLICATION_CONTEXT ( 'configuration controlled 3d designs of mechanical parts and assemblies' ) ;
#245 = ORIENTED_EDGE ( 'NONE', *, *, #123, .T. ) ;
#246 = EDGE_LOOP ( 'NONE', ( #218, #187, #223, #78 ) ) ;
#247 = CC_DESIGN_APPROVAL ( #332, ( #116 ) ) ;
#248 = CONICAL_SURFACE ( 'NONE', #73, 124.8659371009107133, 1.265363707695881690 ) ;
#249 = COORDINATED_UNIVERSAL_TIME_OFFSET ( 5, 0, .BEHIND. ) ;
#250 = ORIENTED_EDGE ( 'NONE', *, *, #139, .F. ) ;
#251 = DIRECTION ( 'NONE',  ( 1.000000000000000000, -6.982962677686246989E-15, 0.000000000000000000 ) ) ;
#252 = PLANE ( 'NONE',  #182 ) ;
#253 = ADVANCED_BREP_SHAPE_REPRESENTATION ( '68645', ( #22, #36, #21 ), #102 ) ;
#254 = DIRECTION ( 'NONE',  ( 1.000000000000000000, -6.982962677686246989E-15, 0.000000000000000000 ) ) ;
#255 = AXIS2_PLACEMENT_3D ( 'NONE', #324, #47, #327 ) ;
#256 = ORIENTED_EDGE ( 'NONE', *, *, #97, .T. ) ;
#257 = DIRECTION ( 'NONE',  ( -6.982962677686265133E-15, -1.000000000000000000, 0.000000000000000000 ) ) ;
#258 = PERSON_AND_ORGANIZATION_ROLE ( 'design_supplier' ) ;
#259 = DIRECTION ( 'NONE',  ( -6.659769872151610789E-15, -0.9537169507482237130, 0.3007057995042833887 ) ) ;
#260 = DIRECTION ( 'NONE',  ( 0.7071067811863723795, -2.468850131080422170E-15, 0.7071067811867226549 ) ) ;
#261 = CARTESIAN_POINT ( 'NONE',  ( 2.021939820192364764E-29, -2.886719793889215742E-15, -0.8268000000000000904 ) ) ;
#262 = ADVANCED_FACE ( 'NONE', ( #17 ), #359, .T. ) ;
#263 = DIRECTION ( 'NONE',  ( -2.445468806185136597E-29, 3.491481338843145583E-15, 1.000000000000000000 ) ) ;
#264 = DIRECTION ( 'NONE',  ( -2.445500036165044774E-29, 3.491436615734416890E-15, 1.000000000000000000 ) ) ;
#265 = DIRECTION ( 'NONE',  ( -6.982962677686265133E-15, -1.000000000000000000, 0.000000000000000000 ) ) ;
#266 = CARTESIAN_POINT ( 'NONE',  ( 7.642090019328599159E-31, -1.091087918388489774E-16, -0.03125000000000019429 ) ) ;
#267 = DIRECTION ( 'NONE',  ( -0.7071067811865452413, 2.468850131082233000E-15, -0.7071067811865497932 ) ) ;
#268 = VECTOR ( 'NONE', #259, 39.37007874015748143 ) ;
#269 = VECTOR ( 'NONE', #9, 39.37007874015748143 ) ;
#270 = MECHANICAL_CONTEXT ( 'NONE', #244, 'mechanical' ) ;
#271 = PERSON_AND_ORGANIZATION ( #94, #309 ) ;
#272 = VERTEX_POINT ( 'NONE', #127 ) ;
#273 = CARTESIAN_POINT ( 'NONE',  ( 1.741418336884435696E-29, -2.486283861390203990E-15, -0.7121000000000000663 ) ) ;
#274 = APPROVAL_ROLE ( '' ) ;
#275 = VERTEX_POINT ( 'NONE', #128 ) ;
#276 = CARTESIAN_POINT ( 'NONE',  ( 1.741418336884435696E-29, -2.486283861390203990E-15, -0.7121000000000000663 ) ) ;
#277 = VERTEX_POINT ( 'NONE', #241 ) ;
#278 = CC_DESIGN_PERSON_AND_ORGANIZATION_ASSIGNMENT ( #66, #258, ( #323 ) ) ;
#279 = ORIENTED_EDGE ( 'NONE', *, *, #337, .F. ) ;
#280 = DESIGN_CONTEXT ( 'detailed design', #149, 'design' ) ;
#281 = CLOSED_SHELL ( 'NONE', ( #299, #306, #168, #354, #10, #315, #219 ) ) ;
#282 = CIRCLE ( 'NONE', #295, 0.01180000000000000493 ) ;
#283 = DATE_AND_TIME ( #143, #303 ) ;
#284 = DIRECTION ( 'NONE',  ( -2.445468806185136597E-29, 3.491481338843145583E-15, 1.000000000000000000 ) ) ;
#285 = PERSON_AND_ORGANIZATION_ROLE ( 'classification_officer' ) ;
#286 = CARTESIAN_POINT ( 'NONE',  ( -0.01180000000000008820, -2.402439818570511936E-15, -0.7121000000000000663 ) ) ;
#287 = EDGE_CURVE ( 'NONE', #360, #275, #105, .T. ) ;
#288 = ADVANCED_FACE ( 'NONE', ( #355 ), #100, .T. ) ;
#289 = DIRECTION ( 'NONE',  ( -2.445468806185136877E-29, 3.491481338843145188E-15, 1.000000000000000000 ) ) ;
#290 = FACE_OUTER_BOUND ( 'NONE', #338, .T. ) ;
#291 = DIRECTION ( 'NONE',  ( -2.445500036165044774E-29, 3.491436615734416890E-15, 1.000000000000000000 ) ) ;
#292 = DIRECTION ( 'NONE',  ( -1.000000000000000000, 6.982962677686265922E-15, 0.000000000000000000 ) ) ;
#293 = LOCAL_TIME ( 9, 21, 43.00000000000000000, #249 ) ;
#294 = FACE_OUTER_BOUND ( 'NONE', #179, .T. ) ;
#295 = AXIS2_PLACEMENT_3D ( 'NONE', #52, #197, #31 ) ;
#296 = APPROVAL_STATUS ( 'not_yet_approved' ) ;
#297 = EDGE_LOOP ( 'NONE', ( #330, #245, #250 ) ) ;
#298 = PERSON_AND_ORGANIZATION ( #94, #309 ) ;
#299 = ADVANCED_FACE ( 'NONE', ( #154 ), #352, .T. ) ;
#300 = EDGE_LOOP ( 'NONE', ( #335, #132 ) ) ;
#301 = CARTESIAN_POINT ( 'NONE',  ( 1.742641071287528778E-29, -2.488029602059626283E-15, -0.7126000000000002332 ) ) ;
#302 = ORIENTED_EDGE ( 'NONE', *, *, #198, .T. ) ;
#303 = LOCAL_TIME ( 9, 21, 43.00000000000000000, #170 ) ;
#304 =( NAMED_UNIT ( * ) SI_UNIT ( $, .STERADIAN. ) SOLID_ANGLE_UNIT ( ) );
#305 = DIRECTION ( 'NONE',  ( 2.445500036165044494E-29, -3.491436615734416890E-15, -1.000000000000000000 ) ) ;
#306 = ADVANCED_FACE ( 'NONE', ( #104 ), #212, .T. ) ;
#307 = EDGE_LOOP ( 'NONE', ( #112, #24, #363, #167 ) ) ;
#308 = CARTESIAN_POINT ( 'NONE',  ( -8.239895959667778607E-17, -0.01180000000000286896, -0.8230794742912279638 ) ) ;
#309 = ORGANIZATION ( 'UNSPECIFIED', 'UNSPECIFIED', '' ) ;
#310 = ADVANCED_FACE ( 'NONE', ( #294 ), #248, .T. ) ;
#311 = CARTESIAN_POINT ( 'NONE',  ( 0.01180000000000004483, -8.239895959669825947E-17, 5.753888595439225795E-31 ) ) ;
#312 = CARTESIAN_POINT ( 'NONE',  ( -9.425761180745819891E-28, 1.345713828141564733E-13, 38.54327874015748279 ) ) ;
#313 = APPROVAL ( #329, 'UNSPECIFIED' ) ;
#314 = CARTESIAN_POINT ( 'NONE',  ( 1.742641071287528498E-29, -2.488029602059625888E-15, -0.7126000000000001222 ) ) ;
#315 = ADVANCED_FACE ( 'NONE', ( #99 ), #322, .T. ) ;
#316 = CIRCLE ( 'NONE', #5, 0.01180000000000000146 ) ;
#317 = AXIS2_PLACEMENT_3D ( 'NONE', #155, #74, #265 ) ;
#318 = DIRECTION ( 'NONE',  ( -2.445500036165044774E-29, 3.491436615734416890E-15, 1.000000000000000000 ) ) ;
#319 = CC_DESIGN_DATE_AND_TIME_ASSIGNMENT ( #283, #186, ( #211 ) ) ;
#320 = CARTESIAN_POINT ( 'NONE',  ( 8.384404281971194826E-17, 0.01179999999999751213, -0.7126000000000001222 ) ) ;
#321 = PERSON_AND_ORGANIZATION ( #94, #309 ) ;
#322 = CYLINDRICAL_SURFACE ( 'NONE', #193, 0.01180000000000004483 ) ;
#323 = PRODUCT_DEFINITION_FORMATION_WITH_SPECIFIED_SOURCE ( 'ANY', '', #358, .NOT_KNOWN. ) ;
#324 = CARTESIAN_POINT ( 'NONE',  ( 1.742641071287528498E-29, -2.488029602059625888E-15, -0.7126000000000001222 ) ) ;
#325 = CC_DESIGN_PERSON_AND_ORGANIZATION_ASSIGNMENT ( #271, #285, ( #211 ) ) ;
#326 = DIRECTION ( 'NONE',  ( -2.445468806185136597E-29, 3.491481338843145583E-15, 1.000000000000000000 ) ) ;
#327 = DIRECTION ( 'NONE',  ( -6.982962677686265133E-15, -1.000000000000000000, 0.000000000000000000 ) ) ;
#328 = ORIENTED_EDGE ( 'NONE', *, *, #165, .F. ) ;
#329 = APPROVAL_STATUS ( 'not_yet_approved' ) ;
#330 = ORIENTED_EDGE ( 'NONE', *, *, #61, .F. ) ;
#331 = CIRCLE ( 'NONE', #183, 0.01180000000000008820 ) ;
#332 = APPROVAL ( #296, 'UNSPECIFIED' ) ;
#333 = APPROVAL_DATE_TIME ( #190, #19 ) ;
#334 = VERTEX_POINT ( 'NONE', #25 ) ;
#335 = ORIENTED_EDGE ( 'NONE', *, *, #198, .F. ) ;
#336 =( LENGTH_UNIT ( ) NAMED_UNIT ( * ) SI_UNIT ( $, .METRE. ) );
#337 = EDGE_CURVE ( 'NONE', #275, #191, #282, .T. ) ;
#338 = EDGE_LOOP ( 'NONE', ( #302, #256, #229, #158 ) ) ;
#339 =( NAMED_UNIT ( * ) PLANE_ANGLE_UNIT ( ) SI_UNIT ( $, .RADIAN. ) );
#340 = LINE ( 'NONE', #40, #101 ) ;
#341 = CARTESIAN_POINT ( 'NONE',  ( 4.830953986549140833E-31, -6.684218391797448829E-17, -0.01945000000000011650 ) ) ;
#342 = ORIENTED_EDGE ( 'NONE', *, *, #189, .F. ) ;
#343 = CARTESIAN_POINT ( 'NONE',  ( 8.384404281970923655E-17, 0.01179999999999751213, -0.7126000000000001222 ) ) ;
#344 = AXIS2_PLACEMENT_3D ( 'NONE', #11, #95, #68 ) ;
#345 = COORDINATED_UNIVERSAL_TIME_OFFSET ( 5, 0, .BEHIND. ) ;
#346 = EDGE_CURVE ( 'NONE', #277, #334, #331, .T. ) ;
#347 = DIRECTION ( 'NONE',  ( 6.776566513254236049E-15, 0.9537169507482258224, 0.3007057995042767273 ) ) ;
#348 = CARTESIAN_POINT ( 'NONE',  ( 2.012818629662221517E-29, -2.873761683887107844E-15, -0.8230794742912279638 ) ) ;
#349 = CARTESIAN_POINT ( 'NONE',  ( -8.239895959668052243E-17, -0.01180000000000248905, -0.7126000000000001222 ) ) ;
#350 = CC_DESIGN_PERSON_AND_ORGANIZATION_ASSIGNMENT ( #298, #8, ( #323 ) ) ;
#351 = CIRCLE ( 'NONE', #344, 0.01180000000000000493 ) ;
#352 = CONICAL_SURFACE ( 'NONE', #217, 0.01180000000000000493, 0.7853981633974450594 ) ;
#353 = CARTESIAN_POINT ( 'NONE',  ( 7.642090019328599159E-31, -1.091087918388489774E-16, -0.03125000000000019429 ) ) ;
#354 = ADVANCED_FACE ( 'NONE', ( #227 ), #192, .F. ) ;
#355 = FACE_OUTER_BOUND ( 'NONE', #246, .T. ) ;
#356 = LOCAL_TIME ( 9, 21, 43.00000000000000000, #345 ) ;
#357 = DIRECTION ( 'NONE',  ( 2.445468806185136597E-29, -3.491481338843145583E-15, -1.000000000000000000 ) ) ;
#358 = PRODUCT ( '68645', '68645', '', ( #270 ) ) ;
#359 = CYLINDRICAL_SURFACE ( 'NONE', #317, 0.01180000000000000146 ) ;
#360 = VERTEX_POINT ( 'NONE', #341 ) ;
#361 = CIRCLE ( 'NONE', #231, 0.01130000000000016408 ) ;
#362 = CALENDAR_DATE ( 2024, 23, 4 ) ;
#363 = ORIENTED_EDGE ( 'NONE', *, *, #103, .F. ) ;
#364 = APPROVAL_PERSON_ORGANIZATION ( #136, #332, #274 ) ;
ENDSEC;
END-ISO-10303-21;
