ISO-10303-21;
HEADER;
FILE_DESCRIPTION (( 'STEP AP203' ),
    '1' );
FILE_NAME ('68650.STEP',
    '2024-04-23T13:23:23',
    ( '' ),
    ( '' ),
    'SwSTEP 2.0',
    'SolidWorks 2023',
    '' );
FILE_SCHEMA (( 'CONFIG_CONTROL_DESIGN' ));
ENDSEC;

DATA;
#1 = DIRECTION ( 'NONE',  ( -6.982962677686266711E-15, -1.000000000000000000, 0.000000000000000000 ) ) ;
#2 = DATE_TIME_ROLE ( 'classification_date' ) ;
#3 = ORIENTED_EDGE ( 'NONE', *, *, #294, .T. ) ;
#4 = APPROVAL ( #92, 'UNSPECIFIED' ) ;
#5 = PERSON_AND_ORGANIZATION ( #229, #278 ) ;
#6 =( LENGTH_UNIT ( ) NAMED_UNIT ( * ) SI_UNIT ( $, .METRE. ) );
#7 = ORIENTED_EDGE ( 'NONE', *, *, #348, .F. ) ;
#8 = AXIS2_PLACEMENT_3D ( 'NONE', #235, #340, #321 ) ;
#9 = DIRECTION ( 'NONE',  ( 1.000000000000000000, -6.982962677686277755E-15, 0.000000000000000000 ) ) ;
#10 = COORDINATED_UNIVERSAL_TIME_OFFSET ( 5, 0, .BEHIND. ) ;
#11 = CARTESIAN_POINT ( 'NONE',  ( 2.310868280797240416E-29, -3.298897845328694689E-15, -0.9448999999999999622 ) ) ;
#12 = DIRECTION ( 'NONE',  ( -2.445468806185136597E-29, 3.491481338843145583E-15, 1.000000000000000000 ) ) ;
#13 = EDGE_CURVE ( 'NONE', #158, #252, #304, .T. ) ;
#14 = ORIENTED_EDGE ( 'NONE', *, *, #57, .T. ) ;
#15 = CARTESIAN_POINT ( 'NONE',  ( 7.642090019328601786E-31, -1.091087918388490144E-16, -0.03125000000000020123 ) ) ;
#16 = CONICAL_SURFACE ( 'NONE', #312, 0.01675000000000009814, 0.7853981633974440602 ) ;
#17 = CC_DESIGN_APPROVAL ( #78, ( #132 ) ) ;
#18 = DIRECTION ( 'NONE',  ( -2.445239612556588344E-29, 3.491809557164117932E-15, 1.000000000000000000 ) ) ;
#19 = DIRECTION ( 'NONE',  ( -2.445468806185136597E-29, 3.491481338843145583E-15, 1.000000000000000000 ) ) ;
#20 = APPLICATION_CONTEXT ( 'configuration controlled 3d designs of mechanical parts and assemblies' ) ;
#21 = ORIENTED_EDGE ( 'NONE', *, *, #196, .F. ) ;
#22 = CIRCLE ( 'NONE', #277, 0.01675000000000000100 ) ;
#23 = COORDINATED_UNIVERSAL_TIME_OFFSET ( 5, 0, .BEHIND. ) ;
#24 = ORIENTED_EDGE ( 'NONE', *, *, #344, .T. ) ;
#25 = VERTEX_POINT ( 'NONE', #358 ) ;
#26 = PERSON_AND_ORGANIZATION ( #229, #278 ) ;
#27 = ORIENTED_EDGE ( 'NONE', *, *, #45, .T. ) ;
#28 = CC_DESIGN_PERSON_AND_ORGANIZATION_ASSIGNMENT ( #5, #118, ( #132 ) ) ;
#29 = COORDINATED_UNIVERSAL_TIME_OFFSET ( 5, 0, .BEHIND. ) ;
#30 = APPROVAL_PERSON_ORGANIZATION ( #234, #119, #88 ) ;
#31 = EDGE_LOOP ( 'NONE', ( #152, #14, #236, #187 ) ) ;
#32 = CARTESIAN_POINT ( 'NONE',  ( 1.911133872033684367E-29, -2.728592666305918152E-15, -0.7814999999999999725 ) ) ;
#33 = ORIENTED_EDGE ( 'NONE', *, *, #104, .F. ) ;
#34 = DIRECTION ( 'NONE',  ( 0.7071067811865452413, -7.319954787623248157E-15, -0.7071067811865497932 ) ) ;
#35 = DIRECTION ( 'NONE',  ( 0.7071067811865444641, -2.468850131082225112E-15, 0.7071067811865504593 ) ) ;
#36 = CIRCLE ( 'NONE', #87, 0.01675000000000000447 ) ;
#37 = ORIENTED_EDGE ( 'NONE', *, *, #280, .F. ) ;
#38 = PERSON_AND_ORGANIZATION_ROLE ( 'classification_officer' ) ;
#39 = VERTEX_POINT ( 'NONE', #85 ) ;
#40 = ADVANCED_FACE ( 'NONE', ( #203 ), #148, .T. ) ;
#41 = DIRECTION ( 'NONE',  ( -2.445239612556588064E-29, 3.491809557164117932E-15, 1.000000000000000000 ) ) ;
#42 =( CONVERSION_BASED_UNIT ( 'INCH', #315 ) LENGTH_UNIT ( ) NAMED_UNIT ( #197 ) );
#43 = AXIS2_PLACEMENT_3D ( 'NONE', #247, #350, #100 ) ;
#44 = CARTESIAN_POINT ( 'NONE',  ( 1.909911137630591565E-29, -2.726846925636496648E-15, -0.7809999999999999165 ) ) ;
#45 = EDGE_CURVE ( 'NONE', #210, #25, #311, .T. ) ;
#46 = DIRECTION ( 'NONE',  ( 2.445468806185136597E-29, -3.491481338843145583E-15, -1.000000000000000000 ) ) ;
#47 = DIRECTION ( 'NONE',  ( 1.000000000000000000, -6.982962677686277755E-15, 0.000000000000000000 ) ) ;
#48 = FACE_OUTER_BOUND ( 'NONE', #313, .T. ) ;
#49 = DIRECTION ( 'NONE',  ( -2.445239612556588344E-29, 3.491809557164117932E-15, 1.000000000000000000 ) ) ;
#50 = FACE_OUTER_BOUND ( 'NONE', #362, .T. ) ;
#51 = CYLINDRICAL_SURFACE ( 'NONE', #77, 0.01675000000000004957 ) ;
#52 = LOCAL_TIME ( 9, 23, 23.00000000000000000, #239 ) ;
#53 = APPROVAL_STATUS ( 'not_yet_approved' ) ;
#54 = EDGE_CURVE ( 'NONE', #67, #224, #115, .T. ) ;
#55 = EDGE_LOOP ( 'NONE', ( #309, #204 ) ) ;
#56 = AXIS2_PLACEMENT_3D ( 'NONE', #113, #262, #147 ) ;
#57 = EDGE_CURVE ( 'NONE', #91, #39, #241, .T. ) ;
#58 = LOCAL_TIME ( 9, 23, 23.00000000000000000, #23 ) ;
#59 = ORIENTED_EDGE ( 'NONE', *, *, #104, .T. ) ;
#60 = DIRECTION ( 'NONE',  ( -2.445239612556588344E-29, 3.491809557164117932E-15, 1.000000000000000000 ) ) ;
#61 = ORIENTED_EDGE ( 'NONE', *, *, #157, .F. ) ;
#62 = LINE ( 'NONE', #178, #205 ) ;
#63 = PERSON_AND_ORGANIZATION_ROLE ( 'creator' ) ;
#64 = CC_DESIGN_SECURITY_CLASSIFICATION ( #227, ( #132 ) ) ;
#65 = CARTESIAN_POINT ( 'NONE',  ( -1.169646248512258494E-16, -0.01675000000000272798, -0.7814999999999999725 ) ) ;
#66 = CARTESIAN_POINT ( 'NONE',  ( 2.297772091495434618E-29, -3.280713212263339983E-15, -0.9396187452862772016 ) ) ;
#67 = VERTEX_POINT ( 'NONE', #130 ) ;
#68 = DIRECTION ( 'NONE',  ( -6.982962677686266711E-15, -1.000000000000000000, 3.500519750498549815E-15 ) ) ;
#69 = EDGE_CURVE ( 'NONE', #290, #136, #36, .T. ) ;
#70 = CC_DESIGN_APPROVAL ( #4, ( #227 ) ) ;
#71 = DIRECTION ( 'NONE',  ( -0.7071067811865444641, 7.493145998870343116E-15, 0.7071067811865504593 ) ) ;
#72 = PLANE ( 'NONE',  #43 ) ;
#73 = APPROVAL_DATE_TIME ( #326, #78 ) ;
#74 = DIRECTION ( 'NONE',  ( -6.982962677686266711E-15, -1.000000000000000000, 0.000000000000000000 ) ) ;
#75 = CARTESIAN_POINT ( 'NONE',  ( 1.909911137630591565E-29, -2.726846925636496648E-15, -0.7809999999999999165 ) ) ;
#76 = AXIS2_PLACEMENT_3D ( 'NONE', #285, #106, #336 ) ;
#77 = AXIS2_PLACEMENT_3D ( 'NONE', #167, #330, #129 ) ;
#78 = APPROVAL ( #223, 'UNSPECIFIED' ) ;
#79 = ORIENTED_EDGE ( 'NONE', *, *, #364, .T. ) ;
#80 = APPLICATION_PROTOCOL_DEFINITION ( 'international standard', 'config_control_design', 1994, #20 ) ;
#81 = EDGE_CURVE ( 'NONE', #252, #158, #260, .T. ) ;
#82 = VECTOR ( 'NONE', #71, 39.37007874015748854 ) ;
#83 = ORIENTED_EDGE ( 'NONE', *, *, #57, .F. ) ;
#84 = ADVANCED_FACE ( 'NONE', ( #194 ), #51, .T. ) ;
#85 = CARTESIAN_POINT ( 'NONE',  ( 0.01625000000000006647, -2.842065809818320617E-15, -0.7814999999999999725 ) ) ;
#86 = DIRECTION ( 'NONE',  ( 1.000000000000000000, -6.982962677686267499E-15, 4.876176775795935793E-29 ) ) ;
#87 = AXIS2_PLACEMENT_3D ( 'NONE', #219, #328, #245 ) ;
#88 = APPROVAL_ROLE ( '' ) ;
#89 = CC_DESIGN_PERSON_AND_ORGANIZATION_ASSIGNMENT ( #310, #361, ( #142 ) ) ;
#90 = CALENDAR_DATE ( 2024, 23, 4 ) ;
#91 = VERTEX_POINT ( 'NONE', #300 ) ;
#92 = APPROVAL_STATUS ( 'not_yet_approved' ) ;
#93 = LOCAL_TIME ( 9, 23, 23.00000000000000000, #319 ) ;
#94 = ORIENTED_EDGE ( 'NONE', *, *, #170, .T. ) ;
#95 = DIRECTION ( 'NONE',  ( -2.445239612556588344E-29, 3.491809557164117932E-15, 1.000000000000000000 ) ) ;
#96 = ORIENTED_EDGE ( 'NONE', *, *, #157, .T. ) ;
#97 = CARTESIAN_POINT ( 'NONE',  ( 1.190159082398397885E-16, 0.01674999999999727401, -0.7814999999999999725 ) ) ;
#98 = CARTESIAN_POINT ( 'NONE',  ( 1.909911137630591565E-29, -2.726846925636496648E-15, -0.7809999999999999165 ) ) ;
#99 = CARTESIAN_POINT ( 'NONE',  ( 1.911133872033684367E-29, -2.728592666305918152E-15, -0.7814999999999999725 ) ) ;
#100 = DIRECTION ( 'NONE',  ( 1.000000000000000000, -6.982962677686265922E-15, 4.876176775795935793E-29 ) ) ;
#101 = DIRECTION ( 'NONE',  ( 1.000000000000000000, -6.982962677686258822E-15, 0.000000000000000000 ) ) ;
#102 = VECTOR ( 'NONE', #192, 39.37007874015748143 ) ;
#103 = ORIENTED_EDGE ( 'NONE', *, *, #364, .F. ) ;
#104 = EDGE_CURVE ( 'NONE', #268, #210, #347, .T. ) ;
#105 = PERSON_AND_ORGANIZATION ( #229, #278 ) ;
#106 = DIRECTION ( 'NONE',  ( -2.445239612556588344E-29, 3.491809557164117932E-15, 1.000000000000000000 ) ) ;
#107 = AXIS2_PLACEMENT_3D ( 'NONE', #44, #12, #244 ) ;
#108 = ORIENTED_EDGE ( 'NONE', *, *, #250, .T. ) ;
#109 = MANIFOLD_SOLID_BREP ( 'Body-Move/Copy2[2]', #172 ) ;
#110 = DIRECTION ( 'NONE',  ( -1.000000000000000000, 6.982962677686266711E-15, 0.000000000000000000 ) ) ;
#111 = APPLICATION_PROTOCOL_DEFINITION ( 'international standard', 'config_control_design', 1994, #274 ) ;
#112 = ORIENTED_EDGE ( 'NONE', *, *, #81, .F. ) ;
#113 = CARTESIAN_POINT ( 'NONE',  ( 1.911133872033684367E-29, -2.728592666305918152E-15, -0.7814999999999999725 ) ) ;
#114 = PERSON_AND_ORGANIZATION ( #229, #278 ) ;
#115 = CIRCLE ( 'NONE', #146, 0.01675000000000009814 ) ;
#116 = DIRECTION ( 'NONE',  ( -2.445468806185136877E-29, 3.491481338843145188E-15, 1.000000000000000000 ) ) ;
#117 = CARTESIAN_POINT ( 'NONE',  ( 7.642090019328601786E-31, -1.091087918388490144E-16, -0.03125000000000020123 ) ) ;
#118 = PERSON_AND_ORGANIZATION_ROLE ( 'design_supplier' ) ;
#119 = APPROVAL ( #53, 'UNSPECIFIED' ) ;
#120 = ADVANCED_FACE ( 'NONE', ( #165 ), #246, .T. ) ;
#121 = DIRECTION ( 'NONE',  ( 6.982962677686265922E-15, 1.000000000000000000, -3.491809557164117932E-15 ) ) ;
#122 = SHAPE_DEFINITION_REPRESENTATION ( #270, #182 ) ;
#123 = MANIFOLD_SOLID_BREP ( 'Body-Move/Copy2[1]', #198 ) ;
#124 =( NAMED_UNIT ( * ) SI_UNIT ( $, .STERADIAN. ) SOLID_ANGLE_UNIT ( ) );
#125 = AXIS2_PLACEMENT_3D ( 'NONE', #206, #60, #74 ) ;
#126 = EDGE_CURVE ( 'NONE', #224, #290, #303, .T. ) ;
#127 = LINE ( 'NONE', #242, #173 ) ;
#128 = CARTESIAN_POINT ( 'NONE',  ( 0.01675000000000004957, -1.169646248512453244E-16, 8.167596099458216766E-31 ) ) ;
#129 = DIRECTION ( 'NONE',  ( 1.000000000000000000, -6.982962677686267499E-15, 4.876176775795935793E-29 ) ) ;
#130 = CARTESIAN_POINT ( 'NONE',  ( -0.01675000000000009814, -2.607831017396678775E-15, -0.7809999999999999165 ) ) ;
#131 = AXIS2_PLACEMENT_3D ( 'NONE', #117, #238, #110 ) ;
#132 = PRODUCT_DEFINITION_FORMATION_WITH_SPECIFIED_SOURCE ( 'ANY', '', #142, .NOT_KNOWN. ) ;
#133 = EDGE_LOOP ( 'NONE', ( #96, #355, #334, #231 ) ) ;
#134 = DIRECTION ( 'NONE',  ( -1.000000000000000000, 6.982962677686266711E-15, 0.000000000000000000 ) ) ;
#135 = DIRECTION ( 'NONE',  ( -6.982962677686266711E-15, -1.000000000000000000, 0.000000000000000000 ) ) ;
#136 = VERTEX_POINT ( 'NONE', #248 ) ;
#137 = VECTOR ( 'NONE', #35, 39.37007874015748854 ) ;
#138 = ADVANCED_FACE ( 'NONE', ( #189 ), #320, .T. ) ;
#139 = PERSON_AND_ORGANIZATION_ROLE ( 'creator' ) ;
#140 = ORIENTED_EDGE ( 'NONE', *, *, #126, .T. ) ;
#141 = DIRECTION ( 'NONE',  ( -0.7071067811865452413, 2.468850131082233000E-15, -0.7071067811865497932 ) ) ;
#142 = PRODUCT ( '68650', '68650', '', ( #281 ) ) ;
#143 = DATE_AND_TIME ( #174, #58 ) ;
#144 = ORIENTED_EDGE ( 'NONE', *, *, #250, .F. ) ;
#145 = CARTESIAN_POINT ( 'NONE',  ( 0.01675000000000000447, -2.260734166900939813E-16, -0.03125000000000020123 ) ) ;
#146 = AXIS2_PLACEMENT_3D ( 'NONE', #325, #301, #47 ) ;
#147 = DIRECTION ( 'NONE',  ( 1.000000000000000000, -6.982962677686258822E-15, 0.000000000000000000 ) ) ;
#148 = CYLINDRICAL_SURFACE ( 'NONE', #357, 0.01675000000000004957 ) ;
#149 = EDGE_LOOP ( 'NONE', ( #79, #3, #112, #144 ) ) ;
#150 = DIRECTION ( 'NONE',  ( -2.445239612556588064E-29, 3.491809557164117932E-15, 1.000000000000000000 ) ) ;
#151 = APPROVAL_ROLE ( '' ) ;
#152 = ORIENTED_EDGE ( 'NONE', *, *, #170, .F. ) ;
#153 = FACE_OUTER_BOUND ( 'NONE', #149, .T. ) ;
#154 = ADVANCED_FACE ( 'NONE', ( #48 ), #220, .T. ) ;
#155 = AXIS2_PLACEMENT_3D ( 'NONE', #99, #49, #135 ) ;
#156 = DATE_AND_TIME ( #292, #52 ) ;
#157 = EDGE_CURVE ( 'NONE', #224, #67, #195, .T. ) ;
#158 = VERTEX_POINT ( 'NONE', #97 ) ;
#159 = CARTESIAN_POINT ( 'NONE',  ( -9.395859006017962924E-28, 1.341736628632392122E-13, 38.42517874015748447 ) ) ;
#160 = AXIS2_PLACEMENT_3D ( 'NONE', #166, #18, #351 ) ;
#161 = LOCAL_TIME ( 9, 23, 23.00000000000000000, #10 ) ;
#162 = LINE ( 'NONE', #323, #82 ) ;
#163 = CARTESIAN_POINT ( 'NONE',  ( 1.911133872033684367E-29, -2.728592666305918152E-15, -0.7814999999999999725 ) ) ;
#164 = CC_DESIGN_DATE_AND_TIME_ASSIGNMENT ( #253, #356, ( #324 ) ) ;
#165 = FACE_OUTER_BOUND ( 'NONE', #31, .T. ) ;
#166 = CARTESIAN_POINT ( 'NONE',  ( -9.395859006017962924E-28, 1.341736628632392122E-13, 38.42517874015748447 ) ) ;
#167 = CARTESIAN_POINT ( 'NONE',  ( 0.000000000000000000, 0.000000000000000000, 0.000000000000000000 ) ) ;
#168 = EDGE_LOOP ( 'NONE', ( #279, #83 ) ) ;
#169 = CARTESIAN_POINT ( 'NONE',  ( 3.545929768968470045E-31, -5.062647941322592694E-17, -0.01450000000000009094 ) ) ;
#170 = EDGE_CURVE ( 'NONE', #91, #67, #162, .T. ) ;
#171 = APPROVAL_DATE_TIME ( #143, #119 ) ;
#172 = CLOSED_SHELL ( 'NONE', ( #331, #84, #233, #215, #120, #40, #138 ) ) ;
#173 = VECTOR ( 'NONE', #141, 39.37007874015748143 ) ;
#174 = CALENDAR_DATE ( 2024, 23, 4 ) ;
#175 = DIRECTION ( 'NONE',  ( 0.000000000000000000, 0.000000000000000000, 1.000000000000000000 ) ) ;
#176 = ORIENTED_EDGE ( 'NONE', *, *, #298, .F. ) ;
#177 = CARTESIAN_POINT ( 'NONE',  ( 0.01675000000000009814, -2.843811550487742121E-15, -0.7809999999999999165 ) ) ;
#178 = CARTESIAN_POINT ( 'NONE',  ( 1.190159082398358688E-16, 0.01674999999999727401, -0.7814999999999999725 ) ) ;
#179 = VECTOR ( 'NONE', #34, 39.37007874015748143 ) ;
#180 = CARTESIAN_POINT ( 'NONE',  ( 0.000000000000000000, 0.000000000000000000, 0.000000000000000000 ) ) ;
#181 = LINE ( 'NONE', #287, #179 ) ;
#182 = ADVANCED_BREP_SHAPE_REPRESENTATION ( '68650', ( #123, #109, #295 ), #305 ) ;
#183 = EDGE_LOOP ( 'NONE', ( #7, #202, #140, #176 ) ) ;
#184 = CARTESIAN_POINT ( 'NONE',  ( 7.642090019328601786E-31, -1.091087918388490144E-16, -0.03125000000000020123 ) ) ;
#185 = SECURITY_CLASSIFICATION_LEVEL ( 'unclassified' ) ;
#186 = VECTOR ( 'NONE', #271, 39.37007874015748143 ) ;
#187 = ORIENTED_EDGE ( 'NONE', *, *, #54, .F. ) ;
#188 = APPROVAL_ROLE ( '' ) ;
#189 = FACE_OUTER_BOUND ( 'NONE', #276, .T. ) ;
#190 = EDGE_LOOP ( 'NONE', ( #261, #27, #108, #299 ) ) ;
#191 = LINE ( 'NONE', #349, #283 ) ;
#192 = DIRECTION ( 'NONE',  ( 6.776566513254284170E-15, 0.9537169507482324837, 0.3007057995042551335 ) ) ;
#193 = DIRECTION ( 'NONE',  ( -2.445468806185136597E-29, 3.491481338843145583E-15, 1.000000000000000000 ) ) ;
#194 = FACE_OUTER_BOUND ( 'NONE', #133, .T. ) ;
#195 = CIRCLE ( 'NONE', #107, 0.01675000000000009814 ) ;
#196 = EDGE_CURVE ( 'NONE', #268, #25, #191, .T. ) ;
#197 = DIMENSIONAL_EXPONENTS ( 1.000000000000000000, 0.000000000000000000, 0.000000000000000000, 0.000000000000000000, 0.000000000000000000, 0.000000000000000000, 0.000000000000000000 ) ;
#198 = CLOSED_SHELL ( 'NONE', ( #307, #243, #154, #352, #339 ) ) ;
#199 = AXIS2_PLACEMENT_3D ( 'NONE', #32, #259, #1 ) ;
#200 = APPROVAL_PERSON_ORGANIZATION ( #342, #4, #188 ) ;
#201 = EDGE_LOOP ( 'NONE', ( #230, #94, #61, #37 ) ) ;
#202 = ORIENTED_EDGE ( 'NONE', *, *, #54, .T. ) ;
#203 = FACE_OUTER_BOUND ( 'NONE', #183, .T. ) ;
#204 = ORIENTED_EDGE ( 'NONE', *, *, #13, .T. ) ;
#205 = VECTOR ( 'NONE', #150, 39.37007874015748143 ) ;
#206 = CARTESIAN_POINT ( 'NONE',  ( 2.297772091495434618E-29, -3.280713212263339983E-15, -0.9396187452862772016 ) ) ;
#207 = DIRECTION ( 'NONE',  ( -2.445239612556588344E-29, 3.491809557164117932E-15, 1.000000000000000000 ) ) ;
#208 = PERSON_AND_ORGANIZATION ( #229, #278 ) ;
#209 = VECTOR ( 'NONE', #116, 39.37007874015748143 ) ;
#210 = VERTEX_POINT ( 'NONE', #322 ) ;
#211 = CC_DESIGN_PERSON_AND_ORGANIZATION_ASSIGNMENT ( #114, #38, ( #227 ) ) ;
#212 = LINE ( 'NONE', #65, #293 ) ;
#213 = ORIENTED_EDGE ( 'NONE', *, *, #69, .T. ) ;
#214 = AXIS2_PLACEMENT_3D ( 'NONE', #163, #19, #101 ) ;
#215 = ADVANCED_FACE ( 'NONE', ( #273 ), #72, .F. ) ;
#216 = ORIENTED_EDGE ( 'NONE', *, *, #45, .F. ) ;
#217 = CC_DESIGN_APPROVAL ( #119, ( #324 ) ) ;
#218 = DIRECTION ( 'NONE',  ( -6.659769872151658910E-15, -0.9537169507482304853, 0.3007057995042617948 ) ) ;
#219 = CARTESIAN_POINT ( 'NONE',  ( 7.642090019328601786E-31, -1.091087918388490144E-16, -0.03125000000000020123 ) ) ;
#220 = CONICAL_SURFACE ( 'NONE', #308, 124.8659371009205756, 1.265363707695904338 ) ;
#221 = CARTESIAN_POINT ( 'NONE',  ( 2.310506909904720320E-29, -3.299410850564374707E-15, -0.9448999999999999622 ) ) ;
#222 = EDGE_LOOP ( 'NONE', ( #318, #24, #213 ) ) ;
#223 = APPROVAL_STATUS ( 'not_yet_approved' ) ;
#224 = VERTEX_POINT ( 'NONE', #346 ) ;
#225 = CIRCLE ( 'NONE', #337, 0.01675000000000000447 ) ;
#226 = LINE ( 'NONE', #177, #137 ) ;
#227 = SECURITY_CLASSIFICATION ( '', '', #185 ) ;
#228 = DIRECTION ( 'NONE',  ( 1.000000000000000000, -6.982962677686265922E-15, 0.000000000000000000 ) ) ;
#229 = PERSON ( 'UNSPECIFIED', 'UNSPECIFIED', 'UNSPECIFIED', ('UNSPECIFIED'), ('UNSPECIFIED'), ('UNSPECIFIED') ) ;
#230 = ORIENTED_EDGE ( 'NONE', *, *, #316, .T. ) ;
#231 = ORIENTED_EDGE ( 'NONE', *, *, #126, .F. ) ;
#232 = PLANE ( 'NONE',  #343 ) ;
#233 = ADVANCED_FACE ( 'NONE', ( #327 ), #16, .T. ) ;
#234 = PERSON_AND_ORGANIZATION ( #229, #278 ) ;
#235 = CARTESIAN_POINT ( 'NONE',  ( 1.911133872033684367E-29, -2.728592666305918152E-15, -0.7814999999999999725 ) ) ;
#236 = ORIENTED_EDGE ( 'NONE', *, *, #280, .T. ) ;
#237 = CIRCLE ( 'NONE', #56, 0.01625000000000006647 ) ;
#238 = DIRECTION ( 'NONE',  ( 2.445468806185136597E-29, -3.491481338843145583E-15, -1.000000000000000000 ) ) ;
#239 = COORDINATED_UNIVERSAL_TIME_OFFSET ( 5, 0, .BEHIND. ) ;
#240 = ORIENTED_EDGE ( 'NONE', *, *, #298, .T. ) ;
#241 = CIRCLE ( 'NONE', #214, 0.01625000000000006647 ) ;
#242 = CARTESIAN_POINT ( 'NONE',  ( -0.01675000000000000447, 7.855833012395986443E-18, -0.03125000000000020123 ) ) ;
#243 = ADVANCED_FACE ( 'NONE', ( #50 ), #329, .T. ) ;
#244 = DIRECTION ( 'NONE',  ( 1.000000000000000000, -6.982962677686277755E-15, 0.000000000000000000 ) ) ;
#245 = DIRECTION ( 'NONE',  ( 1.000000000000000000, -6.982962677686265922E-15, 0.000000000000000000 ) ) ;
#246 = CONICAL_SURFACE ( 'NONE', #353, 0.01675000000000009814, 0.7853981633974440602 ) ;
#247 = CARTESIAN_POINT ( 'NONE',  ( 1.911133872033684367E-29, -2.728592666305918152E-15, -0.7814999999999999725 ) ) ;
#248 = CARTESIAN_POINT ( 'NONE',  ( -0.01675000000000000447, -1.298961950497854016E-15, -0.03125000000000020123 ) ) ;
#249 = ORIENTED_EDGE ( 'NONE', *, *, #344, .F. ) ;
#250 = EDGE_CURVE ( 'NONE', #25, #252, #212, .T. ) ;
#251 = CALENDAR_DATE ( 2024, 23, 4 ) ;
#252 = VERTEX_POINT ( 'NONE', #266 ) ;
#253 = DATE_AND_TIME ( #251, #267 ) ;
#254 = CONICAL_SURFACE ( 'NONE', #131, 0.01675000000000000447, 0.7853981633974450594 ) ;
#255 = ORIENTED_EDGE ( 'NONE', *, *, #196, .T. ) ;
#256 = EDGE_CURVE ( 'NONE', #257, #136, #127, .T. ) ;
#257 = VERTEX_POINT ( 'NONE', #169 ) ;
#258 = DIRECTION ( 'NONE',  ( -6.982962677686266711E-15, -1.000000000000000000, 0.000000000000000000 ) ) ;
#259 = DIRECTION ( 'NONE',  ( -2.445239612556588344E-29, 3.491809557164117932E-15, 1.000000000000000000 ) ) ;
#260 = CIRCLE ( 'NONE', #155, 0.01675000000000000100 ) ;
#261 = ORIENTED_EDGE ( 'NONE', *, *, #294, .F. ) ;
#262 = DIRECTION ( 'NONE',  ( -2.445468806185136597E-29, 3.491481338843145583E-15, 1.000000000000000000 ) ) ;
#263 =( NAMED_UNIT ( * ) PLANE_ANGLE_UNIT ( ) SI_UNIT ( $, .RADIAN. ) );
#264 = DATE_AND_TIME ( #296, #93 ) ;
#265 = APPROVAL_DATE_TIME ( #264, #4 ) ;
#266 = CARTESIAN_POINT ( 'NONE',  ( -1.169646248512258494E-16, -0.01675000000000272798, -0.7814999999999999725 ) ) ;
#267 = LOCAL_TIME ( 9, 23, 23.00000000000000000, #29 ) ;
#268 = VERTEX_POINT ( 'NONE', #221 ) ;
#269 = DIRECTION ( 'NONE',  ( 1.000000000000000000, -6.982962677686277755E-15, 0.000000000000000000 ) ) ;
#270 = PRODUCT_DEFINITION_SHAPE ( 'NONE', 'NONE',  #324 ) ;
#271 = DIRECTION ( 'NONE',  ( -2.445468806185136877E-29, 3.491481338843145188E-15, 1.000000000000000000 ) ) ;
#272 = CC_DESIGN_DATE_AND_TIME_ASSIGNMENT ( #156, #2, ( #227 ) ) ;
#273 = FACE_OUTER_BOUND ( 'NONE', #168, .T. ) ;
#274 = APPLICATION_CONTEXT ( 'configuration controlled 3d designs of mechanical parts and assemblies' ) ;
#275 = CC_DESIGN_PERSON_AND_ORGANIZATION_ASSIGNMENT ( #208, #63, ( #132 ) ) ;
#276 = EDGE_LOOP ( 'NONE', ( #249, #306, #240 ) ) ;
#277 = AXIS2_PLACEMENT_3D ( 'NONE', #66, #207, #258 ) ;
#278 = ORGANIZATION ( 'UNSPECIFIED', 'UNSPECIFIED', '' ) ;
#279 = ORIENTED_EDGE ( 'NONE', *, *, #316, .F. ) ;
#280 = EDGE_CURVE ( 'NONE', #39, #224, #226, .T. ) ;
#281 = MECHANICAL_CONTEXT ( 'NONE', #20, 'mechanical' ) ;
#282 = CARTESIAN_POINT ( 'NONE',  ( 0.000000000000000000, 0.000000000000000000, 0.000000000000000000 ) ) ;
#283 = VECTOR ( 'NONE', #218, 39.37007874015748143 ) ;
#284 = DIRECTION ( 'NONE',  ( -2.445468806185136597E-29, 3.491481338843145583E-15, 1.000000000000000000 ) ) ;
#285 = CARTESIAN_POINT ( 'NONE',  ( 1.911133872033684367E-29, -2.728592666305918152E-15, -0.7814999999999999725 ) ) ;
#286 = CC_DESIGN_PERSON_AND_ORGANIZATION_ASSIGNMENT ( #26, #139, ( #324 ) ) ;
#287 = CARTESIAN_POINT ( 'NONE',  ( 0.01675000000000000447, -2.240221333015222216E-16, -0.03125000000000020123 ) ) ;
#288 = CYLINDRICAL_SURFACE ( 'NONE', #8, 0.01675000000000000100 ) ;
#289 = UNCERTAINTY_MEASURE_WITH_UNIT (LENGTH_MEASURE( 1.000000000000000082E-05 ), #42, 'distance_accuracy_value', 'NONE');
#290 = VERTEX_POINT ( 'NONE', #145 ) ;
#291 = CYLINDRICAL_SURFACE ( 'NONE', #199, 0.01675000000000000100 ) ;
#292 = CALENDAR_DATE ( 2024, 23, 4 ) ;
#293 = VECTOR ( 'NONE', #41, 39.37007874015748143 ) ;
#294 = EDGE_CURVE ( 'NONE', #210, #158, #62, .T. ) ;
#295 = AXIS2_PLACEMENT_3D ( 'NONE', #282, #175, #332 ) ;
#296 = CALENDAR_DATE ( 2024, 23, 4 ) ;
#297 = DESIGN_CONTEXT ( 'detailed design', #274, 'design' ) ;
#298 = EDGE_CURVE ( 'NONE', #136, #290, #225, .T. ) ;
#299 = ORIENTED_EDGE ( 'NONE', *, *, #13, .F. ) ;
#300 = CARTESIAN_POINT ( 'NONE',  ( -0.01625000000000006647, -2.610480244570789976E-15, -0.7814999999999999725 ) ) ;
#301 = DIRECTION ( 'NONE',  ( -2.445468806185136597E-29, 3.491481338843145583E-15, 1.000000000000000000 ) ) ;
#302 = DIRECTION ( 'NONE',  ( -2.445468806185136597E-29, 3.491481338843145583E-15, 1.000000000000000000 ) ) ;
#303 = LINE ( 'NONE', #128, #186 ) ;
#304 = CIRCLE ( 'NONE', #76, 0.01675000000000000100 ) ;
#305 =( GEOMETRIC_REPRESENTATION_CONTEXT ( 3 ) GLOBAL_UNCERTAINTY_ASSIGNED_CONTEXT ( ( #289 ) ) GLOBAL_UNIT_ASSIGNED_CONTEXT ( ( #42, #263, #124 ) ) REPRESENTATION_CONTEXT ( 'NONE', 'WORKASPACE' ) );
#306 = ORIENTED_EDGE ( 'NONE', *, *, #256, .T. ) ;
#307 = ADVANCED_FACE ( 'NONE', ( #153 ), #291, .T. ) ;
#308 = AXIS2_PLACEMENT_3D ( 'NONE', #159, #95, #68 ) ;
#309 = ORIENTED_EDGE ( 'NONE', *, *, #81, .T. ) ;
#310 = PERSON_AND_ORGANIZATION ( #229, #278 ) ;
#311 = CIRCLE ( 'NONE', #125, 0.01675000000000000100 ) ;
#312 = AXIS2_PLACEMENT_3D ( 'NONE', #75, #193, #9 ) ;
#313 = EDGE_LOOP ( 'NONE', ( #33, #255, #216 ) ) ;
#314 = FACE_OUTER_BOUND ( 'NONE', #190, .T. ) ;
#315 = LENGTH_MEASURE_WITH_UNIT ( LENGTH_MEASURE( 0.02539999999999999897 ), #6 );
#316 = EDGE_CURVE ( 'NONE', #39, #91, #237, .T. ) ;
#317 = CARTESIAN_POINT ( 'NONE',  ( -0.01675000000000004957, 1.190159082398171334E-16, -8.239216276176991959E-31 ) ) ;
#318 = ORIENTED_EDGE ( 'NONE', *, *, #256, .F. ) ;
#319 = COORDINATED_UNIVERSAL_TIME_OFFSET ( 5, 0, .BEHIND. ) ;
#320 = CONICAL_SURFACE ( 'NONE', #333, 0.01675000000000000447, 0.7853981633974450594 ) ;
#321 = DIRECTION ( 'NONE',  ( -6.982962677686266711E-15, -1.000000000000000000, 0.000000000000000000 ) ) ;
#322 = CARTESIAN_POINT ( 'NONE',  ( 1.190159082398397145E-16, 0.01674999999999671196, -0.9396187452862772016 ) ) ;
#323 = CARTESIAN_POINT ( 'NONE',  ( -0.01675000000000009814, -2.607831017396678775E-15, -0.7809999999999999165 ) ) ;
#324 = PRODUCT_DEFINITION ( 'UNKNOWN', '', #132, #297 ) ;
#325 = CARTESIAN_POINT ( 'NONE',  ( 1.909911137630591565E-29, -2.726846925636496648E-15, -0.7809999999999999165 ) ) ;
#326 = DATE_AND_TIME ( #90, #161 ) ;
#327 = FACE_OUTER_BOUND ( 'NONE', #201, .T. ) ;
#328 = DIRECTION ( 'NONE',  ( -2.445468806185136597E-29, 3.491481338843145583E-15, 1.000000000000000000 ) ) ;
#329 = CONICAL_SURFACE ( 'NONE', #160, 124.8659371009205756, 1.265363707695904338 ) ;
#330 = DIRECTION ( 'NONE',  ( -2.445468806185136597E-29, 3.491481338843145583E-15, 1.000000000000000000 ) ) ;
#331 = ADVANCED_FACE ( 'NONE', ( #359 ), #254, .T. ) ;
#332 = DIRECTION ( 'NONE',  ( 1.000000000000000000, 0.000000000000000000, 0.000000000000000000 ) ) ;
#333 = AXIS2_PLACEMENT_3D ( 'NONE', #15, #46, #134 ) ;
#334 = ORIENTED_EDGE ( 'NONE', *, *, #69, .F. ) ;
#335 = CARTESIAN_POINT ( 'NONE',  ( 1.911133872033684367E-29, -2.728592666305918152E-15, -0.7814999999999999725 ) ) ;
#336 = DIRECTION ( 'NONE',  ( -6.982962677686266711E-15, -1.000000000000000000, 0.000000000000000000 ) ) ;
#337 = AXIS2_PLACEMENT_3D ( 'NONE', #184, #284, #228 ) ;
#338 = FACE_OUTER_BOUND ( 'NONE', #55, .T. ) ;
#339 = ADVANCED_FACE ( 'NONE', ( #338 ), #232, .F. ) ;
#340 = DIRECTION ( 'NONE',  ( -2.445239612556588344E-29, 3.491809557164117932E-15, 1.000000000000000000 ) ) ;
#341 = DIRECTION ( 'NONE',  ( 2.445239612556588064E-29, -3.491809557164117932E-15, -1.000000000000000000 ) ) ;
#342 = PERSON_AND_ORGANIZATION ( #229, #278 ) ;
#343 = AXIS2_PLACEMENT_3D ( 'NONE', #335, #341, #121 ) ;
#344 = EDGE_CURVE ( 'NONE', #257, #290, #181, .T. ) ;
#345 = PRODUCT_RELATED_PRODUCT_CATEGORY ( 'detail', '', ( #142 ) ) ;
#346 = CARTESIAN_POINT ( 'NONE',  ( 0.01675000000000009814, -2.843811550487742121E-15, -0.7809999999999999165 ) ) ;
#347 = LINE ( 'NONE', #11, #102 ) ;
#348 = EDGE_CURVE ( 'NONE', #67, #136, #363, .T. ) ;
#349 = CARTESIAN_POINT ( 'NONE',  ( 2.310506909904720320E-29, -3.299410850564374707E-15, -0.9448999999999999622 ) ) ;
#350 = DIRECTION ( 'NONE',  ( -2.438088387897960049E-29, 3.491481338843145188E-15, 1.000000000000000000 ) ) ;
#351 = DIRECTION ( 'NONE',  ( -6.982962677686266711E-15, -1.000000000000000000, 3.500519750498549815E-15 ) ) ;
#352 = ADVANCED_FACE ( 'NONE', ( #314 ), #288, .T. ) ;
#353 = AXIS2_PLACEMENT_3D ( 'NONE', #98, #302, #269 ) ;
#354 = APPROVAL_PERSON_ORGANIZATION ( #105, #78, #151 ) ;
#355 = ORIENTED_EDGE ( 'NONE', *, *, #348, .T. ) ;
#356 = DATE_TIME_ROLE ( 'creation_date' ) ;
#357 = AXIS2_PLACEMENT_3D ( 'NONE', #180, #360, #86 ) ;
#358 = CARTESIAN_POINT ( 'NONE',  ( -1.169646248512219544E-16, -0.01675000000000327616, -0.9396187452862772016 ) ) ;
#359 = FACE_OUTER_BOUND ( 'NONE', #222, .T. ) ;
#360 = DIRECTION ( 'NONE',  ( -2.445468806185136597E-29, 3.491481338843145583E-15, 1.000000000000000000 ) ) ;
#361 = PERSON_AND_ORGANIZATION_ROLE ( 'design_owner' ) ;
#362 = EDGE_LOOP ( 'NONE', ( #21, #59, #103 ) ) ;
#363 = LINE ( 'NONE', #317, #209 ) ;
#364 = EDGE_CURVE ( 'NONE', #25, #210, #22, .T. ) ;
ENDSEC;
END-ISO-10303-21;
