ISO-10303-21;
HEADER;
FILE_DESCRIPTION (( 'STEP AP203' ),
    '1' );
FILE_NAME ('68660.STEP',
    '2024-04-23T13:26:51',
    ( '' ),
    ( '' ),
    'SwSTEP 2.0',
    'SolidWorks 2023',
    '' );
FILE_SCHEMA (( 'CONFIG_CONTROL_DESIGN' ));
ENDSEC;

DATA;
#1 = EDGE_CURVE ( 'NONE', #216, #228, #286, .T. ) ;
#2 = DIRECTION ( 'NONE',  ( 2.445468806185136597E-29, -3.491481338843145583E-15, -1.000000000000000000 ) ) ;
#3 = CARTESIAN_POINT ( 'NONE',  ( 3.060328480344119323E-29, -4.369342732286140616E-15, -1.251428817155262996 ) ) ;
#4 = AXIS2_PLACEMENT_3D ( 'NONE', #326, #269, #80 ) ;
#5 = CIRCLE ( 'NONE', #235, 0.02655000000000000068 ) ;
#6 = VERTEX_POINT ( 'NONE', #299 ) ;
#7 = DIRECTION ( 'NONE',  ( 1.000000000000000000, 0.000000000000000000, 0.000000000000000000 ) ) ;
#8 = ORIENTED_EDGE ( 'NONE', *, *, #292, .T. ) ;
#9 = PERSON_AND_ORGANIZATION ( #211, #203 ) ;
#10 = VECTOR ( 'NONE', #86, 39.37007874015748143 ) ;
#11 = LINE ( 'NONE', #12, #76 ) ;
#12 = CARTESIAN_POINT ( 'NONE',  ( -0.02655000000000005619, 1.886490963443069986E-16, -1.305977266462680112E-30 ) ) ;
#13 = COORDINATED_UNIVERSAL_TIME_OFFSET ( 5, 0, .BEHIND. ) ;
#14 = LOCAL_TIME ( 9, 26, 51.00000000000000000, #200 ) ;
#15 = CARTESIAN_POINT ( 'NONE',  ( 2.343003663205979115E-29, -3.345188270745617667E-15, -0.9580999999999999517 ) ) ;
#16 = ADVANCED_FACE ( 'NONE', ( #54 ), #352, .T. ) ;
#17 = CARTESIAN_POINT ( 'NONE',  ( -1.165683377443053032E-29, -8.373324580947768370E-15, -0.9586000000000001187 ) ) ;
#18 = CONICAL_SURFACE ( 'NONE', #182, 124.8659371009137971, 1.265363707695888795 ) ;
#19 = FACE_OUTER_BOUND ( 'NONE', #281, .T. ) ;
#20 = PLANE ( 'NONE',  #305 ) ;
#21 = CARTESIAN_POINT ( 'NONE',  ( 2.344226397609071917E-29, -3.346934011415039565E-15, -0.9586000000000000076 ) ) ;
#22 = DIRECTION ( 'NONE',  ( 0.7071067811863241959, -2.468850131079917299E-15, 0.7071067811867708386 ) ) ;
#23 = APPLICATION_PROTOCOL_DEFINITION ( 'international standard', 'config_control_design', 1994, #360 ) ;
#24 = VECTOR ( 'NONE', #22, 39.37007874015748143 ) ;
#25 = LOCAL_TIME ( 9, 26, 51.00000000000000000, #13 ) ;
#26 = ORIENTED_EDGE ( 'NONE', *, *, #205, .T. ) ;
#27 = LINE ( 'NONE', #282, #40 ) ;
#28 = ADVANCED_FACE ( 'NONE', ( #107 ), #20, .F. ) ;
#29 = DIRECTION ( 'NONE',  ( -2.445468806185136597E-29, 3.491481338843145583E-15, 1.000000000000000000 ) ) ;
#30 = APPROVAL_DATE_TIME ( #279, #230 ) ;
#31 = ORIENTED_EDGE ( 'NONE', *, *, #233, .T. ) ;
#32 = DIRECTION ( 'NONE',  ( -2.445468806185136597E-29, 3.491481338843145583E-15, 1.000000000000000000 ) ) ;
#33 = CIRCLE ( 'NONE', #353, 0.02605000000000012167 ) ;
#34 = ORIENTED_EDGE ( 'NONE', *, *, #168, .T. ) ;
#35 = DIRECTION ( 'NONE',  ( -2.445468806185136877E-29, 3.491481338843145188E-15, 1.000000000000000000 ) ) ;
#36 = VERTEX_POINT ( 'NONE', #41 ) ;
#37 = EDGE_CURVE ( 'NONE', #90, #36, #117, .T. ) ;
#38 = DATE_AND_TIME ( #153, #287 ) ;
#39 = DIRECTION ( 'NONE',  ( -2.445463153837613438E-29, 3.491489433326510441E-15, 1.000000000000000000 ) ) ;
#40 = VECTOR ( 'NONE', #35, 39.37007874015748143 ) ;
#41 = CARTESIAN_POINT ( 'NONE',  ( 1.886490963443372219E-16, 0.02654999999999665267, -0.9586000000000001187 ) ) ;
#42 = ADVANCED_FACE ( 'NONE', ( #67 ), #266, .T. ) ;
#43 = CARTESIAN_POINT ( 'NONE',  ( 2.344226397609071917E-29, -3.346934011415039565E-15, -0.9586000000000000076 ) ) ;
#44 = EDGE_CURVE ( 'NONE', #6, #276, #198, .T. ) ;
#45 = FACE_OUTER_BOUND ( 'NONE', #333, .T. ) ;
#46 = CONICAL_SURFACE ( 'NONE', #361, 0.02655000000000011517, 0.7853981633971325316 ) ;
#47 = EDGE_CURVE ( 'NONE', #62, #85, #11, .T. ) ;
#48 = DIRECTION ( 'NONE',  ( -2.445463153837613438E-29, 3.491489433326510441E-15, 1.000000000000000000 ) ) ;
#49 = DIRECTION ( 'NONE',  ( 1.000000000000000000, -6.982962677686265922E-15, 4.876176775795935793E-29 ) ) ;
#50 = AXIS2_PLACEMENT_3D ( 'NONE', #212, #118, #78 ) ;
#51 = DIRECTION ( 'NONE',  ( -2.445468806185136597E-29, 3.491481338843145583E-15, 1.000000000000000000 ) ) ;
#52 = FACE_OUTER_BOUND ( 'NONE', #342, .T. ) ;
#53 = PLANE ( 'NONE',  #248 ) ;
#54 = FACE_OUTER_BOUND ( 'NONE', #207, .T. ) ;
#55 = CIRCLE ( 'NONE', #262, 0.02655000000000011517 ) ;
#56 = CC_DESIGN_PERSON_AND_ORGANIZATION_ASSIGNMENT ( #346, #344, ( #224 ) ) ;
#57 = VECTOR ( 'NONE', #162, 39.37007874015748143 ) ;
#58 = ORIENTED_EDGE ( 'NONE', *, *, #247, .T. ) ;
#59 = DIRECTION ( 'NONE',  ( -2.445468806185136597E-29, 3.491481338843145583E-15, 1.000000000000000000 ) ) ;
#60 = PRODUCT_DEFINITION_SHAPE ( 'NONE', 'NONE',  #294 ) ;
#61 = VERTEX_POINT ( 'NONE', #204 ) ;
#62 = VERTEX_POINT ( 'NONE', #319 ) ;
#63 = CC_DESIGN_APPROVAL ( #163, ( #239 ) ) ;
#64 = CC_DESIGN_DATE_AND_TIME_ASSIGNMENT ( #347, #74, ( #239 ) ) ;
#65 = ORIENTED_EDGE ( 'NONE', *, *, #324, .T. ) ;
#66 =( CONVERSION_BASED_UNIT ( 'INCH', #127 ) LENGTH_UNIT ( ) NAMED_UNIT ( #327 ) );
#67 = FACE_OUTER_BOUND ( 'NONE', #124, .T. ) ;
#68 = CALENDAR_DATE ( 2024, 23, 4 ) ;
#69 = EDGE_CURVE ( 'NONE', #303, #169, #348, .T. ) ;
#70 = AXIS2_PLACEMENT_3D ( 'NONE', #277, #32, #255 ) ;
#71 =( GEOMETRIC_REPRESENTATION_CONTEXT ( 3 ) GLOBAL_UNCERTAINTY_ASSIGNED_CONTEXT ( ( #345 ) ) GLOBAL_UNIT_ASSIGNED_CONTEXT ( ( #66, #193, #229 ) ) REPRESENTATION_CONTEXT ( 'NONE', 'WORKASPACE' ) );
#72 = APPROVAL_ROLE ( '' ) ;
#73 = CARTESIAN_POINT ( 'NONE',  ( 0.02655000000000000068, -2.912550136796831418E-16, -0.03125000000000020123 ) ) ;
#74 = DATE_TIME_ROLE ( 'classification_date' ) ;
#75 = CARTESIAN_POINT ( 'NONE',  ( 2.344226397609071917E-29, -3.346934011415039565E-15, -0.9586000000000000076 ) ) ;
#76 = VECTOR ( 'NONE', #135, 39.37007874015748143 ) ;
#77 = ORIENTED_EDGE ( 'NONE', *, *, #37, .F. ) ;
#78 = DIRECTION ( 'NONE',  ( 1.000000000000000000, -6.982962677686266711E-15, 4.876176775795935793E-29 ) ) ;
#79 = CARTESIAN_POINT ( 'NONE',  ( 0.02655000000000000068, -2.945064509314193864E-16, -0.03125000000000020123 ) ) ;
#80 = DIRECTION ( 'NONE',  ( 1.000000000000000000, -6.982962677686260400E-15, 0.000000000000000000 ) ) ;
#81 = ADVANCED_FACE ( 'NONE', ( #45 ), #46, .T. ) ;
#82 = VECTOR ( 'NONE', #202, 39.37007874015748143 ) ;
#83 = DIRECTION ( 'NONE',  ( -0.7071067811865450192, 2.468850131082230634E-15, -0.7071067811865500152 ) ) ;
#84 = EDGE_CURVE ( 'NONE', #169, #85, #256, .T. ) ;
#85 = VERTEX_POINT ( 'NONE', #295 ) ;
#86 = DIRECTION ( 'NONE',  ( -0.7071067811863241959, 7.493145998869546367E-15, 0.7071067811867708386 ) ) ;
#87 = ADVANCED_FACE ( 'NONE', ( #161 ), #145, .T. ) ;
#88 = ORIENTED_EDGE ( 'NONE', *, *, #341, .F. ) ;
#89 = DIRECTION ( 'NONE',  ( -2.445468806185136597E-29, 3.491481338843145583E-15, 1.000000000000000000 ) ) ;
#90 = VERTEX_POINT ( 'NONE', #359 ) ;
#91 = CALENDAR_DATE ( 2024, 23, 4 ) ;
#92 = CONICAL_SURFACE ( 'NONE', #4, 0.02655000000000011517, 0.7853981633971325316 ) ;
#93 = EDGE_LOOP ( 'NONE', ( #126, #253, #226 ) ) ;
#94 =( LENGTH_UNIT ( ) NAMED_UNIT ( * ) SI_UNIT ( $, .METRE. ) );
#95 = ORIENTED_EDGE ( 'NONE', *, *, #47, .T. ) ;
#96 = APPLICATION_PROTOCOL_DEFINITION ( 'international standard', 'config_control_design', 1994, #133 ) ;
#97 = EDGE_CURVE ( 'NONE', #303, #85, #236, .T. ) ;
#98 = ORIENTED_EDGE ( 'NONE', *, *, #44, .T. ) ;
#99 = LINE ( 'NONE', #340, #151 ) ;
#100 = AXIS2_PLACEMENT_3D ( 'NONE', #114, #213, #245 ) ;
#101 = PRODUCT ( '68660', '68660', '', ( #195 ) ) ;
#102 = ADVANCED_FACE ( 'NONE', ( #141 ), #53, .F. ) ;
#103 = APPROVAL_STATUS ( 'not_yet_approved' ) ;
#104 = APPROVAL_STATUS ( 'not_yet_approved' ) ;
#105 = CIRCLE ( 'NONE', #296, 0.02655000000000011517 ) ;
#106 = APPROVAL_DATE_TIME ( #137, #338 ) ;
#107 = FACE_OUTER_BOUND ( 'NONE', #196, .T. ) ;
#108 = PERSON_AND_ORGANIZATION_ROLE ( 'classification_officer' ) ;
#109 = CARTESIAN_POINT ( 'NONE',  ( 7.642090019328601786E-31, -1.091087918388490144E-16, -0.03125000000000020123 ) ) ;
#110 = CLOSED_SHELL ( 'NONE', ( #16, #113, #81, #102, #140, #284, #87 ) ) ;
#111 = LINE ( 'NONE', #181, #322 ) ;
#112 = ORIENTED_EDGE ( 'NONE', *, *, #205, .F. ) ;
#113 = ADVANCED_FACE ( 'NONE', ( #241 ), #144, .T. ) ;
#114 = CARTESIAN_POINT ( 'NONE',  ( 7.642090019328601786E-31, -1.091087918388490144E-16, -0.03125000000000020123 ) ) ;
#115 = CARTESIAN_POINT ( 'NONE',  ( 2.343003663205979115E-29, -3.345188270745617667E-15, -0.9580999999999999517 ) ) ;
#116 = EDGE_LOOP ( 'NONE', ( #167, #194, #152, #280 ) ) ;
#117 = CIRCLE ( 'NONE', #154, 0.02655000000000000068 ) ;
#118 = DIRECTION ( 'NONE',  ( -2.445468806185136597E-29, 3.491481338843145583E-15, 1.000000000000000000 ) ) ;
#119 = CARTESIAN_POINT ( 'NONE',  ( 2.344226397609072477E-29, -3.346934011415040354E-15, -0.9586000000000002297 ) ) ;
#120 = APPROVAL_STATUS ( 'not_yet_approved' ) ;
#121 = ORIENTED_EDGE ( 'NONE', *, *, #306, .F. ) ;
#122 = ORIENTED_EDGE ( 'NONE', *, *, #1, .T. ) ;
#123 = DIRECTION ( 'NONE',  ( -6.982962677686265922E-15, -1.000000000000000000, 0.000000000000000000 ) ) ;
#124 = EDGE_LOOP ( 'NONE', ( #112, #98, #283, #321 ) ) ;
#125 = DIRECTION ( 'NONE',  ( -2.445463153837613438E-29, 3.491489433326510441E-15, 1.000000000000000000 ) ) ;
#126 = ORIENTED_EDGE ( 'NONE', *, *, #220, .F. ) ;
#127 = LENGTH_MEASURE_WITH_UNIT ( LENGTH_MEASURE( 0.02539999999999999897 ), #94 );
#128 = EDGE_CURVE ( 'NONE', #216, #62, #208, .T. ) ;
#129 = PERSON_AND_ORGANIZATION_ROLE ( 'creator' ) ;
#130 = AXIS2_PLACEMENT_3D ( 'NONE', #273, #237, #143 ) ;
#131 = CC_DESIGN_APPROVAL ( #338, ( #224 ) ) ;
#132 = CC_DESIGN_PERSON_AND_ORGANIZATION_ASSIGNMENT ( #320, #129, ( #224 ) ) ;
#133 = APPLICATION_CONTEXT ( 'configuration controlled 3d designs of mechanical parts and assemblies' ) ;
#134 = APPROVAL_ROLE ( '' ) ;
#135 = DIRECTION ( 'NONE',  ( -2.445468806185136877E-29, 3.491481338843145188E-15, 1.000000000000000000 ) ) ;
#136 = AXIS2_PLACEMENT_3D ( 'NONE', #289, #39, #265 ) ;
#137 = DATE_AND_TIME ( #201, #14 ) ;
#138 = DIRECTION ( 'NONE',  ( -2.445468806185136597E-29, 3.491481338843145583E-15, 1.000000000000000000 ) ) ;
#139 = FACE_OUTER_BOUND ( 'NONE', #170, .T. ) ;
#140 = ADVANCED_FACE ( 'NONE', ( #139 ), #92, .T. ) ;
#141 = FACE_OUTER_BOUND ( 'NONE', #302, .T. ) ;
#142 = CARTESIAN_POINT ( 'NONE',  ( 2.344226397609071917E-29, -3.346934011415039565E-15, -0.9586000000000000076 ) ) ;
#143 = DIRECTION ( 'NONE',  ( -6.982962677686265922E-15, -1.000000000000000000, 5.144723151910100397E-15 ) ) ;
#144 = CYLINDRICAL_SURFACE ( 'NONE', #50, 0.02655000000000005619 ) ;
#145 = CONICAL_SURFACE ( 'NONE', #100, 0.02655000000000000068, 0.7853981633974447263 ) ;
#146 = CARTESIAN_POINT ( 'NONE',  ( 2.344226397609072477E-29, -3.346934011415040354E-15, -0.9586000000000002297 ) ) ;
#147 = ORIENTED_EDGE ( 'NONE', *, *, #69, .T. ) ;
#148 = DIRECTION ( 'NONE',  ( 1.000000000000000000, -6.982962677686257244E-15, 0.000000000000000000 ) ) ;
#149 = PERSON_AND_ORGANIZATION ( #211, #203 ) ;
#150 = ORIENTED_EDGE ( 'NONE', *, *, #247, .F. ) ;
#151 = VECTOR ( 'NONE', #332, 39.37007874015748143 ) ;
#152 = ORIENTED_EDGE ( 'NONE', *, *, #341, .T. ) ;
#153 = CALENDAR_DATE ( 2024, 23, 4 ) ;
#154 = AXIS2_PLACEMENT_3D ( 'NONE', #75, #288, #313 ) ;
#155 = CC_DESIGN_SECURITY_CLASSIFICATION ( #239, ( #224 ) ) ;
#156 = CYLINDRICAL_SURFACE ( 'NONE', #130, 0.02655000000000000068 ) ;
#157 = ADVANCED_FACE ( 'NONE', ( #19 ), #156, .T. ) ;
#158 = DIRECTION ( 'NONE',  ( 1.000000000000000000, -6.982962677686260400E-15, 0.000000000000000000 ) ) ;
#159 = AXIS2_PLACEMENT_3D ( 'NONE', #293, #183, #297 ) ;
#160 = CC_DESIGN_APPROVAL ( #230, ( #294 ) ) ;
#161 = FACE_OUTER_BOUND ( 'NONE', #364, .T. ) ;
#162 = DIRECTION ( 'NONE',  ( -2.445463153837613719E-29, 3.491489433326510441E-15, 1.000000000000000000 ) ) ;
#163 = APPROVAL ( #104, 'UNSPECIFIED' ) ;
#164 = CARTESIAN_POINT ( 'NONE',  ( -1.853976590925469157E-16, -0.02655000000000334523, -0.9585999999999998966 ) ) ;
#165 = ORIENTED_EDGE ( 'NONE', *, *, #84, .F. ) ;
#166 = VECTOR ( 'NONE', #83, 39.37007874015748143 ) ;
#167 = ORIENTED_EDGE ( 'NONE', *, *, #47, .F. ) ;
#168 = EDGE_CURVE ( 'NONE', #228, #307, #179, .T. ) ;
#169 = VERTEX_POINT ( 'NONE', #79 ) ;
#170 = EDGE_LOOP ( 'NONE', ( #218, #122, #34, #121 ) ) ;
#171 = CYLINDRICAL_SURFACE ( 'NONE', #70, 0.02655000000000005619 ) ;
#172 = APPROVAL_PERSON_ORGANIZATION ( #250, #230, #219 ) ;
#173 = ORIENTED_EDGE ( 'NONE', *, *, #220, .T. ) ;
#174 = PERSON_AND_ORGANIZATION_ROLE ( 'design_owner' ) ;
#175 = DIRECTION ( 'NONE',  ( -2.445463153837613438E-29, 3.491489433326510441E-15, 1.000000000000000000 ) ) ;
#176 = SHAPE_DEFINITION_REPRESENTATION ( #60, #252 ) ;
#177 = DIRECTION ( 'NONE',  ( 6.982962677686265922E-15, 1.000000000000000000, -3.491489433326510441E-15 ) ) ;
#178 = CC_DESIGN_DATE_AND_TIME_ASSIGNMENT ( #206, #234, ( #294 ) ) ;
#179 = LINE ( 'NONE', #357, #24 ) ;
#180 = LINE ( 'NONE', #354, #335 ) ;
#181 = CARTESIAN_POINT ( 'NONE',  ( 3.080805412910194552E-29, -4.398562869361232211E-15, -1.259800000000000031 ) ) ;
#182 = AXIS2_PLACEMENT_3D ( 'NONE', #246, #48, #268 ) ;
#183 = DIRECTION ( 'NONE',  ( -2.445463153837613438E-29, 3.491489433326510441E-15, 1.000000000000000000 ) ) ;
#184 = DIRECTION ( 'NONE',  ( 6.776566513254251038E-15, 0.9537169507482278208, 0.3007057995042699550 ) ) ;
#185 = ORIENTED_EDGE ( 'NONE', *, *, #97, .F. ) ;
#186 = CARTESIAN_POINT ( 'NONE',  ( 7.642090019328601786E-31, -1.091087918388490144E-16, -0.03125000000000020123 ) ) ;
#187 = CIRCLE ( 'NONE', #209, 0.02655000000000000068 ) ;
#188 = ORIENTED_EDGE ( 'NONE', *, *, #311, .F. ) ;
#189 = APPROVAL_PERSON_ORGANIZATION ( #264, #338, #134 ) ;
#190 = DIRECTION ( 'NONE',  ( 1.000000000000000000, -6.982962677686260400E-15, 0.000000000000000000 ) ) ;
#191 = CC_DESIGN_PERSON_AND_ORGANIZATION_ASSIGNMENT ( #222, #174, ( #101 ) ) ;
#192 = ORIENTED_EDGE ( 'NONE', *, *, #343, .T. ) ;
#193 =( NAMED_UNIT ( * ) PLANE_ANGLE_UNIT ( ) SI_UNIT ( $, .RADIAN. ) );
#194 = ORIENTED_EDGE ( 'NONE', *, *, #306, .T. ) ;
#195 = MECHANICAL_CONTEXT ( 'NONE', #133, 'mechanical' ) ;
#196 = EDGE_LOOP ( 'NONE', ( #257, #31 ) ) ;
#197 = CARTESIAN_POINT ( 'NONE',  ( 1.149370338907019863E-31, -1.640996229256286386E-17, -0.004700000000000022736 ) ) ;
#198 = CIRCLE ( 'NONE', #136, 0.02655000000000000068 ) ;
#199 = PERSON_AND_ORGANIZATION_ROLE ( 'creator' ) ;
#200 = COORDINATED_UNIVERSAL_TIME_OFFSET ( 5, 0, .BEHIND. ) ;
#201 = CALENDAR_DATE ( 2024, 23, 4 ) ;
#202 = DIRECTION ( 'NONE',  ( 0.7071067811865450192, -7.319954787623246579E-15, -0.7071067811865500152 ) ) ;
#203 = ORGANIZATION ( 'UNSPECIFIED', 'UNSPECIFIED', '' ) ;
#204 = CARTESIAN_POINT ( 'NONE',  ( 3.080794481204625199E-29, -4.398578388104738078E-15, -1.259800000000000031 ) ) ;
#205 = EDGE_CURVE ( 'NONE', #6, #36, #180, .T. ) ;
#206 = DATE_AND_TIME ( #349, #267 ) ;
#207 = EDGE_LOOP ( 'NONE', ( #185, #147, #339 ) ) ;
#208 = LINE ( 'NONE', #323, #10 ) ;
#209 = AXIS2_PLACEMENT_3D ( 'NONE', #21, #325, #298 ) ;
#210 = CARTESIAN_POINT ( 'NONE',  ( 0.02605000000000012167, -3.528840189168768520E-15, -0.9586000000000002297 ) ) ;
#211 = PERSON ( 'UNSPECIFIED', 'UNSPECIFIED', 'UNSPECIFIED', ('UNSPECIFIED'), ('UNSPECIFIED'), ('UNSPECIFIED') ) ;
#212 = CARTESIAN_POINT ( 'NONE',  ( 0.000000000000000000, 0.000000000000000000, 0.000000000000000000 ) ) ;
#213 = DIRECTION ( 'NONE',  ( 2.445468806185136597E-29, -3.491481338843145583E-15, -1.000000000000000000 ) ) ;
#214 = AXIS2_PLACEMENT_3D ( 'NONE', #119, #29, #148 ) ;
#215 = LOCAL_TIME ( 9, 26, 51.00000000000000000, #334 ) ;
#216 = VERTEX_POINT ( 'NONE', #272 ) ;
#217 = CARTESIAN_POINT ( 'NONE',  ( -0.02655000000000000068, 7.628886725372136996E-17, -0.03125000000000020123 ) ) ;
#218 = ORIENTED_EDGE ( 'NONE', *, *, #128, .F. ) ;
#219 = APPROVAL_ROLE ( '' ) ;
#220 = EDGE_CURVE ( 'NONE', #61, #6, #111, .T. ) ;
#221 = EDGE_LOOP ( 'NONE', ( #58, #95, #165, #88 ) ) ;
#222 = PERSON_AND_ORGANIZATION ( #211, #203 ) ;
#223 = CIRCLE ( 'NONE', #270, 0.02655000000000000068 ) ;
#224 = PRODUCT_DEFINITION_FORMATION_WITH_SPECIFIED_SOURCE ( 'ANY', '', #101, .NOT_KNOWN. ) ;
#225 = CARTESIAN_POINT ( 'NONE',  ( 0.02655000000000011517, -3.530585929838188840E-15, -0.9580999999999999517 ) ) ;
#226 = ORIENTED_EDGE ( 'NONE', *, *, #44, .F. ) ;
#227 = DIRECTION ( 'NONE',  ( -2.445468806185136597E-29, 3.491481338843145583E-15, 1.000000000000000000 ) ) ;
#228 = VERTEX_POINT ( 'NONE', #210 ) ;
#229 =( NAMED_UNIT ( * ) SI_UNIT ( $, .STERADIAN. ) SOLID_ANGLE_UNIT ( ) );
#230 = APPROVAL ( #120, 'UNSPECIFIED' ) ;
#231 = AXIS2_PLACEMENT_3D ( 'NONE', #43, #175, #285 ) ;
#232 = COORDINATED_UNIVERSAL_TIME_OFFSET ( 5, 0, .BEHIND. ) ;
#233 = EDGE_CURVE ( 'NONE', #36, #90, #187, .T. ) ;
#234 = DATE_TIME_ROLE ( 'creation_date' ) ;
#235 = AXIS2_PLACEMENT_3D ( 'NONE', #186, #227, #309 ) ;
#236 = LINE ( 'NONE', #217, #166 ) ;
#237 = DIRECTION ( 'NONE',  ( -2.445463153837613438E-29, 3.491489433326510441E-15, 1.000000000000000000 ) ) ;
#238 = CONICAL_SURFACE ( 'NONE', #159, 124.8659371009137971, 1.265363707695888795 ) ;
#239 = SECURITY_CLASSIFICATION ( '', '', #314 ) ;
#240 = MANIFOLD_SOLID_BREP ( 'Body-Move/Copy2[1]', #290 ) ;
#241 = FACE_OUTER_BOUND ( 'NONE', #221, .T. ) ;
#242 = MANIFOLD_SOLID_BREP ( 'Body-Move/Copy2[2]', #110 ) ;
#243 = DIRECTION ( 'NONE',  ( 2.445463153837613158E-29, -3.491489433326510441E-15, -1.000000000000000000 ) ) ;
#244 = EDGE_CURVE ( 'NONE', #276, #90, #358, .T. ) ;
#245 = DIRECTION ( 'NONE',  ( -1.000000000000000000, 6.982962677686266711E-15, 0.000000000000000000 ) ) ;
#246 = CARTESIAN_POINT ( 'NONE',  ( -9.319727702319572362E-28, 1.330616432817595612E-13, 38.11027874015748296 ) ) ;
#247 = EDGE_CURVE ( 'NONE', #307, #62, #55, .T. ) ;
#248 = AXIS2_PLACEMENT_3D ( 'NONE', #17, #350, #49 ) ;
#249 = ORIENTED_EDGE ( 'NONE', *, *, #324, .F. ) ;
#250 = PERSON_AND_ORGANIZATION ( #211, #203 ) ;
#251 = CC_DESIGN_PERSON_AND_ORGANIZATION_ASSIGNMENT ( #149, #199, ( #294 ) ) ;
#252 = ADVANCED_BREP_SHAPE_REPRESENTATION ( '68660', ( #240, #242, #329 ), #71 ) ;
#253 = ORIENTED_EDGE ( 'NONE', *, *, #311, .T. ) ;
#254 = CARTESIAN_POINT ( 'NONE',  ( 7.642090019328601786E-31, -1.091087918388490144E-16, -0.03125000000000020123 ) ) ;
#255 = DIRECTION ( 'NONE',  ( 1.000000000000000000, -6.982962677686266711E-15, 4.876176775795935793E-29 ) ) ;
#256 = CIRCLE ( 'NONE', #315, 0.02655000000000000068 ) ;
#257 = ORIENTED_EDGE ( 'NONE', *, *, #37, .T. ) ;
#258 = CARTESIAN_POINT ( 'NONE',  ( 0.000000000000000000, 0.000000000000000000, 0.000000000000000000 ) ) ;
#259 = ORIENTED_EDGE ( 'NONE', *, *, #292, .F. ) ;
#260 = DIRECTION ( 'NONE',  ( 1.000000000000000000, -6.982962677686257244E-15, 0.000000000000000000 ) ) ;
#261 = ADVANCED_FACE ( 'NONE', ( #291 ), #238, .T. ) ;
#262 = AXIS2_PLACEMENT_3D ( 'NONE', #115, #138, #328 ) ;
#263 = ADVANCED_FACE ( 'NONE', ( #52 ), #18, .T. ) ;
#264 = PERSON_AND_ORGANIZATION ( #211, #203 ) ;
#265 = DIRECTION ( 'NONE',  ( -6.982962677686265922E-15, -1.000000000000000000, 0.000000000000000000 ) ) ;
#266 = CYLINDRICAL_SURFACE ( 'NONE', #231, 0.02655000000000000068 ) ;
#267 = LOCAL_TIME ( 9, 26, 51.00000000000000000, #318 ) ;
#268 = DIRECTION ( 'NONE',  ( -6.982962677686265922E-15, -1.000000000000000000, 3.500519750498739931E-15 ) ) ;
#269 = DIRECTION ( 'NONE',  ( -2.445468806185136597E-29, 3.491481338843145583E-15, 1.000000000000000000 ) ) ;
#270 = AXIS2_PLACEMENT_3D ( 'NONE', #3, #125, #123 ) ;
#271 = CC_DESIGN_PERSON_AND_ORGANIZATION_ASSIGNMENT ( #9, #108, ( #239 ) ) ;
#272 = CARTESIAN_POINT ( 'NONE',  ( -0.02605000000000012167, -3.159188401575422141E-15, -0.9586000000000002297 ) ) ;
#273 = CARTESIAN_POINT ( 'NONE',  ( 2.344226397609071917E-29, -3.346934011415039565E-15, -0.9586000000000000076 ) ) ;
#274 = DIRECTION ( 'NONE',  ( -2.445463153837613719E-29, 3.491489433326510441E-15, 1.000000000000000000 ) ) ;
#275 = AXIS2_PLACEMENT_3D ( 'NONE', #254, #2, #355 ) ;
#276 = VERTEX_POINT ( 'NONE', #301 ) ;
#277 = CARTESIAN_POINT ( 'NONE',  ( 0.000000000000000000, 0.000000000000000000, 0.000000000000000000 ) ) ;
#278 = ORIENTED_EDGE ( 'NONE', *, *, #97, .T. ) ;
#279 = DATE_AND_TIME ( #91, #215 ) ;
#280 = ORIENTED_EDGE ( 'NONE', *, *, #343, .F. ) ;
#281 = EDGE_LOOP ( 'NONE', ( #8, #26, #77, #336 ) ) ;
#282 = CARTESIAN_POINT ( 'NONE',  ( 0.02655000000000005619, -1.853976590925707788E-16, 1.294624933973823680E-30 ) ) ;
#283 = ORIENTED_EDGE ( 'NONE', *, *, #244, .T. ) ;
#284 = ADVANCED_FACE ( 'NONE', ( #363 ), #171, .T. ) ;
#285 = DIRECTION ( 'NONE',  ( -6.982962677686265922E-15, -1.000000000000000000, 5.144723151910100397E-15 ) ) ;
#286 = CIRCLE ( 'NONE', #214, 0.02605000000000012167 ) ;
#287 = LOCAL_TIME ( 9, 26, 51.00000000000000000, #232 ) ;
#288 = DIRECTION ( 'NONE',  ( -2.445463153837613438E-29, 3.491489433326510441E-15, 1.000000000000000000 ) ) ;
#289 = CARTESIAN_POINT ( 'NONE',  ( 3.060328480344119323E-29, -4.369342732286140616E-15, -1.251428817155262996 ) ) ;
#290 = CLOSED_SHELL ( 'NONE', ( #157, #263, #261, #42, #28 ) ) ;
#291 = FACE_OUTER_BOUND ( 'NONE', #93, .T. ) ;
#292 = EDGE_CURVE ( 'NONE', #276, #6, #223, .T. ) ;
#293 = CARTESIAN_POINT ( 'NONE',  ( -9.319727702319572362E-28, 1.330616432817595612E-13, 38.11027874015748296 ) ) ;
#294 = PRODUCT_DEFINITION ( 'UNKNOWN', '', #224, #310 ) ;
#295 = CARTESIAN_POINT ( 'NONE',  ( -0.02655000000000000068, -1.538499434947924881E-15, -0.03125000000000020123 ) ) ;
#296 = AXIS2_PLACEMENT_3D ( 'NONE', #337, #89, #190 ) ;
#297 = DIRECTION ( 'NONE',  ( -6.982962677686265922E-15, -1.000000000000000000, 3.500519750498739931E-15 ) ) ;
#298 = DIRECTION ( 'NONE',  ( -6.982962677686265922E-15, -1.000000000000000000, 5.144723151910100397E-15 ) ) ;
#299 = CARTESIAN_POINT ( 'NONE',  ( 1.886490963443371972E-16, 0.02654999999999562918, -1.251428817155262996 ) ) ;
#300 = ORIENTED_EDGE ( 'NONE', *, *, #128, .T. ) ;
#301 = CARTESIAN_POINT ( 'NONE',  ( -1.853976590925397420E-16, -0.02655000000000437566, -1.251428817155262996 ) ) ;
#302 = EDGE_LOOP ( 'NONE', ( #249, #362 ) ) ;
#303 = VERTEX_POINT ( 'NONE', #197 ) ;
#304 = DIRECTION ( 'NONE',  ( 0.000000000000000000, 0.000000000000000000, 1.000000000000000000 ) ) ;
#305 = AXIS2_PLACEMENT_3D ( 'NONE', #142, #243, #177 ) ;
#306 = EDGE_CURVE ( 'NONE', #62, #307, #105, .T. ) ;
#307 = VERTEX_POINT ( 'NONE', #225 ) ;
#308 = APPROVAL_PERSON_ORGANIZATION ( #316, #163, #72 ) ;
#309 = DIRECTION ( 'NONE',  ( 1.000000000000000000, -6.982962677686265922E-15, 0.000000000000000000 ) ) ;
#310 = DESIGN_CONTEXT ( 'detailed design', #360, 'design' ) ;
#311 = EDGE_CURVE ( 'NONE', #61, #276, #99, .T. ) ;
#312 = APPROVAL_DATE_TIME ( #38, #163 ) ;
#313 = DIRECTION ( 'NONE',  ( -6.982962677686265922E-15, -1.000000000000000000, 5.144723151910100397E-15 ) ) ;
#314 = SECURITY_CLASSIFICATION_LEVEL ( 'unclassified' ) ;
#315 = AXIS2_PLACEMENT_3D ( 'NONE', #109, #51, #330 ) ;
#316 = PERSON_AND_ORGANIZATION ( #211, #203 ) ;
#317 = DIRECTION ( 'NONE',  ( -2.445468806185136597E-29, 3.491481338843145583E-15, 1.000000000000000000 ) ) ;
#318 = COORDINATED_UNIVERSAL_TIME_OFFSET ( 5, 0, .BEHIND. ) ;
#319 = CARTESIAN_POINT ( 'NONE',  ( -0.02655000000000011517, -3.156539174401310545E-15, -0.9580999999999999517 ) ) ;
#320 = PERSON_AND_ORGANIZATION ( #211, #203 ) ;
#321 = ORIENTED_EDGE ( 'NONE', *, *, #233, .F. ) ;
#322 = VECTOR ( 'NONE', #184, 39.37007874015748854 ) ;
#323 = CARTESIAN_POINT ( 'NONE',  ( -0.02655000000000011517, -3.156539174401310545E-15, -0.9580999999999999517 ) ) ;
#324 = EDGE_CURVE ( 'NONE', #228, #216, #33, .T. ) ;
#325 = DIRECTION ( 'NONE',  ( -2.445463153837613438E-29, 3.491489433326510441E-15, 1.000000000000000000 ) ) ;
#326 = CARTESIAN_POINT ( 'NONE',  ( 2.343003663205979115E-29, -3.345188270745617667E-15, -0.9580999999999999517 ) ) ;
#327 = DIMENSIONAL_EXPONENTS ( 1.000000000000000000, 0.000000000000000000, 0.000000000000000000, 0.000000000000000000, 0.000000000000000000, 0.000000000000000000, 0.000000000000000000 ) ;
#328 = DIRECTION ( 'NONE',  ( 1.000000000000000000, -6.982962677686260400E-15, 0.000000000000000000 ) ) ;
#329 = AXIS2_PLACEMENT_3D ( 'NONE', #258, #304, #7 ) ;
#330 = DIRECTION ( 'NONE',  ( 1.000000000000000000, -6.982962677686265922E-15, 0.000000000000000000 ) ) ;
#331 = ORIENTED_EDGE ( 'NONE', *, *, #168, .F. ) ;
#332 = DIRECTION ( 'NONE',  ( -6.659769872151625778E-15, -0.9537169507482258224, 0.3007057995042766163 ) ) ;
#333 = EDGE_LOOP ( 'NONE', ( #65, #300, #150, #331 ) ) ;
#334 = COORDINATED_UNIVERSAL_TIME_OFFSET ( 5, 0, .BEHIND. ) ;
#335 = VECTOR ( 'NONE', #274, 39.37007874015748143 ) ;
#336 = ORIENTED_EDGE ( 'NONE', *, *, #244, .F. ) ;
#337 = CARTESIAN_POINT ( 'NONE',  ( 2.343003663205979115E-29, -3.345188270745617667E-15, -0.9580999999999999517 ) ) ;
#338 = APPROVAL ( #103, 'UNSPECIFIED' ) ;
#339 = ORIENTED_EDGE ( 'NONE', *, *, #84, .T. ) ;
#340 = CARTESIAN_POINT ( 'NONE',  ( 3.080794481204625199E-29, -4.398578388104738078E-15, -1.259800000000000031 ) ) ;
#341 = EDGE_CURVE ( 'NONE', #307, #169, #27, .T. ) ;
#342 = EDGE_LOOP ( 'NONE', ( #188, #173, #259 ) ) ;
#343 = EDGE_CURVE ( 'NONE', #85, #169, #5, .T. ) ;
#344 = PERSON_AND_ORGANIZATION_ROLE ( 'design_supplier' ) ;
#345 = UNCERTAINTY_MEASURE_WITH_UNIT (LENGTH_MEASURE( 1.000000000000000082E-05 ), #66, 'distance_accuracy_value', 'NONE');
#346 = PERSON_AND_ORGANIZATION ( #211, #203 ) ;
#347 = DATE_AND_TIME ( #68, #25 ) ;
#348 = LINE ( 'NONE', #73, #82 ) ;
#349 = CALENDAR_DATE ( 2024, 23, 4 ) ;
#350 = DIRECTION ( 'NONE',  ( -2.438088387897960049E-29, 3.491481338843145188E-15, 1.000000000000000000 ) ) ;
#351 = PRODUCT_RELATED_PRODUCT_CATEGORY ( 'detail', '', ( #101 ) ) ;
#352 = CONICAL_SURFACE ( 'NONE', #275, 0.02655000000000000068, 0.7853981633974447263 ) ;
#353 = AXIS2_PLACEMENT_3D ( 'NONE', #146, #59, #260 ) ;
#354 = CARTESIAN_POINT ( 'NONE',  ( 1.886490963443300235E-16, 0.02654999999999665267, -0.9586000000000001187 ) ) ;
#355 = DIRECTION ( 'NONE',  ( -1.000000000000000000, 6.982962677686266711E-15, 0.000000000000000000 ) ) ;
#356 = ORIENTED_EDGE ( 'NONE', *, *, #69, .F. ) ;
#357 = CARTESIAN_POINT ( 'NONE',  ( 0.02655000000000011517, -3.530585929838188840E-15, -0.9580999999999999517 ) ) ;
#358 = LINE ( 'NONE', #164, #57 ) ;
#359 = CARTESIAN_POINT ( 'NONE',  ( -1.853976590925469157E-16, -0.02655000000000334523, -0.9585999999999998966 ) ) ;
#360 = APPLICATION_CONTEXT ( 'configuration controlled 3d designs of mechanical parts and assemblies' ) ;
#361 = AXIS2_PLACEMENT_3D ( 'NONE', #15, #317, #158 ) ;
#362 = ORIENTED_EDGE ( 'NONE', *, *, #1, .F. ) ;
#363 = FACE_OUTER_BOUND ( 'NONE', #116, .T. ) ;
#364 = EDGE_LOOP ( 'NONE', ( #356, #278, #192 ) ) ;
ENDSEC;
END-ISO-10303-21;
