ISO-10303-21;
HEADER;
FILE_DESCRIPTION (( 'STEP AP203' ),
    '1' );
FILE_NAME ('68705.STEP',
    '2024-04-23T13:44:31',
    ( '' ),
    ( '' ),
    'SwSTEP 2.0',
    'SolidWorks 2023',
    '' );
FILE_SCHEMA (( 'CONFIG_CONTROL_DESIGN' ));
ENDSEC;

DATA;
#1 = DIRECTION ( 'NONE',  ( 1.000000000000000000, -6.982962677686266711E-15, 4.876176775795935232E-29 ) ) ;
#2 = APPROVAL_DATE_TIME ( #160, #125 ) ;
#3 = DESIGN_CONTEXT ( 'detailed design', #340, 'design' ) ;
#4 = PERSON ( 'UNSPECIFIED', 'UNSPECIFIED', 'UNSPECIFIED', ('UNSPECIFIED'), ('UNSPECIFIED'), ('UNSPECIFIED') ) ;
#5 = CIRCLE ( 'NONE', #261, 0.1122000000000000081 ) ;
#6 = PERSON_AND_ORGANIZATION ( #4, #365 ) ;
#7 = APPROVAL_DATE_TIME ( #68, #121 ) ;
#8 = ADVANCED_FACE ( 'NONE', ( #161 ), #69, .T. ) ;
#9 = APPROVAL_STATUS ( 'not_yet_approved' ) ;
#10 = AXIS2_PLACEMENT_3D ( 'NONE', #287, #346, #77 ) ;
#11 = SECURITY_CLASSIFICATION ( '', '', #46 ) ;
#12 = EDGE_CURVE ( 'NONE', #100, #206, #253, .T. ) ;
#13 = CARTESIAN_POINT ( 'NONE',  ( 6.354037927846219520E-29, -9.072649214500040232E-15, -2.598399999999999821 ) ) ;
#14 = AXIS2_PLACEMENT_3D ( 'NONE', #167, #284, #131 ) ;
#15 = AXIS2_PLACEMENT_3D ( 'NONE', #71, #195, #366 ) ;
#16 = ORIENTED_EDGE ( 'NONE', *, *, #95, .F. ) ;
#17 = DIRECTION ( 'NONE',  ( -2.445365581837369266E-29, 3.491629161984313395E-15, 1.000000000000000000 ) ) ;
#18 = ORIENTED_EDGE ( 'NONE', *, *, #307, .F. ) ;
#19 = DIRECTION ( 'NONE',  ( -2.445365581837369266E-29, 3.491629161984313395E-15, 1.000000000000000000 ) ) ;
#20 = CARTESIAN_POINT ( 'NONE',  ( 0.1122000000000000081, -8.788566671888148389E-16, -0.03125000000000021511 ) ) ;
#21 = ORIENTED_EDGE ( 'NONE', *, *, #108, .T. ) ;
#22 = AXIS2_PLACEMENT_3D ( 'NONE', #118, #87, #272 ) ;
#23 = CC_DESIGN_PERSON_AND_ORGANIZATION_ASSIGNMENT ( #33, #368, ( #104 ) ) ;
#24 = DIRECTION ( 'NONE',  ( 1.000000000000000000, -6.982962677686265922E-15, 4.876172822216040700E-29 ) ) ;
#25 = ORIENTED_EDGE ( 'NONE', *, *, #331, .T. ) ;
#26 = DIRECTION ( 'NONE',  ( -1.000000000000000000, 6.982962677686266711E-15, 0.000000000000000000 ) ) ;
#27 = ORIENTED_EDGE ( 'NONE', *, *, #275, .T. ) ;
#28 = CARTESIAN_POINT ( 'NONE',  ( 0.08094999999999999418, -7.171069900542102065E-16, 2.388061258382177493E-19 ) ) ;
#29 = DIRECTION ( 'NONE',  ( -0.7071067811865452413, 2.468850131082233000E-15, -0.7071067811865497932 ) ) ;
#30 = CIRCLE ( 'NONE', #301, 0.1122000000000002023 ) ;
#31 = CARTESIAN_POINT ( 'NONE',  ( 4.207184534160907865E-29, -6.006744495345746138E-15, -1.720399999999999485 ) ) ;
#32 = CIRCLE ( 'NONE', #358, 0.08094999999999999418 ) ;
#33 = PERSON_AND_ORGANIZATION ( #4, #365 ) ;
#34 = DATE_AND_TIME ( #354, #255 ) ;
#35 = EDGE_CURVE ( 'NONE', #237, #320, #230, .T. ) ;
#36 = CALENDAR_DATE ( 2024, 23, 4 ) ;
#37 = CALENDAR_DATE ( 2024, 23, 4 ) ;
#38 = DIRECTION ( 'NONE',  ( -6.982962677686265922E-15, -1.000000000000000000, 3.500519750498682344E-15 ) ) ;
#39 = DIRECTION ( 'NONE',  ( -2.445468806185136597E-29, 3.491481338843145583E-15, 1.000000000000000000 ) ) ;
#40 = FACE_OUTER_BOUND ( 'NONE', #209, .T. ) ;
#41 = CC_DESIGN_PERSON_AND_ORGANIZATION_ASSIGNMENT ( #303, #252, ( #281 ) ) ;
#42 = COORDINATED_UNIVERSAL_TIME_OFFSET ( 5, 0, .BEHIND. ) ;
#43 = DIRECTION ( 'NONE',  ( -2.445468806185136597E-29, 3.491481338843145583E-15, 1.000000000000000000 ) ) ;
#44 = ORIENTED_EDGE ( 'NONE', *, *, #146, .T. ) ;
#45 = DIRECTION ( 'NONE',  ( 1.000000000000000000, -6.982962677686266711E-15, 0.000000000000000000 ) ) ;
#46 = SECURITY_CLASSIFICATION_LEVEL ( 'unclassified' ) ;
#47 = PLANE ( 'NONE',  #10 ) ;
#48 = AXIS2_PLACEMENT_3D ( 'NONE', #317, #17, #172 ) ;
#49 = PRODUCT_DEFINITION_FORMATION_WITH_SPECIFIED_SOURCE ( 'ANY', '', #104, .NOT_KNOWN. ) ;
#50 = EDGE_LOOP ( 'NONE', ( #177, #321, #56, #180 ) ) ;
#51 = ORIENTED_EDGE ( 'NONE', *, *, #348, .F. ) ;
#52 = ORIENTED_EDGE ( 'NONE', *, *, #163, .T. ) ;
#53 = DIRECTION ( 'NONE',  ( 1.000000000000000000, -6.982962677686265922E-15, 4.876172822216040700E-29 ) ) ;
#54 = VECTOR ( 'NONE', #152, 39.37007874015748854 ) ;
#55 = DIRECTION ( 'NONE',  ( -2.445468806185136597E-29, 3.491481338843145583E-15, 1.000000000000000000 ) ) ;
#56 = ORIENTED_EDGE ( 'NONE', *, *, #146, .F. ) ;
#57 = LINE ( 'NONE', #210, #330 ) ;
#58 = ORIENTED_EDGE ( 'NONE', *, *, #304, .T. ) ;
#59 = LINE ( 'NONE', #92, #324 ) ;
#60 = CARTESIAN_POINT ( 'NONE',  ( 4.207184534160907865E-29, -6.006744495345746138E-15, -1.720399999999999485 ) ) ;
#61 = AXIS2_PLACEMENT_3D ( 'NONE', #228, #43, #162 ) ;
#62 = APPLICATION_PROTOCOL_DEFINITION ( 'international standard', 'config_control_design', 1994, #340 ) ;
#63 = ORIENTED_EDGE ( 'NONE', *, *, #79, .F. ) ;
#64 = ADVANCED_FACE ( 'NONE', ( #102 ), #158, .T. ) ;
#65 = MECHANICAL_CONTEXT ( 'NONE', #67, 'mechanical' ) ;
#66 = ORIENTED_EDGE ( 'NONE', *, *, #108, .F. ) ;
#67 = APPLICATION_CONTEXT ( 'configuration controlled 3d designs of mechanical parts and assemblies' ) ;
#68 = DATE_AND_TIME ( #333, #263 ) ;
#69 = CONICAL_SURFACE ( 'NONE', #388, 124.8659371009158576, 1.265363707695893458 ) ;
#70 = CC_DESIGN_APPROVAL ( #121, ( #281 ) ) ;
#71 = CARTESIAN_POINT ( 'NONE',  ( 6.267706980545053651E-29, -8.948873196328101786E-15, -2.563023475887778346 ) ) ;
#72 = CARTESIAN_POINT ( 'NONE',  ( -8.992001999039411456E-28, 1.283933201391845272E-13, 36.77167874015748339 ) ) ;
#73 = EDGE_CURVE ( 'NONE', #374, #320, #311, .T. ) ;
#74 = EDGE_LOOP ( 'NONE', ( #339, #267, #248 ) ) ;
#75 = CIRCLE ( 'NONE', #15, 0.1122000000000000081 ) ;
#76 = ADVANCED_FACE ( 'NONE', ( #40 ), #337, .F. ) ;
#77 = DIRECTION ( 'NONE',  ( 1.000000000000000000, -6.982962677686265922E-15, 4.876176775795935793E-29 ) ) ;
#78 = DIRECTION ( 'NONE',  ( -6.982962677686265133E-15, -1.000000000000000000, 2.434802133390608632E-15 ) ) ;
#79 = EDGE_CURVE ( 'NONE', #115, #144, #256, .T. ) ;
#80 = DIRECTION ( 'NONE',  ( -2.445468806185136597E-29, 3.491481338843145583E-15, 1.000000000000000000 ) ) ;
#81 = LINE ( 'NONE', #293, #193 ) ;
#82 = CONICAL_SURFACE ( 'NONE', #220, 0.1122000000000002023, 0.7853981633974141952 ) ;
#83 = CC_DESIGN_PERSON_AND_ORGANIZATION_ASSIGNMENT ( #157, #278, ( #49 ) ) ;
#84 = DIRECTION ( 'NONE',  ( -6.982962677686265133E-15, -1.000000000000000000, 2.434802133390608632E-15 ) ) ;
#85 = CARTESIAN_POINT ( 'NONE',  ( -7.834884124363568980E-16, -0.1122000000000060171, -1.720399999999999263 ) ) ;
#86 = APPROVAL_PERSON_ORGANIZATION ( #96, #125, #276 ) ;
#87 = DIRECTION ( 'NONE',  ( -2.445365581837369266E-29, 3.491629161984313395E-15, 1.000000000000000000 ) ) ;
#88 = ADVANCED_FACE ( 'NONE', ( #280 ), #47, .F. ) ;
#89 = CARTESIAN_POINT ( 'NONE',  ( 4.205961799757815063E-29, -6.004998754676324634E-15, -1.719899999999999540 ) ) ;
#90 = CARTESIAN_POINT ( 'NONE',  ( 7.972289495228951803E-16, 0.1121999999999939851, -1.720399999999999707 ) ) ;
#91 = EDGE_LOOP ( 'NONE', ( #201, #223, #232, #107 ) ) ;
#92 = CARTESIAN_POINT ( 'NONE',  ( 0.1122000000000001052, -7.834884124363998909E-16, 5.471070342443044449E-30 ) ) ;
#93 = AXIS2_PLACEMENT_3D ( 'NONE', #184, #212, #384 ) ;
#94 = DIRECTION ( 'NONE',  ( 0.000000000000000000, 0.000000000000000000, 1.000000000000000000 ) ) ;
#95 = EDGE_CURVE ( 'NONE', #318, #183, #355, .T. ) ;
#96 = PERSON_AND_ORGANIZATION ( #4, #365 ) ;
#97 = EDGE_LOOP ( 'NONE', ( #27, #169 ) ) ;
#98 = EDGE_CURVE ( 'NONE', #100, #386, #264, .T. ) ;
#99 = DIRECTION ( 'NONE',  ( 1.000000000000000000, 0.000000000000000000, 0.000000000000000000 ) ) ;
#100 = VERTEX_POINT ( 'NONE', #291 ) ;
#101 = DIRECTION ( 'NONE',  ( -2.445365581837369266E-29, 3.491629161984313395E-15, 1.000000000000000000 ) ) ;
#102 = FACE_OUTER_BOUND ( 'NONE', #74, .T. ) ;
#103 = VECTOR ( 'NONE', #174, 39.37007874015748854 ) ;
#104 = PRODUCT ( '68705', '68705', '', ( #65 ) ) ;
#105 = EDGE_LOOP ( 'NONE', ( #149, #219, #315, #314 ) ) ;
#106 = PERSON_AND_ORGANIZATION_ROLE ( 'classification_officer' ) ;
#107 = ORIENTED_EDGE ( 'NONE', *, *, #191, .T. ) ;
#108 = EDGE_CURVE ( 'NONE', #206, #183, #81, .T. ) ;
#109 = CIRCLE ( 'NONE', #22, 0.1122000000000000081 ) ;
#110 = DIRECTION ( 'NONE',  ( -2.445468806185136877E-29, 3.491481338843145188E-15, 1.000000000000000000 ) ) ;
#111 = FACE_OUTER_BOUND ( 'NONE', #165, .T. ) ;
#112 = CYLINDRICAL_SURFACE ( 'NONE', #211, 0.1122000000000001052 ) ;
#113 = CARTESIAN_POINT ( 'NONE',  ( -0.1122000000000002023, -5.207769805153490886E-15, -1.719899999999999540 ) ) ;
#114 = PLANE ( 'NONE',  #116 ) ;
#115 = VERTEX_POINT ( 'NONE', #139 ) ;
#116 = AXIS2_PLACEMENT_3D ( 'NONE', #245, #362, #359 ) ;
#117 = LOCAL_TIME ( 9, 44, 31.00000000000000000, #42 ) ;
#118 = CARTESIAN_POINT ( 'NONE',  ( 6.267706980545053651E-29, -8.948873196328101786E-15, -2.563023475887778346 ) ) ;
#119 = PRODUCT_DEFINITION_SHAPE ( 'NONE', 'NONE',  #281 ) ;
#120 = CARTESIAN_POINT ( 'NONE',  ( 7.642090019328603538E-31, -1.091087918388490390E-16, -0.03125000000000021511 ) ) ;
#121 = APPROVAL ( #127, 'UNSPECIFIED' ) ;
#122 = CARTESIAN_POINT ( 'NONE',  ( 0.1117000000000003407, -6.786741426443304698E-15, -1.720399999999999485 ) ) ;
#123 = PERSON_AND_ORGANIZATION_ROLE ( 'design_supplier' ) ;
#124 = VERTEX_POINT ( 'NONE', #235 ) ;
#125 = APPROVAL ( #9, 'UNSPECIFIED' ) ;
#126 = APPROVAL_DATE_TIME ( #34, #242 ) ;
#127 = APPROVAL_STATUS ( 'not_yet_approved' ) ;
#128 = CIRCLE ( 'NONE', #143, 0.1117000000000003407 ) ;
#129 = PERSON_AND_ORGANIZATION ( #4, #365 ) ;
#130 = DIRECTION ( 'NONE',  ( -6.982962677686265922E-15, -1.000000000000000000, 3.500519750498682344E-15 ) ) ;
#131 = DIRECTION ( 'NONE',  ( -1.000000000000000000, 6.982962677686265922E-15, -4.876176775795935793E-29 ) ) ;
#132 = ADVANCED_FACE ( 'NONE', ( #382 ), #114, .F. ) ;
#133 = PERSON_AND_ORGANIZATION ( #4, #365 ) ;
#134 = CONICAL_SURFACE ( 'NONE', #93, 0.1122000000000000081, 0.7853981633974450594 ) ;
#135 = AXIS2_PLACEMENT_3D ( 'NONE', #381, #186, #24 ) ;
#136 = EDGE_LOOP ( 'NONE', ( #327, #229, #44, #63 ) ) ;
#137 = EDGE_CURVE ( 'NONE', #320, #124, #59, .T. ) ;
#138 = CARTESIAN_POINT ( 'NONE',  ( 7.972289495228743741E-16, 0.1121999999999939851, -1.720399999999999707 ) ) ;
#139 = CARTESIAN_POINT ( 'NONE',  ( -0.08094999999999999418, 6.198252246781266344E-16, 2.388061258295906424E-19 ) ) ;
#140 = MANIFOLD_SOLID_BREP ( 'Body-Move/Copy2[1]', #225 ) ;
#141 = ADVANCED_FACE ( 'NONE', ( #111 ), #185, .T. ) ;
#142 = CARTESIAN_POINT ( 'NONE',  ( 4.205961799757815063E-29, -6.004998754676324634E-15, -1.719899999999999540 ) ) ;
#143 = AXIS2_PLACEMENT_3D ( 'NONE', #322, #55, #356 ) ;
#144 = VERTEX_POINT ( 'NONE', #378 ) ;
#145 = CARTESIAN_POINT ( 'NONE',  ( -0.1122000000000000081, 6.743796205975501000E-16, -0.03125000000000021511 ) ) ;
#146 = EDGE_CURVE ( 'NONE', #124, #144, #5, .T. ) ;
#147 = CARTESIAN_POINT ( 'NONE',  ( -0.1117000000000003407, -5.210419032327601299E-15, -1.720399999999999485 ) ) ;
#148 = DIRECTION ( 'NONE',  ( -2.445468806185136597E-29, 3.491481338843145583E-15, 1.000000000000000000 ) ) ;
#149 = ORIENTED_EDGE ( 'NONE', *, *, #299, .F. ) ;
#150 = FACE_OUTER_BOUND ( 'NONE', #105, .T. ) ;
#151 = CIRCLE ( 'NONE', #135, 0.08094999999999999418 ) ;
#152 = DIRECTION ( 'NONE',  ( -0.7071067811865232589, 7.493145998870265808E-15, 0.7071067811865715536 ) ) ;
#153 = DATE_AND_TIME ( #36, #226 ) ;
#154 = UNCERTAINTY_MEASURE_WITH_UNIT (LENGTH_MEASURE( 1.000000000000000082E-05 ), #192, 'distance_accuracy_value', 'NONE');
#155 = DIRECTION ( 'NONE',  ( -2.445468806185136877E-29, 3.491481338843145188E-15, 1.000000000000000000 ) ) ;
#156 = ADVANCED_FACE ( 'NONE', ( #292 ), #170, .T. ) ;
#157 = PERSON_AND_ORGANIZATION ( #4, #365 ) ;
#158 = CONICAL_SURFACE ( 'NONE', #380, 124.8659371009158576, 1.265363707695893458 ) ;
#159 =( GEOMETRIC_REPRESENTATION_CONTEXT ( 3 ) GLOBAL_UNCERTAINTY_ASSIGNED_CONTEXT ( ( #154 ) ) GLOBAL_UNIT_ASSIGNED_CONTEXT ( ( #192, #335, #164 ) ) REPRESENTATION_CONTEXT ( 'NONE', 'WORKASPACE' ) );
#160 = DATE_AND_TIME ( #37, #258 ) ;
#161 = FACE_OUTER_BOUND ( 'NONE', #241, .T. ) ;
#162 = DIRECTION ( 'NONE',  ( 1.000000000000000000, -6.982962677686271444E-15, 0.000000000000000000 ) ) ;
#163 = EDGE_CURVE ( 'NONE', #386, #318, #319, .T. ) ;
#164 =( NAMED_UNIT ( * ) SI_UNIT ( $, .STERADIAN. ) SOLID_ANGLE_UNIT ( ) );
#165 = EDGE_LOOP ( 'NONE', ( #204, #373, #21, #16 ) ) ;
#166 = CALENDAR_DATE ( 2024, 23, 4 ) ;
#167 = CARTESIAN_POINT ( 'NONE',  ( -2.919964657261599251E-48, 4.168935659749557485E-34, 1.194030629168671644E-19 ) ) ;
#168 = ADVANCED_FACE ( 'NONE', ( #349 ), #134, .T. ) ;
#169 = ORIENTED_EDGE ( 'NONE', *, *, #95, .T. ) ;
#170 = CYLINDRICAL_SURFACE ( 'NONE', #371, 0.1122000000000001052 ) ;
#171 = CARTESIAN_POINT ( 'NONE',  ( 6.354396216641693335E-29, -9.072140584635908967E-15, -2.598399999999999821 ) ) ;
#172 = DIRECTION ( 'NONE',  ( -6.982962677686265133E-15, -1.000000000000000000, 2.434802133390608632E-15 ) ) ;
#173 = VECTOR ( 'NONE', #29, 39.37007874015748143 ) ;
#174 = DIRECTION ( 'NONE',  ( 6.776566513254261293E-15, 0.9537169507482292641, 0.3007057995042654586 ) ) ;
#175 = EDGE_LOOP ( 'NONE', ( #265, #203, #372, #357 ) ) ;
#176 = ORIENTED_EDGE ( 'NONE', *, *, #390, .T. ) ;
#177 = ORIENTED_EDGE ( 'NONE', *, *, #269, .T. ) ;
#178 = CARTESIAN_POINT ( 'NONE',  ( 0.1122000000000002023, -6.788487167112725412E-15, -1.719899999999999540 ) ) ;
#179 = VECTOR ( 'NONE', #279, 39.37007874015748854 ) ;
#180 = ORIENTED_EDGE ( 'NONE', *, *, #137, .F. ) ;
#181 = COORDINATED_UNIVERSAL_TIME_OFFSET ( 5, 0, .BEHIND. ) ;
#182 = CARTESIAN_POINT ( 'NONE',  ( -0.1122000000000002023, -5.207769805153490886E-15, -1.719899999999999540 ) ) ;
#183 = VERTEX_POINT ( 'NONE', #85 ) ;
#184 = CARTESIAN_POINT ( 'NONE',  ( 7.642090019328603538E-31, -1.091087918388490390E-16, -0.03125000000000021511 ) ) ;
#185 = CYLINDRICAL_SURFACE ( 'NONE', #48, 0.1122000000000000081 ) ;
#186 = DIRECTION ( 'NONE',  ( -2.445468806185136597E-29, 3.491481338843145583E-15, 1.000000000000000000 ) ) ;
#187 = VECTOR ( 'NONE', #298, 39.37007874015748143 ) ;
#188 = CONICAL_SURFACE ( 'NONE', #247, 0.1122000000000002023, 0.7853981633974141952 ) ;
#189 =( LENGTH_UNIT ( ) NAMED_UNIT ( * ) SI_UNIT ( $, .METRE. ) );
#190 = APPROVAL_ROLE ( '' ) ;
#191 = EDGE_CURVE ( 'NONE', #144, #124, #197, .T. ) ;
#192 =( CONVERSION_BASED_UNIT ( 'INCH', #363 ) LENGTH_UNIT ( ) NAMED_UNIT ( #249 ) );
#193 = VECTOR ( 'NONE', #19, 39.37007874015748143 ) ;
#194 = CIRCLE ( 'NONE', #308, 0.1117000000000003407 ) ;
#195 = DIRECTION ( 'NONE',  ( -2.445365581837369266E-29, 3.491629161984313395E-15, 1.000000000000000000 ) ) ;
#196 = DIRECTION ( 'NONE',  ( 0.7071067811865232589, -2.468850131082003836E-15, 0.7071067811865715536 ) ) ;
#197 = CIRCLE ( 'NONE', #334, 0.1122000000000000081 ) ;
#198 = DATE_AND_TIME ( #166, #117 ) ;
#199 = ADVANCED_FACE ( 'NONE', ( #297 ), #112, .T. ) ;
#200 = ORIENTED_EDGE ( 'NONE', *, *, #73, .F. ) ;
#201 = ORIENTED_EDGE ( 'NONE', *, *, #283, .F. ) ;
#202 = CC_DESIGN_DATE_AND_TIME_ASSIGNMENT ( #198, #285, ( #11 ) ) ;
#203 = ORIENTED_EDGE ( 'NONE', *, *, #35, .T. ) ;
#204 = ORIENTED_EDGE ( 'NONE', *, *, #163, .F. ) ;
#205 = DIRECTION ( 'NONE',  ( 1.000000000000000000, -6.982962677686266711E-15, 4.876176775795935232E-29 ) ) ;
#206 = VERTEX_POINT ( 'NONE', #268 ) ;
#207 = LINE ( 'NONE', #20, #187 ) ;
#208 = EDGE_CURVE ( 'NONE', #237, #144, #57, .T. ) ;
#209 = EDGE_LOOP ( 'NONE', ( #58, #25 ) ) ;
#210 = CARTESIAN_POINT ( 'NONE',  ( -0.1122000000000001052, 7.972289495228331561E-16, -5.519045171266009325E-30 ) ) ;
#211 = AXIS2_PLACEMENT_3D ( 'NONE', #329, #270, #1 ) ;
#212 = DIRECTION ( 'NONE',  ( 2.445468806185136597E-29, -3.491481338843145583E-15, -1.000000000000000000 ) ) ;
#213 = ORIENTED_EDGE ( 'NONE', *, *, #12, .T. ) ;
#214 = CC_DESIGN_PERSON_AND_ORGANIZATION_ASSIGNMENT ( #6, #123, ( #49 ) ) ;
#215 = ADVANCED_BREP_SHAPE_REPRESENTATION ( '68705', ( #140, #274, #342 ), #159 ) ;
#216 = CARTESIAN_POINT ( 'NONE',  ( 7.642090019328603538E-31, -1.091087918388490390E-16, -0.03125000000000021511 ) ) ;
#217 = DIRECTION ( 'NONE',  ( 2.445468806185136597E-29, -3.491481338843145583E-15, -1.000000000000000000 ) ) ;
#218 = ADVANCED_FACE ( 'NONE', ( #294 ), #246, .T. ) ;
#219 = ORIENTED_EDGE ( 'NONE', *, *, #271, .T. ) ;
#220 = AXIS2_PLACEMENT_3D ( 'NONE', #142, #326, #300 ) ;
#221 = AXIS2_PLACEMENT_3D ( 'NONE', #377, #345, #78 ) ;
#222 = CARTESIAN_POINT ( 'NONE',  ( 0.000000000000000000, 0.000000000000000000, 0.000000000000000000 ) ) ;
#223 = ORIENTED_EDGE ( 'NONE', *, *, #304, .F. ) ;
#224 = PERSON_AND_ORGANIZATION ( #4, #365 ) ;
#225 = CLOSED_SHELL ( 'NONE', ( #233, #64, #8, #141, #132 ) ) ;
#226 = LOCAL_TIME ( 9, 44, 31.00000000000000000, #370 ) ;
#227 = DIRECTION ( 'NONE',  ( -2.445365581837369266E-29, 3.491629161984313395E-15, 1.000000000000000000 ) ) ;
#228 = CARTESIAN_POINT ( 'NONE',  ( 4.205961799757815063E-29, -6.004998754676324634E-15, -1.719899999999999540 ) ) ;
#229 = ORIENTED_EDGE ( 'NONE', *, *, #283, .T. ) ;
#230 = CIRCLE ( 'NONE', #61, 0.1122000000000002023 ) ;
#231 = APPROVAL_ROLE ( '' ) ;
#232 = ORIENTED_EDGE ( 'NONE', *, *, #79, .T. ) ;
#233 = ADVANCED_FACE ( 'NONE', ( #243 ), #389, .T. ) ;
#234 = CARTESIAN_POINT ( 'NONE',  ( 0.000000000000000000, 0.000000000000000000, 0.000000000000000000 ) ) ;
#235 = CARTESIAN_POINT ( 'NONE',  ( 0.1122000000000000081, -8.925972042752483013E-16, -0.03125000000000021511 ) ) ;
#236 = DIRECTION ( 'NONE',  ( -2.445365581837369266E-29, 3.491629161984313395E-15, 1.000000000000000000 ) ) ;
#237 = VERTEX_POINT ( 'NONE', #182 ) ;
#238 = CARTESIAN_POINT ( 'NONE',  ( 4.205961799757815063E-29, -6.004998754676324634E-15, -1.719899999999999540 ) ) ;
#239 = DIRECTION ( 'NONE',  ( -2.445468806185136597E-29, 3.491481338843145583E-15, 1.000000000000000000 ) ) ;
#240 = APPROVAL_PERSON_ORGANIZATION ( #224, #121, #190 ) ;
#241 = EDGE_LOOP ( 'NONE', ( #376, #213, #18 ) ) ;
#242 = APPROVAL ( #313, 'UNSPECIFIED' ) ;
#243 = FACE_OUTER_BOUND ( 'NONE', #383, .T. ) ;
#244 = CARTESIAN_POINT ( 'NONE',  ( 4.207184534160907865E-29, -6.006744495345746138E-15, -1.720399999999999485 ) ) ;
#245 = CARTESIAN_POINT ( 'NONE',  ( 4.207184534160907865E-29, -6.006744495345746138E-15, -1.720399999999999485 ) ) ;
#246 = CONICAL_SURFACE ( 'NONE', #254, 0.1122000000000000081, 0.7853981633974450594 ) ;
#247 = AXIS2_PLACEMENT_3D ( 'NONE', #89, #262, #296 ) ;
#248 = ORIENTED_EDGE ( 'NONE', *, *, #390, .F. ) ;
#249 = DIMENSIONAL_EXPONENTS ( 1.000000000000000000, 0.000000000000000000, 0.000000000000000000, 0.000000000000000000, 0.000000000000000000, 0.000000000000000000, 0.000000000000000000 ) ;
#250 = CARTESIAN_POINT ( 'NONE',  ( 7.972289495228948844E-16, 0.1121999999999910153, -2.563023475887778790 ) ) ;
#251 = CARTESIAN_POINT ( 'NONE',  ( -8.992001999039411456E-28, 1.283933201391845272E-13, 36.77167874015748339 ) ) ;
#252 = PERSON_AND_ORGANIZATION_ROLE ( 'creator' ) ;
#253 = LINE ( 'NONE', #13, #179 ) ;
#254 = AXIS2_PLACEMENT_3D ( 'NONE', #216, #217, #26 ) ;
#255 = LOCAL_TIME ( 9, 44, 31.00000000000000000, #181 ) ;
#256 = LINE ( 'NONE', #145, #173 ) ;
#257 = AXIS2_PLACEMENT_3D ( 'NONE', #60, #236, #84 ) ;
#258 = LOCAL_TIME ( 9, 44, 31.00000000000000000, #273 ) ;
#259 = DIRECTION ( 'NONE',  ( -2.445365581837369266E-29, 3.491629161984313395E-15, 1.000000000000000000 ) ) ;
#260 = ADVANCED_FACE ( 'NONE', ( #150 ), #82, .T. ) ;
#261 = AXIS2_PLACEMENT_3D ( 'NONE', #341, #288, #45 ) ;
#262 = DIRECTION ( 'NONE',  ( -2.445468806185136597E-29, 3.491481338843145583E-15, 1.000000000000000000 ) ) ;
#263 = LOCAL_TIME ( 9, 44, 31.00000000000000000, #305 ) ;
#264 = LINE ( 'NONE', #171, #103 ) ;
#265 = ORIENTED_EDGE ( 'NONE', *, *, #208, .F. ) ;
#266 = DIRECTION ( 'NONE',  ( -2.445365581837369266E-29, 3.491629161984313395E-15, 1.000000000000000000 ) ) ;
#267 = ORIENTED_EDGE ( 'NONE', *, *, #98, .T. ) ;
#268 = CARTESIAN_POINT ( 'NONE',  ( -7.834884124363361904E-16, -0.1122000000000089315, -2.563023475887777902 ) ) ;
#269 = EDGE_CURVE ( 'NONE', #320, #237, #30, .T. ) ;
#270 = DIRECTION ( 'NONE',  ( -2.445468806185136597E-29, 3.491481338843145583E-15, 1.000000000000000000 ) ) ;
#271 = EDGE_CURVE ( 'NONE', #338, #374, #128, .T. ) ;
#272 = DIRECTION ( 'NONE',  ( -6.982962677686265133E-15, -1.000000000000000000, 4.869604266781217263E-15 ) ) ;
#273 = COORDINATED_UNIVERSAL_TIME_OFFSET ( 5, 0, .BEHIND. ) ;
#274 = MANIFOLD_SOLID_BREP ( 'Body-Move/Copy2[2]', #364 ) ;
#275 = EDGE_CURVE ( 'NONE', #183, #318, #347, .T. ) ;
#276 = APPROVAL_ROLE ( '' ) ;
#277 = VECTOR ( 'NONE', #196, 39.37007874015748854 ) ;
#278 = PERSON_AND_ORGANIZATION_ROLE ( 'creator' ) ;
#279 = DIRECTION ( 'NONE',  ( -6.659769872151635244E-15, -0.9537169507482271547, 0.3007057995042720644 ) ) ;
#280 = FACE_OUTER_BOUND ( 'NONE', #289, .T. ) ;
#281 = PRODUCT_DEFINITION ( 'UNKNOWN', '', #49, #3 ) ;
#282 = DATE_TIME_ROLE ( 'creation_date' ) ;
#283 = EDGE_CURVE ( 'NONE', #316, #124, #207, .T. ) ;
#284 = DIRECTION ( 'NONE',  ( 2.438088387897960049E-29, -3.491481338843145188E-15, -1.000000000000000000 ) ) ;
#285 = DATE_TIME_ROLE ( 'classification_date' ) ;
#286 = PRODUCT_RELATED_PRODUCT_CATEGORY ( 'detail', '', ( #104 ) ) ;
#287 = CARTESIAN_POINT ( 'NONE',  ( 7.145324712865302581E-29, -1.799160530887386216E-15, -1.720399999999999485 ) ) ;
#288 = DIRECTION ( 'NONE',  ( -2.445468806185136597E-29, 3.491481338843145583E-15, 1.000000000000000000 ) ) ;
#289 = EDGE_LOOP ( 'NONE', ( #51, #310 ) ) ;
#290 = CC_DESIGN_APPROVAL ( #125, ( #49 ) ) ;
#291 = CARTESIAN_POINT ( 'NONE',  ( 6.354037927846219520E-29, -9.072649214500040232E-15, -2.598399999999999821 ) ) ;
#292 = FACE_OUTER_BOUND ( 'NONE', #175, .T. ) ;
#293 = CARTESIAN_POINT ( 'NONE',  ( -7.834884124363568980E-16, -0.1122000000000060171, -1.720399999999999263 ) ) ;
#294 = FACE_OUTER_BOUND ( 'NONE', #136, .T. ) ;
#295 = AXIS2_PLACEMENT_3D ( 'NONE', #244, #266, #361 ) ;
#296 = DIRECTION ( 'NONE',  ( 1.000000000000000000, -6.982962677686271444E-15, 0.000000000000000000 ) ) ;
#297 = FACE_OUTER_BOUND ( 'NONE', #50, .T. ) ;
#298 = DIRECTION ( 'NONE',  ( 0.7071067811865452413, -7.319954787623248157E-15, -0.7071067811865497932 ) ) ;
#299 = EDGE_CURVE ( 'NONE', #338, #237, #387, .T. ) ;
#300 = DIRECTION ( 'NONE',  ( 1.000000000000000000, -6.982962677686271444E-15, 0.000000000000000000 ) ) ;
#301 = AXIS2_PLACEMENT_3D ( 'NONE', #238, #148, #325 ) ;
#302 = APPROVAL_PERSON_ORGANIZATION ( #129, #242, #231 ) ;
#303 = PERSON_AND_ORGANIZATION ( #4, #365 ) ;
#304 = EDGE_CURVE ( 'NONE', #115, #316, #32, .T. ) ;
#305 = COORDINATED_UNIVERSAL_TIME_OFFSET ( 5, 0, .BEHIND. ) ;
#306 = SHAPE_DEFINITION_REPRESENTATION ( #119, #215 ) ;
#307 = EDGE_CURVE ( 'NONE', #386, #206, #109, .T. ) ;
#308 = AXIS2_PLACEMENT_3D ( 'NONE', #31, #39, #309 ) ;
#309 = DIRECTION ( 'NONE',  ( 1.000000000000000000, -6.982962677686267499E-15, 0.000000000000000000 ) ) ;
#310 = ORIENTED_EDGE ( 'NONE', *, *, #271, .F. ) ;
#311 = LINE ( 'NONE', #336, #277 ) ;
#312 = CC_DESIGN_SECURITY_CLASSIFICATION ( #11, ( #49 ) ) ;
#313 = APPROVAL_STATUS ( 'not_yet_approved' ) ;
#314 = ORIENTED_EDGE ( 'NONE', *, *, #35, .F. ) ;
#315 = ORIENTED_EDGE ( 'NONE', *, *, #73, .T. ) ;
#316 = VERTEX_POINT ( 'NONE', #28 ) ;
#317 = CARTESIAN_POINT ( 'NONE',  ( 4.207184534160907865E-29, -6.006744495345746138E-15, -1.720399999999999485 ) ) ;
#318 = VERTEX_POINT ( 'NONE', #90 ) ;
#319 = LINE ( 'NONE', #138, #379 ) ;
#320 = VERTEX_POINT ( 'NONE', #178 ) ;
#321 = ORIENTED_EDGE ( 'NONE', *, *, #208, .T. ) ;
#322 = CARTESIAN_POINT ( 'NONE',  ( 4.207184534160907865E-29, -6.006744495345746138E-15, -1.720399999999999485 ) ) ;
#323 = ADVANCED_FACE ( 'NONE', ( #360 ), #188, .T. ) ;
#324 = VECTOR ( 'NONE', #155, 39.37007874015748143 ) ;
#325 = DIRECTION ( 'NONE',  ( 1.000000000000000000, -6.982962677686271444E-15, 0.000000000000000000 ) ) ;
#326 = DIRECTION ( 'NONE',  ( -2.445468806185136597E-29, 3.491481338843145583E-15, 1.000000000000000000 ) ) ;
#327 = ORIENTED_EDGE ( 'NONE', *, *, #331, .F. ) ;
#328 = DIRECTION ( 'NONE',  ( -2.445468806185136597E-29, 3.491481338843145583E-15, 1.000000000000000000 ) ) ;
#329 = CARTESIAN_POINT ( 'NONE',  ( 0.000000000000000000, 0.000000000000000000, 0.000000000000000000 ) ) ;
#330 = VECTOR ( 'NONE', #110, 39.37007874015748143 ) ;
#331 = EDGE_CURVE ( 'NONE', #316, #115, #151, .T. ) ;
#332 = APPLICATION_PROTOCOL_DEFINITION ( 'international standard', 'config_control_design', 1994, #67 ) ;
#333 = CALENDAR_DATE ( 2024, 23, 4 ) ;
#334 = AXIS2_PLACEMENT_3D ( 'NONE', #120, #328, #351 ) ;
#335 =( NAMED_UNIT ( * ) PLANE_ANGLE_UNIT ( ) SI_UNIT ( $, .RADIAN. ) );
#336 = CARTESIAN_POINT ( 'NONE',  ( 0.1122000000000002023, -6.788487167112725412E-15, -1.719899999999999540 ) ) ;
#337 = PLANE ( 'NONE',  #14 ) ;
#338 = VERTEX_POINT ( 'NONE', #147 ) ;
#339 = ORIENTED_EDGE ( 'NONE', *, *, #12, .F. ) ;
#340 = APPLICATION_CONTEXT ( 'configuration controlled 3d designs of mechanical parts and assemblies' ) ;
#341 = CARTESIAN_POINT ( 'NONE',  ( 7.642090019328603538E-31, -1.091087918388490390E-16, -0.03125000000000021511 ) ) ;
#342 = AXIS2_PLACEMENT_3D ( 'NONE', #222, #94, #99 ) ;
#343 = ORIENTED_EDGE ( 'NONE', *, *, #299, .T. ) ;
#344 = EDGE_LOOP ( 'NONE', ( #367, #343, #369, #200 ) ) ;
#345 = DIRECTION ( 'NONE',  ( -2.445365581837369266E-29, 3.491629161984313395E-15, 1.000000000000000000 ) ) ;
#346 = DIRECTION ( 'NONE',  ( -2.438088387897960049E-29, 3.491481338843145188E-15, 1.000000000000000000 ) ) ;
#347 = CIRCLE ( 'NONE', #295, 0.1122000000000000081 ) ;
#348 = EDGE_CURVE ( 'NONE', #374, #338, #194, .T. ) ;
#349 = FACE_OUTER_BOUND ( 'NONE', #91, .T. ) ;
#350 = ORIENTED_EDGE ( 'NONE', *, *, #275, .F. ) ;
#351 = DIRECTION ( 'NONE',  ( 1.000000000000000000, -6.982962677686266711E-15, 0.000000000000000000 ) ) ;
#352 = CC_DESIGN_DATE_AND_TIME_ASSIGNMENT ( #153, #282, ( #281 ) ) ;
#353 = CARTESIAN_POINT ( 'NONE',  ( -5.839929314523198503E-48, 8.337871319499114970E-34, 2.388061258337343288E-19 ) ) ;
#354 = CALENDAR_DATE ( 2024, 23, 4 ) ;
#355 = CIRCLE ( 'NONE', #221, 0.1122000000000000081 ) ;
#356 = DIRECTION ( 'NONE',  ( 1.000000000000000000, -6.982962677686267499E-15, 0.000000000000000000 ) ) ;
#357 = ORIENTED_EDGE ( 'NONE', *, *, #191, .F. ) ;
#358 = AXIS2_PLACEMENT_3D ( 'NONE', #353, #239, #53 ) ;
#359 = DIRECTION ( 'NONE',  ( 6.982962677686265922E-15, 1.000000000000000000, -3.491629161984313395E-15 ) ) ;
#360 = FACE_OUTER_BOUND ( 'NONE', #344, .T. ) ;
#361 = DIRECTION ( 'NONE',  ( -6.982962677686265133E-15, -1.000000000000000000, 2.434802133390608632E-15 ) ) ;
#362 = DIRECTION ( 'NONE',  ( 2.445365581837368986E-29, -3.491629161984313395E-15, -1.000000000000000000 ) ) ;
#363 = LENGTH_MEASURE_WITH_UNIT ( LENGTH_MEASURE( 0.02539999999999999897 ), #189 );
#364 = CLOSED_SHELL ( 'NONE', ( #218, #199, #323, #88, #260, #156, #168, #76 ) ) ;
#365 = ORGANIZATION ( 'UNSPECIFIED', 'UNSPECIFIED', '' ) ;
#366 = DIRECTION ( 'NONE',  ( -6.982962677686265133E-15, -1.000000000000000000, 4.869604266781217263E-15 ) ) ;
#367 = ORIENTED_EDGE ( 'NONE', *, *, #348, .T. ) ;
#368 = PERSON_AND_ORGANIZATION_ROLE ( 'design_owner' ) ;
#369 = ORIENTED_EDGE ( 'NONE', *, *, #269, .F. ) ;
#370 = COORDINATED_UNIVERSAL_TIME_OFFSET ( 5, 0, .BEHIND. ) ;
#371 = AXIS2_PLACEMENT_3D ( 'NONE', #234, #80, #205 ) ;
#372 = ORIENTED_EDGE ( 'NONE', *, *, #137, .T. ) ;
#373 = ORIENTED_EDGE ( 'NONE', *, *, #307, .T. ) ;
#374 = VERTEX_POINT ( 'NONE', #122 ) ;
#375 = CC_DESIGN_APPROVAL ( #242, ( #11 ) ) ;
#376 = ORIENTED_EDGE ( 'NONE', *, *, #98, .F. ) ;
#377 = CARTESIAN_POINT ( 'NONE',  ( 4.207184534160907865E-29, -6.006744495345746138E-15, -1.720399999999999485 ) ) ;
#378 = CARTESIAN_POINT ( 'NONE',  ( -0.1122000000000000081, -2.259824823734752725E-15, -0.03125000000000021511 ) ) ;
#379 = VECTOR ( 'NONE', #259, 39.37007874015748143 ) ;
#380 = AXIS2_PLACEMENT_3D ( 'NONE', #251, #227, #130 ) ;
#381 = CARTESIAN_POINT ( 'NONE',  ( -5.839929314523198503E-48, 8.337871319499114970E-34, 2.388061258337343288E-19 ) ) ;
#382 = FACE_OUTER_BOUND ( 'NONE', #97, .T. ) ;
#383 = EDGE_LOOP ( 'NONE', ( #176, #52, #350, #66 ) ) ;
#384 = DIRECTION ( 'NONE',  ( -1.000000000000000000, 6.982962677686266711E-15, 0.000000000000000000 ) ) ;
#385 = CC_DESIGN_PERSON_AND_ORGANIZATION_ASSIGNMENT ( #133, #106, ( #11 ) ) ;
#386 = VERTEX_POINT ( 'NONE', #250 ) ;
#387 = LINE ( 'NONE', #113, #54 ) ;
#388 = AXIS2_PLACEMENT_3D ( 'NONE', #72, #101, #38 ) ;
#389 = CYLINDRICAL_SURFACE ( 'NONE', #257, 0.1122000000000000081 ) ;
#390 = EDGE_CURVE ( 'NONE', #206, #386, #75, .T. ) ;
ENDSEC;
END-ISO-10303-21;
