ISO-10303-21;
HEADER;
FILE_DESCRIPTION (( 'STEP AP203' ),
    '1' );
FILE_NAME ('69027.STEP',
    '2024-04-23T14:27:19',
    ( '' ),
    ( '' ),
    'SwSTEP 2.0',
    'SolidWorks 2023',
    '' );
FILE_SCHEMA (( 'CONFIG_CONTROL_DESIGN' ));
ENDSEC;

DATA;
#1 = EDGE_CURVE ( 'NONE', #264, #238, #116, .T. ) ;
#2 = CALENDAR_DATE ( 2024, 23, 4 ) ;
#3 = ORIENTED_EDGE ( 'NONE', *, *, #1, .T. ) ;
#4 = LOCAL_TIME ( 10, 27, 19.00000000000000000, #166 ) ;
#5 = DATE_AND_TIME ( #32, #4 ) ;
#6 = DIRECTION ( 'NONE',  ( 6.863315791527698204E-15, 0.9659258262890701996, 0.2588190451025132455 ) ) ;
#7 = EDGE_CURVE ( 'NONE', #185, #71, #104, .T. ) ;
#8 = CARTESIAN_POINT ( 'NONE',  ( 0.000000000000000000, 0.000000000000000000, 0.000000000000000000 ) ) ;
#9 = ORIENTED_EDGE ( 'NONE', *, *, #119, .T. ) ;
#10 = DATE_TIME_ROLE ( 'classification_date' ) ;
#11 = ORIENTED_EDGE ( 'NONE', *, *, #119, .F. ) ;
#12 = CIRCLE ( 'NONE', #255, 0.1811000000000002885 ) ;
#13 = CIRCLE ( 'NONE', #109, 0.1806000000000002603 ) ;
#14 = ORIENTED_EDGE ( 'NONE', *, *, #55, .T. ) ;
#15 = CARTESIAN_POINT ( 'NONE',  ( 0.000000000000000000, 0.000000000000000000, 0.000000000000000000 ) ) ;
#16 = EDGE_CURVE ( 'NONE', #71, #185, #12, .T. ) ;
#17 = CARTESIAN_POINT ( 'NONE',  ( 5.122034414554768952E-29, -7.312907664206969539E-15, -2.094500000000000473 ) ) ;
#18 =( GEOMETRIC_REPRESENTATION_CONTEXT ( 3 ) GLOBAL_UNCERTAINTY_ASSIGNED_CONTEXT ( ( #365 ) ) GLOBAL_UNIT_ASSIGNED_CONTEXT ( ( #27, #388, #181 ) ) REPRESENTATION_CONTEXT ( 'NONE', 'WORKASPACE' ) );
#19 = DIRECTION ( 'NONE',  ( -6.982962677686266711E-15, -1.000000000000000000, 3.016949744521549444E-15 ) ) ;
#20 = EDGE_CURVE ( 'NONE', #336, #59, #43, .T. ) ;
#21 = DIRECTION ( 'NONE',  ( -2.445468806185136597E-29, 3.491481338843145583E-15, 1.000000000000000000 ) ) ;
#22 = CARTESIAN_POINT ( 'NONE',  ( 7.642090019328606165E-31, -1.091087918388490760E-16, -0.03125000000000022204 ) ) ;
#23 = AXIS2_PLACEMENT_3D ( 'NONE', #135, #194, #285 ) ;
#24 = FACE_OUTER_BOUND ( 'NONE', #309, .T. ) ;
#25 = EDGE_LOOP ( 'NONE', ( #72, #249, #325, #213 ) ) ;
#26 = PLANE ( 'NONE',  #250 ) ;
#27 =( CONVERSION_BASED_UNIT ( 'INCH', #328 ) LENGTH_UNIT ( ) NAMED_UNIT ( #177 ) );
#28 = DIRECTION ( 'NONE',  ( -2.445528461643559356E-29, 3.491395908831306356E-15, 1.000000000000000000 ) ) ;
#29 = AXIS2_PLACEMENT_3D ( 'NONE', #352, #178, #205 ) ;
#30 = CARTESIAN_POINT ( 'NONE',  ( 5.122034414554767831E-29, -7.312907664206967962E-15, -2.094500000000000028 ) ) ;
#31 = CC_DESIGN_PERSON_AND_ORGANIZATION_ASSIGNMENT ( #187, #159, ( #57 ) ) ;
#32 = CALENDAR_DATE ( 2024, 23, 4 ) ;
#33 = EDGE_LOOP ( 'NONE', ( #94, #155, #65, #274 ) ) ;
#34 = PERSON_AND_ORGANIZATION ( #208, #51 ) ;
#35 = CARTESIAN_POINT ( 'NONE',  ( 8.087609366800628081E-29, -1.154639541009601470E-14, -3.307100000000000151 ) ) ;
#36 = CC_DESIGN_SECURITY_CLASSIFICATION ( #57, ( #125 ) ) ;
#37 = EDGE_CURVE ( 'NONE', #277, #324, #186, .T. ) ;
#38 = APPROVAL_STATUS ( 'not_yet_approved' ) ;
#39 = CARTESIAN_POINT ( 'NONE',  ( -0.1811000000000000387, 1.155505749090134036E-15, -0.03125000000000022204 ) ) ;
#40 = APPROVAL_STATUS ( 'not_yet_approved' ) ;
#41 = ORIENTED_EDGE ( 'NONE', *, *, #111, .T. ) ;
#42 = ORIENTED_EDGE ( 'NONE', *, *, #350, .F. ) ;
#43 = CIRCLE ( 'NONE', #241, 0.1811000000000000110 ) ;
#44 = AXIS2_PLACEMENT_3D ( 'NONE', #224, #105, #380 ) ;
#45 = EDGE_CURVE ( 'NONE', #336, #218, #330, .T. ) ;
#46 = LINE ( 'NONE', #171, #148 ) ;
#47 = CARTESIAN_POINT ( 'NONE',  ( 5.120811680151677271E-29, -7.311161923537547247E-15, -2.094000000000000306 ) ) ;
#48 = COORDINATED_UNIVERSAL_TIME_OFFSET ( 5, 0, .BEHIND. ) ;
#49 = DIRECTION ( 'NONE',  ( -2.445528461643559356E-29, 3.491395908831306356E-15, 1.000000000000000000 ) ) ;
#50 = EDGE_CURVE ( 'NONE', #283, #59, #214, .T. ) ;
#51 = ORGANIZATION ( 'UNSPECIFIED', 'UNSPECIFIED', '' ) ;
#52 = CARTESIAN_POINT ( 'NONE',  ( 8.087357278786081805E-29, -1.154675327641560806E-14, -3.307100000000000151 ) ) ;
#53 = CARTESIAN_POINT ( 'NONE',  ( -0.1498500000000000110, 1.100951353170710669E-15, 2.388061258262258021E-19 ) ) ;
#54 = CARTESIAN_POINT ( 'NONE',  ( 0.1811000000000001497, -1.264614540928983925E-15, 8.830756140966445819E-30 ) ) ;
#55 = EDGE_CURVE ( 'NONE', #190, #264, #188, .T. ) ;
#56 = EDGE_LOOP ( 'NONE', ( #364, #64, #42, #358 ) ) ;
#57 = SECURITY_CLASSIFICATION ( '', '', #70 ) ;
#58 = CARTESIAN_POINT ( 'NONE',  ( -2.919964657261599251E-48, 4.168935659749556630E-34, 1.194030629168671644E-19 ) ) ;
#59 = VERTEX_POINT ( 'NONE', #107 ) ;
#60 = CARTESIAN_POINT ( 'NONE',  ( 5.120811680151677271E-29, -7.311161923537547247E-15, -2.094000000000000306 ) ) ;
#61 = ADVANCED_BREP_SHAPE_REPRESENTATION ( '69027', ( #386, #376, #174 ), #18 ) ;
#62 = EDGE_CURVE ( 'NONE', #277, #71, #379, .T. ) ;
#63 = AXIS2_PLACEMENT_3D ( 'NONE', #58, #266, #86 ) ;
#64 = ORIENTED_EDGE ( 'NONE', *, *, #286, .T. ) ;
#65 = ORIENTED_EDGE ( 'NONE', *, *, #222, .F. ) ;
#66 = PERSON_AND_ORGANIZATION ( #208, #51 ) ;
#67 = DIRECTION ( 'NONE',  ( -2.445468806185136597E-29, 3.491481338843145583E-15, 1.000000000000000000 ) ) ;
#68 = DATE_AND_TIME ( #99, #98 ) ;
#69 = DIRECTION ( 'NONE',  ( 1.000000000000000000, -6.982962677686265133E-15, 0.000000000000000000 ) ) ;
#70 = SECURITY_CLASSIFICATION_LEVEL ( 'unclassified' ) ;
#71 = VERTEX_POINT ( 'NONE', #80 ) ;
#72 = ORIENTED_EDGE ( 'NONE', *, *, #361, .F. ) ;
#73 = ADVANCED_FACE ( 'NONE', ( #82 ), #268, .T. ) ;
#74 = LINE ( 'NONE', #52, #161 ) ;
#75 = VECTOR ( 'NONE', #346, 39.37007874015748143 ) ;
#76 = AXIS2_PLACEMENT_3D ( 'NONE', #198, #315, #169 ) ;
#77 = CARTESIAN_POINT ( 'NONE',  ( 7.642090019328606165E-31, -1.091087918388490760E-16, -0.03125000000000022204 ) ) ;
#78 = CARTESIAN_POINT ( 'NONE',  ( 0.1811000000000000387, -1.373723332767832237E-15, -0.03125000000000022204 ) ) ;
#79 = ADVANCED_FACE ( 'NONE', ( #288 ), #318, .T. ) ;
#80 = CARTESIAN_POINT ( 'NONE',  ( 0.1811000000000002885, -8.575776464466533341E-15, -2.094000000000000306 ) ) ;
#81 = CC_DESIGN_APPROVAL ( #296, ( #258 ) ) ;
#82 = FACE_OUTER_BOUND ( 'NONE', #150, .T. ) ;
#83 = ADVANCED_FACE ( 'NONE', ( #136 ), #142, .T. ) ;
#84 = FACE_OUTER_BOUND ( 'NONE', #92, .T. ) ;
#85 = ORIENTED_EDGE ( 'NONE', *, *, #343, .T. ) ;
#86 = DIRECTION ( 'NONE',  ( -1.000000000000000000, 6.982962677686265922E-15, -4.876176775795935793E-29 ) ) ;
#87 = ORIENTED_EDGE ( 'NONE', *, *, #343, .F. ) ;
#88 = EDGE_CURVE ( 'NONE', #190, #267, #290, .T. ) ;
#89 = DIRECTION ( 'NONE',  ( -2.438088387897960049E-29, 3.491481338843145188E-15, 1.000000000000000000 ) ) ;
#90 = VECTOR ( 'NONE', #152, 39.37007874015748143 ) ;
#91 = CIRCLE ( 'NONE', #347, 0.1811000000000000110 ) ;
#92 = EDGE_LOOP ( 'NONE', ( #276, #162, #123, #272 ) ) ;
#93 = SHAPE_DEFINITION_REPRESENTATION ( #115, #61 ) ;
#94 = ORIENTED_EDGE ( 'NONE', *, *, #16, .T. ) ;
#95 = APPROVAL_ROLE ( '' ) ;
#96 = AXIS2_PLACEMENT_3D ( 'NONE', #22, #196, #340 ) ;
#97 = EDGE_LOOP ( 'NONE', ( #252, #332, #191, #329 ) ) ;
#98 = LOCAL_TIME ( 10, 27, 19.00000000000000000, #48 ) ;
#99 = CALENDAR_DATE ( 2024, 23, 4 ) ;
#100 = DIRECTION ( 'NONE',  ( 1.000000000000000000, -6.982962677686266711E-15, 0.000000000000000000 ) ) ;
#101 = CC_DESIGN_PERSON_AND_ORGANIZATION_ASSIGNMENT ( #151, #182, ( #125 ) ) ;
#102 = VERTEX_POINT ( 'NONE', #260 ) ;
#103 = DIRECTION ( 'NONE',  ( -2.445528461643559356E-29, 3.491395908831306356E-15, 1.000000000000000000 ) ) ;
#104 = CIRCLE ( 'NONE', #137, 0.1811000000000002885 ) ;
#105 = DIRECTION ( 'NONE',  ( -2.445468806185136597E-29, 3.491481338843145583E-15, 1.000000000000000000 ) ) ;
#106 = PLANE ( 'NONE',  #275 ) ;
#107 = CARTESIAN_POINT ( 'NONE',  ( 1.286792894461620598E-15, 0.1810999999999886034, -3.258574401250725394 ) ) ;
#108 = VECTOR ( 'NONE', #157, 39.37007874015748143 ) ;
#109 = AXIS2_PLACEMENT_3D ( 'NONE', #30, #113, #121 ) ;
#110 = DIRECTION ( 'NONE',  ( -6.982962677686266711E-15, -1.000000000000000000, 3.016949744521549444E-15 ) ) ;
#111 = EDGE_CURVE ( 'NONE', #267, #190, #173, .T. ) ;
#112 = DIRECTION ( 'NONE',  ( -2.445528461643559356E-29, 3.491395908831306356E-15, 1.000000000000000000 ) ) ;
#113 = DIRECTION ( 'NONE',  ( -2.445468806185136597E-29, 3.491481338843145583E-15, 1.000000000000000000 ) ) ;
#114 = EDGE_LOOP ( 'NONE', ( #293, #389 ) ) ;
#115 = PRODUCT_DEFINITION_SHAPE ( 'NONE', 'NONE',  #258 ) ;
#116 = CIRCLE ( 'NONE', #369, 0.1811000000000000387 ) ;
#117 = CONICAL_SURFACE ( 'NONE', #76, 146.9311341562574853, 1.308996938995751425 ) ;
#118 = FACE_OUTER_BOUND ( 'NONE', #179, .T. ) ;
#119 = EDGE_CURVE ( 'NONE', #283, #336, #74, .T. ) ;
#120 = ORIENTED_EDGE ( 'NONE', *, *, #20, .F. ) ;
#121 = DIRECTION ( 'NONE',  ( 1.000000000000000000, -6.982962677686265133E-15, 0.000000000000000000 ) ) ;
#122 = APPROVAL_STATUS ( 'not_yet_approved' ) ;
#123 = ORIENTED_EDGE ( 'NONE', *, *, #45, .T. ) ;
#124 = AXIS2_PLACEMENT_3D ( 'NONE', #77, #319, #261 ) ;
#125 = PRODUCT_DEFINITION_FORMATION_WITH_SPECIFIED_SOURCE ( 'ANY', '', #195, .NOT_KNOWN. ) ;
#126 = ORIENTED_EDGE ( 'NONE', *, *, #111, .F. ) ;
#127 = DATE_AND_TIME ( #131, #204 ) ;
#128 = DIRECTION ( 'NONE',  ( -2.445528461643559356E-29, 3.491395908831306356E-15, 1.000000000000000000 ) ) ;
#129 = DIRECTION ( 'NONE',  ( 1.000000000000000000, 0.000000000000000000, 0.000000000000000000 ) ) ;
#130 = CARTESIAN_POINT ( 'NONE',  ( 7.642090019328606165E-31, -1.091087918388490760E-16, -0.03125000000000022204 ) ) ;
#131 = CALENDAR_DATE ( 2024, 23, 4 ) ;
#132 = ORIENTED_EDGE ( 'NONE', *, *, #88, .F. ) ;
#133 = APPROVAL_PERSON_ORGANIZATION ( #34, #231, #219 ) ;
#134 = CARTESIAN_POINT ( 'NONE',  ( 7.968811494284100748E-29, -1.137715226630900293E-14, -3.258574401250724950 ) ) ;
#135 = CARTESIAN_POINT ( 'NONE',  ( -5.839929314523198503E-48, 8.337871319499113259E-34, 2.388061258337343288E-19 ) ) ;
#136 = FACE_OUTER_BOUND ( 'NONE', #234, .T. ) ;
#137 = AXIS2_PLACEMENT_3D ( 'NONE', #307, #305, #100 ) ;
#138 = FACE_OUTER_BOUND ( 'NONE', #372, .T. ) ;
#139 = DIRECTION ( 'NONE',  ( -6.745023994389843866E-15, -0.9659258262890684232, 0.2588190451025200178 ) ) ;
#140 = DIRECTION ( 'NONE',  ( 1.000000000000000000, -6.982962677686266711E-15, 0.000000000000000000 ) ) ;
#141 = ADVANCED_FACE ( 'NONE', ( #344 ), #117, .T. ) ;
#142 = CONICAL_SURFACE ( 'NONE', #124, 0.1811000000000000387, 0.7853981633974453924 ) ;
#143 = AXIS2_PLACEMENT_3D ( 'NONE', #351, #354, #110 ) ;
#144 = FACE_OUTER_BOUND ( 'NONE', #253, .T. ) ;
#145 = ORIENTED_EDGE ( 'NONE', *, *, #7, .T. ) ;
#146 = CARTESIAN_POINT ( 'NONE',  ( -0.1811000000000002885, -6.024369029076003957E-15, -2.094000000000000306 ) ) ;
#147 = DIRECTION ( 'NONE',  ( 1.000000000000000000, -6.982962677686266711E-15, 0.000000000000000000 ) ) ;
#148 = VECTOR ( 'NONE', #163, 39.37007874015748143 ) ;
#149 = FACE_OUTER_BOUND ( 'NONE', #25, .T. ) ;
#150 = EDGE_LOOP ( 'NONE', ( #126, #85, #360, #387 ) ) ;
#151 = PERSON_AND_ORGANIZATION ( #208, #51 ) ;
#152 = DIRECTION ( 'NONE',  ( -2.445528461643559356E-29, 3.491395908831306356E-15, 1.000000000000000000 ) ) ;
#153 = AXIS2_PLACEMENT_3D ( 'NONE', #237, #172, #390 ) ;
#154 = COORDINATED_UNIVERSAL_TIME_OFFSET ( 5, 0, .BEHIND. ) ;
#155 = ORIENTED_EDGE ( 'NONE', *, *, #211, .T. ) ;
#156 = MECHANICAL_CONTEXT ( 'NONE', #295, 'mechanical' ) ;
#157 = DIRECTION ( 'NONE',  ( -0.7071067811865454633, 2.468850131082235367E-15, -0.7071067811865495711 ) ) ;
#158 = CC_DESIGN_DATE_AND_TIME_ASSIGNMENT ( #68, #335, ( #258 ) ) ;
#159 = PERSON_AND_ORGANIZATION_ROLE ( 'classification_officer' ) ;
#160 = ORIENTED_EDGE ( 'NONE', *, *, #88, .T. ) ;
#161 = VECTOR ( 'NONE', #139, 39.37007874015748854 ) ;
#162 = ORIENTED_EDGE ( 'NONE', *, *, #302, .T. ) ;
#163 = DIRECTION ( 'NONE',  ( -2.445468806185136877E-29, 3.491481338843145188E-15, 1.000000000000000000 ) ) ;
#164 = CC_DESIGN_PERSON_AND_ORGANIZATION_ASSIGNMENT ( #371, #304, ( #125 ) ) ;
#165 = DIRECTION ( 'NONE',  ( 1.000000000000000000, -6.982962677686266711E-15, 4.876176775795935232E-29 ) ) ;
#166 = COORDINATED_UNIVERSAL_TIME_OFFSET ( 5, 0, .BEHIND. ) ;
#167 = FACE_OUTER_BOUND ( 'NONE', #33, .T. ) ;
#168 = VECTOR ( 'NONE', #112, 39.37007874015748143 ) ;
#169 = DIRECTION ( 'NONE',  ( -6.982962677686265133E-15, -1.000000000000000000, 3.510303681827581269E-15 ) ) ;
#170 = ADVANCED_FACE ( 'NONE', ( #138 ), #259, .T. ) ;
#171 = CARTESIAN_POINT ( 'NONE',  ( -0.1811000000000001497, 1.286792894461542501E-15, -8.908191448451641444E-30 ) ) ;
#172 = DIRECTION ( 'NONE',  ( -2.445528461643559356E-29, 3.491395908831306356E-15, 1.000000000000000000 ) ) ;
#173 = CIRCLE ( 'NONE', #23, 0.1498500000000000110 ) ;
#174 = AXIS2_PLACEMENT_3D ( 'NONE', #8, #306, #129 ) ;
#175 = LINE ( 'NONE', #327, #192 ) ;
#176 = ADVANCED_FACE ( 'NONE', ( #229 ), #254, .T. ) ;
#177 = DIMENSIONAL_EXPONENTS ( 1.000000000000000000, 0.000000000000000000, 0.000000000000000000, 0.000000000000000000, 0.000000000000000000, 0.000000000000000000, 0.000000000000000000 ) ;
#178 = DIRECTION ( 'NONE',  ( -2.445528461643559356E-29, 3.491395908831306356E-15, 1.000000000000000000 ) ) ;
#179 = EDGE_LOOP ( 'NONE', ( #311, #9, #384 ) ) ;
#180 = DIRECTION ( 'NONE',  ( 0.7071067811865454633, -7.319954787623248157E-15, -0.7071067811865495711 ) ) ;
#181 =( NAMED_UNIT ( * ) SI_UNIT ( $, .STERADIAN. ) SOLID_ANGLE_UNIT ( ) );
#182 = PERSON_AND_ORGANIZATION_ROLE ( 'creator' ) ;
#183 = CARTESIAN_POINT ( 'NONE',  ( -1.264614540928931663E-15, -0.1811000000000073107, -2.094499999999999584 ) ) ;
#184 = APPROVAL_ROLE ( '' ) ;
#185 = VERTEX_POINT ( 'NONE', #193 ) ;
#186 = CIRCLE ( 'NONE', #312, 0.1806000000000002603 ) ;
#187 = PERSON_AND_ORGANIZATION ( #208, #51 ) ;
#188 = LINE ( 'NONE', #39, #108 ) ;
#189 = COORDINATED_UNIVERSAL_TIME_OFFSET ( 5, 0, .BEHIND. ) ;
#190 = VERTEX_POINT ( 'NONE', #53 ) ;
#191 = ORIENTED_EDGE ( 'NONE', *, *, #16, .F. ) ;
#192 = VECTOR ( 'NONE', #180, 39.37007874015748143 ) ;
#193 = CARTESIAN_POINT ( 'NONE',  ( -0.1811000000000002885, -6.024369029076003957E-15, -2.094000000000000306 ) ) ;
#194 = DIRECTION ( 'NONE',  ( -2.445468806185136597E-29, 3.491481338843145583E-15, 1.000000000000000000 ) ) ;
#195 = PRODUCT ( '69027', '69027', '', ( #156 ) ) ;
#196 = DIRECTION ( 'NONE',  ( 2.445468806185136597E-29, -3.491481338843145583E-15, -1.000000000000000000 ) ) ;
#197 = DESIGN_CONTEXT ( 'detailed design', #236, 'design' ) ;
#198 = CARTESIAN_POINT ( 'NONE',  ( -8.819316586905938000E-28, 1.259099575004964158E-13, 36.06297874015748306 ) ) ;
#199 = AXIS2_PLACEMENT_3D ( 'NONE', #47, #349, #140 ) ;
#200 = AXIS2_PLACEMENT_3D ( 'NONE', #60, #203, #147 ) ;
#201 = ADVANCED_FACE ( 'NONE', ( #375 ), #106, .F. ) ;
#202 = CARTESIAN_POINT ( 'NONE',  ( 5.122034414554768952E-29, -7.312907664206969539E-15, -2.094500000000000473 ) ) ;
#203 = DIRECTION ( 'NONE',  ( -2.445468806185136597E-29, 3.491481338843145583E-15, 1.000000000000000000 ) ) ;
#204 = LOCAL_TIME ( 10, 27, 19.00000000000000000, #154 ) ;
#205 = DIRECTION ( 'NONE',  ( -6.982962677686265133E-15, -1.000000000000000000, 3.510303681827581269E-15 ) ) ;
#206 = LINE ( 'NONE', #300, #168 ) ;
#207 = ORIENTED_EDGE ( 'NONE', *, *, #1, .F. ) ;
#208 = PERSON ( 'UNSPECIFIED', 'UNSPECIFIED', 'UNSPECIFIED', ('UNSPECIFIED'), ('UNSPECIFIED'), ('UNSPECIFIED') ) ;
#209 = CLOSED_SHELL ( 'NONE', ( #176, #141, #337, #310, #201 ) ) ;
#210 = APPROVAL_PERSON_ORGANIZATION ( #66, #270, #184 ) ;
#211 = EDGE_CURVE ( 'NONE', #185, #264, #46, .T. ) ;
#212 = PERSON_AND_ORGANIZATION ( #208, #51 ) ;
#213 = ORIENTED_EDGE ( 'NONE', *, *, #7, .F. ) ;
#214 = LINE ( 'NONE', #35, #280 ) ;
#215 = ADVANCED_FACE ( 'NONE', ( #167 ), #284, .T. ) ;
#216 = DIRECTION ( 'NONE',  ( 1.000000000000000000, -6.982962677686266711E-15, 0.000000000000000000 ) ) ;
#217 = PERSON_AND_ORGANIZATION ( #208, #51 ) ;
#218 = VERTEX_POINT ( 'NONE', #257 ) ;
#219 = APPROVAL_ROLE ( '' ) ;
#220 = CARTESIAN_POINT ( 'NONE',  ( 5.120811680151677271E-29, -7.311161923537547247E-15, -2.094000000000000306 ) ) ;
#221 = CARTESIAN_POINT ( 'NONE',  ( -5.839929314523198503E-48, 8.337871319499113259E-34, 2.388061258337343288E-19 ) ) ;
#222 = EDGE_CURVE ( 'NONE', #238, #264, #262, .T. ) ;
#223 = AXIS2_PLACEMENT_3D ( 'NONE', #202, #103, #320 ) ;
#224 = CARTESIAN_POINT ( 'NONE',  ( 0.000000000000000000, 0.000000000000000000, 0.000000000000000000 ) ) ;
#225 = DIRECTION ( 'NONE',  ( -2.445468806185136597E-29, 3.491481338843145583E-15, 1.000000000000000000 ) ) ;
#226 = DIRECTION ( 'NONE',  ( 6.982962677686265922E-15, 1.000000000000000000, -3.491395908831306356E-15 ) ) ;
#227 = CC_DESIGN_PERSON_AND_ORGANIZATION_ASSIGNMENT ( #217, #273, ( #258 ) ) ;
#228 = CLOSED_SHELL ( 'NONE', ( #73, #215, #79, #367, #245, #170, #83, #316 ) ) ;
#229 = FACE_OUTER_BOUND ( 'NONE', #56, .T. ) ;
#230 = CARTESIAN_POINT ( 'NONE',  ( 8.087607175501415209E-29, -1.154639541009601312E-14, -3.307100000000000151 ) ) ;
#231 = APPROVAL ( #122, 'UNSPECIFIED' ) ;
#232 = CYLINDRICAL_SURFACE ( 'NONE', #370, 0.1811000000000000110 ) ;
#233 = CARTESIAN_POINT ( 'NONE',  ( 7.334410065752524154E-29, -4.144659811089697565E-15, -2.094500000000000473 ) ) ;
#234 = EDGE_LOOP ( 'NONE', ( #87, #132, #14, #3 ) ) ;
#235 = VECTOR ( 'NONE', #294, 39.37007874015748143 ) ;
#236 = APPLICATION_CONTEXT ( 'configuration controlled 3d designs of mechanical parts and assemblies' ) ;
#237 = CARTESIAN_POINT ( 'NONE',  ( 5.122034414554768952E-29, -7.312907664206969539E-15, -2.094500000000000473 ) ) ;
#238 = VERTEX_POINT ( 'NONE', #78 ) ;
#239 = LINE ( 'NONE', #146, #235 ) ;
#240 = EDGE_CURVE ( 'NONE', #102, #218, #91, .T. ) ;
#241 = AXIS2_PLACEMENT_3D ( 'NONE', #134, #128, #303 ) ;
#242 = CIRCLE ( 'NONE', #143, 0.1811000000000000110 ) ;
#243 = CALENDAR_DATE ( 2024, 23, 4 ) ;
#244 = ORIENTED_EDGE ( 'NONE', *, *, #37, .F. ) ;
#245 = ADVANCED_FACE ( 'NONE', ( #149 ), #313, .T. ) ;
#246 = APPLICATION_PROTOCOL_DEFINITION ( 'international standard', 'config_control_design', 1994, #236 ) ;
#247 = DIRECTION ( 'NONE',  ( -2.445468806185136597E-29, 3.491481338843145583E-15, 1.000000000000000000 ) ) ;
#248 = PERSON_AND_ORGANIZATION ( #208, #51 ) ;
#249 = ORIENTED_EDGE ( 'NONE', *, *, #355, .T. ) ;
#250 = AXIS2_PLACEMENT_3D ( 'NONE', #233, #89, #265 ) ;
#251 = APPROVAL_DATE_TIME ( #5, #270 ) ;
#252 = ORIENTED_EDGE ( 'NONE', *, *, #37, .T. ) ;
#253 = EDGE_LOOP ( 'NONE', ( #160, #41 ) ) ;
#254 = CYLINDRICAL_SURFACE ( 'NONE', #223, 0.1811000000000000110 ) ;
#255 = AXIS2_PLACEMENT_3D ( 'NONE', #220, #247, #339 ) ;
#256 = CIRCLE ( 'NONE', #153, 0.1811000000000000110 ) ;
#257 = CARTESIAN_POINT ( 'NONE',  ( -1.264614540928931663E-15, -0.1811000000000073107, -2.094499999999999584 ) ) ;
#258 = PRODUCT_DEFINITION ( 'UNKNOWN', '', #125, #197 ) ;
#259 = CYLINDRICAL_SURFACE ( 'NONE', #44, 0.1811000000000001497 ) ;
#260 = CARTESIAN_POINT ( 'NONE',  ( 1.286792894461621190E-15, 0.1810999999999927113, -2.094500000000000917 ) ) ;
#261 = DIRECTION ( 'NONE',  ( -1.000000000000000000, 6.982962677686266711E-15, 0.000000000000000000 ) ) ;
#262 = CIRCLE ( 'NONE', #334, 0.1811000000000000387 ) ;
#263 = CARTESIAN_POINT ( 'NONE',  ( 0.1498500000000000110, -1.189795302100669128E-15, 2.388061258415529785E-19 ) ) ;
#264 = VERTEX_POINT ( 'NONE', #297 ) ;
#265 = DIRECTION ( 'NONE',  ( 1.000000000000000000, -6.982962677686265922E-15, 4.876176775795935793E-29 ) ) ;
#266 = DIRECTION ( 'NONE',  ( 2.438088387897960049E-29, -3.491481338843145188E-15, -1.000000000000000000 ) ) ;
#267 = VERTEX_POINT ( 'NONE', #263 ) ;
#268 = CONICAL_SURFACE ( 'NONE', #96, 0.1811000000000000387, 0.7853981633974453924 ) ;
#269 = PLANE ( 'NONE',  #63 ) ;
#270 = APPROVAL ( #38, 'UNSPECIFIED' ) ;
#271 = LINE ( 'NONE', #54, #292 ) ;
#272 = ORIENTED_EDGE ( 'NONE', *, *, #240, .F. ) ;
#273 = PERSON_AND_ORGANIZATION_ROLE ( 'creator' ) ;
#274 = ORIENTED_EDGE ( 'NONE', *, *, #374, .F. ) ;
#275 = AXIS2_PLACEMENT_3D ( 'NONE', #17, #314, #226 ) ;
#276 = ORIENTED_EDGE ( 'NONE', *, *, #286, .F. ) ;
#277 = VERTEX_POINT ( 'NONE', #323 ) ;
#278 = DATE_AND_TIME ( #2, #377 ) ;
#279 = ORIENTED_EDGE ( 'NONE', *, *, #374, .T. ) ;
#280 = VECTOR ( 'NONE', #6, 39.37007874015748854 ) ;
#281 = APPROVAL_PERSON_ORGANIZATION ( #212, #296, #95 ) ;
#282 = CC_DESIGN_DATE_AND_TIME_ASSIGNMENT ( #278, #10, ( #57 ) ) ;
#283 = VERTEX_POINT ( 'NONE', #230 ) ;
#284 = CYLINDRICAL_SURFACE ( 'NONE', #348, 0.1811000000000001497 ) ;
#285 = DIRECTION ( 'NONE',  ( 1.000000000000000000, -6.982962677686266711E-15, 4.876174128528248124E-29 ) ) ;
#286 = EDGE_CURVE ( 'NONE', #59, #102, #206, .T. ) ;
#287 = DIRECTION ( 'NONE',  ( -2.445468806185136597E-29, 3.491481338843145583E-15, 1.000000000000000000 ) ) ;
#288 = FACE_OUTER_BOUND ( 'NONE', #97, .T. ) ;
#289 = CARTESIAN_POINT ( 'NONE',  ( 0.1811000000000002885, -8.575776464466533341E-15, -2.094000000000000306 ) ) ;
#290 = CIRCLE ( 'NONE', #341, 0.1498500000000000110 ) ;
#291 =( LENGTH_UNIT ( ) NAMED_UNIT ( * ) SI_UNIT ( $, .METRE. ) );
#292 = VECTOR ( 'NONE', #357, 39.37007874015748143 ) ;
#293 = ORIENTED_EDGE ( 'NONE', *, *, #350, .T. ) ;
#294 = DIRECTION ( 'NONE',  ( -0.7071067811868372299, 7.493145998871401767E-15, 0.7071067811862578045 ) ) ;
#295 = APPLICATION_CONTEXT ( 'configuration controlled 3d designs of mechanical parts and assemblies' ) ;
#296 = APPROVAL ( #40, 'UNSPECIFIED' ) ;
#297 = CARTESIAN_POINT ( 'NONE',  ( -0.1811000000000000387, -2.423342463226655673E-15, -0.03125000000000022204 ) ) ;
#298 = ORIENTED_EDGE ( 'NONE', *, *, #211, .F. ) ;
#299 = CC_DESIGN_APPROVAL ( #270, ( #125 ) ) ;
#300 = CARTESIAN_POINT ( 'NONE',  ( 1.286792894461592593E-15, 0.1810999999999927113, -2.094500000000000917 ) ) ;
#301 = APPROVAL_DATE_TIME ( #331, #296 ) ;
#302 = EDGE_CURVE ( 'NONE', #59, #336, #242, .T. ) ;
#303 = DIRECTION ( 'NONE',  ( -6.982962677686266711E-15, -1.000000000000000000, 3.016949744521549444E-15 ) ) ;
#304 = PERSON_AND_ORGANIZATION_ROLE ( 'design_supplier' ) ;
#305 = DIRECTION ( 'NONE',  ( -2.445468806185136597E-29, 3.491481338843145583E-15, 1.000000000000000000 ) ) ;
#306 = DIRECTION ( 'NONE',  ( 0.000000000000000000, 0.000000000000000000, 1.000000000000000000 ) ) ;
#307 = CARTESIAN_POINT ( 'NONE',  ( 5.120811680151677271E-29, -7.311161923537547247E-15, -2.094000000000000306 ) ) ;
#308 = APPLICATION_PROTOCOL_DEFINITION ( 'international standard', 'config_control_design', 1994, #295 ) ;
#309 = EDGE_LOOP ( 'NONE', ( #244, #362 ) ) ;
#310 = ADVANCED_FACE ( 'NONE', ( #84 ), #232, .T. ) ;
#311 = ORIENTED_EDGE ( 'NONE', *, *, #50, .F. ) ;
#312 = AXIS2_PLACEMENT_3D ( 'NONE', #373, #333, #69 ) ;
#313 = CONICAL_SURFACE ( 'NONE', #200, 0.1811000000000002885, 0.7853981633978580623 ) ;
#314 = DIRECTION ( 'NONE',  ( 2.445528461643559076E-29, -3.491395908831306356E-15, -1.000000000000000000 ) ) ;
#315 = DIRECTION ( 'NONE',  ( -2.445528461643559356E-29, 3.491395908831306356E-15, 1.000000000000000000 ) ) ;
#316 = ADVANCED_FACE ( 'NONE', ( #144 ), #269, .F. ) ;
#317 = CARTESIAN_POINT ( 'NONE',  ( 5.122034414554768952E-29, -7.312907664206969539E-15, -2.094500000000000473 ) ) ;
#318 = CONICAL_SURFACE ( 'NONE', #199, 0.1811000000000002885, 0.7853981633978580623 ) ;
#319 = DIRECTION ( 'NONE',  ( 2.445468806185136597E-29, -3.491481338843145583E-15, -1.000000000000000000 ) ) ;
#320 = DIRECTION ( 'NONE',  ( -6.982962677686266711E-15, -1.000000000000000000, 3.016949744521549444E-15 ) ) ;
#321 = PRODUCT_RELATED_PRODUCT_CATEGORY ( 'detail', '', ( #195 ) ) ;
#322 = CARTESIAN_POINT ( 'NONE',  ( -0.1806000000000002603, -6.027018256250114370E-15, -2.094500000000000028 ) ) ;
#323 = CARTESIAN_POINT ( 'NONE',  ( 0.1806000000000002603, -8.574030723797109471E-15, -2.094500000000000028 ) ) ;
#324 = VERTEX_POINT ( 'NONE', #322 ) ;
#325 = ORIENTED_EDGE ( 'NONE', *, *, #62, .T. ) ;
#326 = CC_DESIGN_PERSON_AND_ORGANIZATION_ASSIGNMENT ( #248, #366, ( #195 ) ) ;
#327 = CARTESIAN_POINT ( 'NONE',  ( 0.1811000000000000387, -1.351544979235273859E-15, -0.03125000000000022204 ) ) ;
#328 = LENGTH_MEASURE_WITH_UNIT ( LENGTH_MEASURE( 0.02539999999999999897 ), #291 );
#329 = ORIENTED_EDGE ( 'NONE', *, *, #62, .F. ) ;
#330 = LINE ( 'NONE', #183, #90 ) ;
#331 = DATE_AND_TIME ( #243, #381 ) ;
#332 = ORIENTED_EDGE ( 'NONE', *, *, #361, .T. ) ;
#333 = DIRECTION ( 'NONE',  ( -2.445468806185136597E-29, 3.491481338843145583E-15, 1.000000000000000000 ) ) ;
#334 = AXIS2_PLACEMENT_3D ( 'NONE', #378, #225, #345 ) ;
#335 = DATE_TIME_ROLE ( 'creation_date' ) ;
#336 = VERTEX_POINT ( 'NONE', #359 ) ;
#337 = ADVANCED_FACE ( 'NONE', ( #118 ), #342, .T. ) ;
#338 = APPROVAL_DATE_TIME ( #127, #231 ) ;
#339 = DIRECTION ( 'NONE',  ( 1.000000000000000000, -6.982962677686266711E-15, 0.000000000000000000 ) ) ;
#340 = DIRECTION ( 'NONE',  ( -1.000000000000000000, 6.982962677686266711E-15, 0.000000000000000000 ) ) ;
#341 = AXIS2_PLACEMENT_3D ( 'NONE', #221, #21, #382 ) ;
#342 = CONICAL_SURFACE ( 'NONE', #29, 146.9311341562574853, 1.308996938995751425 ) ;
#343 = EDGE_CURVE ( 'NONE', #267, #238, #175, .T. ) ;
#344 = FACE_OUTER_BOUND ( 'NONE', #368, .T. ) ;
#345 = DIRECTION ( 'NONE',  ( 1.000000000000000000, -6.982962677686266711E-15, 0.000000000000000000 ) ) ;
#346 = DIRECTION ( 'NONE',  ( 0.7071067811868372299, -2.468850131085291414E-15, 0.7071067811862578045 ) ) ;
#347 = AXIS2_PLACEMENT_3D ( 'NONE', #317, #49, #19 ) ;
#348 = AXIS2_PLACEMENT_3D ( 'NONE', #15, #287, #165 ) ;
#349 = DIRECTION ( 'NONE',  ( -2.445468806185136597E-29, 3.491481338843145583E-15, 1.000000000000000000 ) ) ;
#350 = EDGE_CURVE ( 'NONE', #218, #102, #256, .T. ) ;
#351 = CARTESIAN_POINT ( 'NONE',  ( 7.968811494284100748E-29, -1.137715226630900293E-14, -3.258574401250724950 ) ) ;
#352 = CARTESIAN_POINT ( 'NONE',  ( -8.819316586905938000E-28, 1.259099575004964158E-13, 36.06297874015748306 ) ) ;
#353 = ORIENTED_EDGE ( 'NONE', *, *, #50, .T. ) ;
#354 = DIRECTION ( 'NONE',  ( -2.445528461643559356E-29, 3.491395908831306356E-15, 1.000000000000000000 ) ) ;
#355 = EDGE_CURVE ( 'NONE', #324, #277, #13, .T. ) ;
#356 = CC_DESIGN_APPROVAL ( #231, ( #57 ) ) ;
#357 = DIRECTION ( 'NONE',  ( -2.445468806185136877E-29, 3.491481338843145188E-15, 1.000000000000000000 ) ) ;
#358 = ORIENTED_EDGE ( 'NONE', *, *, #45, .F. ) ;
#359 = CARTESIAN_POINT ( 'NONE',  ( -1.264614540928902870E-15, -0.1811000000000113630, -3.258574401250724506 ) ) ;
#360 = ORIENTED_EDGE ( 'NONE', *, *, #222, .T. ) ;
#361 = EDGE_CURVE ( 'NONE', #324, #185, #239, .T. ) ;
#362 = ORIENTED_EDGE ( 'NONE', *, *, #355, .F. ) ;
#363 = COORDINATED_UNIVERSAL_TIME_OFFSET ( 5, 0, .BEHIND. ) ;
#364 = ORIENTED_EDGE ( 'NONE', *, *, #20, .T. ) ;
#365 = UNCERTAINTY_MEASURE_WITH_UNIT (LENGTH_MEASURE( 1.000000000000000082E-05 ), #27, 'distance_accuracy_value', 'NONE');
#366 = PERSON_AND_ORGANIZATION_ROLE ( 'design_owner' ) ;
#367 = ADVANCED_FACE ( 'NONE', ( #24 ), #26, .F. ) ;
#368 = EDGE_LOOP ( 'NONE', ( #11, #353, #120 ) ) ;
#369 = AXIS2_PLACEMENT_3D ( 'NONE', #130, #67, #216 ) ;
#370 = AXIS2_PLACEMENT_3D ( 'NONE', #385, #28, #383 ) ;
#371 = PERSON_AND_ORGANIZATION ( #208, #51 ) ;
#372 = EDGE_LOOP ( 'NONE', ( #298, #145, #279, #207 ) ) ;
#373 = CARTESIAN_POINT ( 'NONE',  ( 5.122034414554767831E-29, -7.312907664206967962E-15, -2.094500000000000028 ) ) ;
#374 = EDGE_CURVE ( 'NONE', #71, #238, #271, .T. ) ;
#375 = FACE_OUTER_BOUND ( 'NONE', #114, .T. ) ;
#376 = MANIFOLD_SOLID_BREP ( 'Body-Move/Copy2[2]', #228 ) ;
#377 = LOCAL_TIME ( 10, 27, 19.00000000000000000, #189 ) ;
#378 = CARTESIAN_POINT ( 'NONE',  ( 7.642090019328606165E-31, -1.091087918388490760E-16, -0.03125000000000022204 ) ) ;
#379 = LINE ( 'NONE', #289, #75 ) ;
#380 = DIRECTION ( 'NONE',  ( 1.000000000000000000, -6.982962677686266711E-15, 4.876176775795935232E-29 ) ) ;
#381 = LOCAL_TIME ( 10, 27, 19.00000000000000000, #363 ) ;
#382 = DIRECTION ( 'NONE',  ( 1.000000000000000000, -6.982962677686266711E-15, 4.876174128528248124E-29 ) ) ;
#383 = DIRECTION ( 'NONE',  ( -6.982962677686266711E-15, -1.000000000000000000, 3.016949744521549444E-15 ) ) ;
#384 = ORIENTED_EDGE ( 'NONE', *, *, #302, .F. ) ;
#385 = CARTESIAN_POINT ( 'NONE',  ( 5.122034414554768952E-29, -7.312907664206969539E-15, -2.094500000000000473 ) ) ;
#386 = MANIFOLD_SOLID_BREP ( 'Body-Move/Copy2[1]', #209 ) ;
#387 = ORIENTED_EDGE ( 'NONE', *, *, #55, .F. ) ;
#388 =( NAMED_UNIT ( * ) PLANE_ANGLE_UNIT ( ) SI_UNIT ( $, .RADIAN. ) );
#389 = ORIENTED_EDGE ( 'NONE', *, *, #240, .T. ) ;
#390 = DIRECTION ( 'NONE',  ( -6.982962677686266711E-15, -1.000000000000000000, 3.016949744521549444E-15 ) ) ;
ENDSEC;
END-ISO-10303-21;
