ISO-10303-21;
HEADER;
FILE_DESCRIPTION (( 'STEP AP203' ),
    '1' );
FILE_NAME ('70448.STEP',
    '2024-04-10T12:32:45',
    ( '' ),
    ( '' ),
    'SwSTEP 2.0',
    'SolidWorks 2023',
    '' );
FILE_SCHEMA (( 'CONFIG_CONTROL_DESIGN' ));
ENDSEC;

DATA;
#1 = DIRECTION ( 'NONE',  ( -1.000000000000000000, 6.982962677686265922E-15, -4.883557194083112901E-29 ) ) ;
#2 = CLOSED_SHELL ( 'NONE', ( #130, #111, #31, #218, #264, #70, #18, #296 ) ) ;
#3 = AXIS2_PLACEMENT_3D ( 'NONE', #126, #225, #12 ) ;
#4 = CARTESIAN_POINT ( 'NONE',  ( 0.1249999999999999861, -9.273918764983043491E-16, -0.02000000000000002470 ) ) ;
#5 = CARTESIAN_POINT ( 'NONE',  ( 4.890937612370279289E-31, -6.982962677686299005E-17, -0.02000000000000002470 ) ) ;
#6 = PERSON_AND_ORGANIZATION ( #97, #177 ) ;
#7 = FACE_OUTER_BOUND ( 'NONE', #22, .T. ) ;
#8 = ADVANCED_FACE ( 'NONE', ( #235 ), #82, .T. ) ;
#9 = AXIS2_PLACEMENT_3D ( 'NONE', #276, #378, #376 ) ;
#10 = SHAPE_DEFINITION_REPRESENTATION ( #404, #285 ) ;
#11 = APPROVAL_PERSON_ORGANIZATION ( #274, #361, #371 ) ;
#12 = DIRECTION ( 'NONE',  ( 6.982962677686265922E-15, 1.000000000000000000, -4.370956789862814839E-15 ) ) ;
#13 = CARTESIAN_POINT ( 'NONE',  ( 9.476191623967404313E-29, -1.352949018801718908E-14, -3.875000000000000000 ) ) ;
#14 = VERTEX_POINT ( 'NONE', #302 ) ;
#15 = CIRCLE ( 'NONE', #221, 0.1250000000000000000 ) ;
#16 = DIRECTION ( 'NONE',  ( -2.445468806185136597E-29, 3.491481338843145583E-15, 1.000000000000000000 ) ) ;
#17 = DIRECTION ( 'NONE',  ( -2.445468806185136877E-29, 3.491481338843145188E-15, 1.000000000000000000 ) ) ;
#18 = ADVANCED_FACE ( 'NONE', ( #152 ), #59, .F. ) ;
#19 = CIRCLE ( 'NONE', #277, 0.1249999999999999861 ) ;
#20 = APPROVAL_PERSON_ORGANIZATION ( #321, #315, #388 ) ;
#21 = LOCAL_TIME ( 8, 32, 45.00000000000000000, #71 ) ;
#22 = EDGE_LOOP ( 'NONE', ( #81, #169, #309, #396 ) ) ;
#23 = DIRECTION ( 'NONE',  ( 1.000000000000000000, -6.982962677686266711E-15, 4.876176775795935793E-29 ) ) ;
#24 = ADVANCED_FACE ( 'NONE', ( #402 ), #32, .T. ) ;
#25 = ORIENTED_EDGE ( 'NONE', *, *, #237, .T. ) ;
#26 = DIRECTION ( 'NONE',  ( -1.000000000000000000, 6.982962677686266711E-15, 0.000000000000000000 ) ) ;
#27 = ORIENTED_EDGE ( 'NONE', *, *, #171, .T. ) ;
#28 = VECTOR ( 'NONE', #100, 39.37007874015748143 ) ;
#29 = DIRECTION ( 'NONE',  ( -2.445468806185136597E-29, 3.491481338843145583E-15, 1.000000000000000000 ) ) ;
#30 = CARTESIAN_POINT ( 'NONE',  ( 6.111226546656659252E-29, -8.725211865769023513E-15, -2.499000000000000998 ) ) ;
#31 = ADVANCED_FACE ( 'NONE', ( #239 ), #106, .T. ) ;
#32 = SPHERICAL_SURFACE ( 'NONE', #288, 0.1250000000000001943 ) ;
#33 = LINE ( 'NONE', #4, #323 ) ;
#34 = LOCAL_TIME ( 8, 32, 45.00000000000000000, #293 ) ;
#35 = APPROVAL_STATUS ( 'not_yet_approved' ) ;
#36 =( LENGTH_UNIT ( ) NAMED_UNIT ( * ) SI_UNIT ( $, .METRE. ) );
#37 = EDGE_CURVE ( 'NONE', #49, #341, #273, .T. ) ;
#38 = MANIFOLD_SOLID_BREP ( 'Body-Move/Copy2[1]', #56 ) ;
#39 = APPROVAL_ROLE ( '' ) ;
#40 = DIRECTION ( 'NONE',  ( -2.445468806185136597E-29, 3.491481338843145583E-15, 1.000000000000000000 ) ) ;
#41 = AXIS2_PLACEMENT_3D ( 'NONE', #30, #282, #412 ) ;
#42 = DIRECTION ( 'NONE',  ( -2.445468806185136597E-29, 3.491481338843145583E-15, 1.000000000000000000 ) ) ;
#43 = LINE ( 'NONE', #257, #294 ) ;
#44 = AXIS2_PLACEMENT_3D ( 'NONE', #209, #340, #175 ) ;
#45 = ORIENTED_EDGE ( 'NONE', *, *, #400, .F. ) ;
#46 = ORIENTED_EDGE ( 'NONE', *, *, #73, .T. ) ;
#47 = CARTESIAN_POINT ( 'NONE',  ( 6.113672015462842613E-29, -8.728703347107864943E-15, -2.500000000000000000 ) ) ;
#48 = AXIS2_PLACEMENT_3D ( 'NONE', #280, #251, #409 ) ;
#49 = VERTEX_POINT ( 'NONE', #155 ) ;
#50 = ORIENTED_EDGE ( 'NONE', *, *, #37, .F. ) ;
#51 = DIRECTION ( 'NONE',  ( -2.445468806185136597E-29, 3.491481338843145583E-15, 1.000000000000000000 ) ) ;
#52 = ORIENTED_EDGE ( 'NONE', *, *, #237, .F. ) ;
#53 = DIRECTION ( 'NONE',  ( 2.438088387897960049E-29, -3.491481338843145188E-15, -1.000000000000000000 ) ) ;
#54 = DIRECTION ( 'NONE',  ( -2.445468806185136597E-29, 3.491481338843145583E-15, 1.000000000000000000 ) ) ;
#55 = VERTEX_POINT ( 'NONE', #311 ) ;
#56 = CLOSED_SHELL ( 'NONE', ( #8, #24, #366, #249, #65 ) ) ;
#57 = EDGE_CURVE ( 'NONE', #115, #93, #380, .T. ) ;
#58 = PERSON_AND_ORGANIZATION ( #97, #177 ) ;
#59 = PLANE ( 'NONE',  #398 ) ;
#60 = PERSON_AND_ORGANIZATION_ROLE ( 'classification_officer' ) ;
#61 = CYLINDRICAL_SURFACE ( 'NONE', #248, 0.1250000000000001388 ) ;
#62 = EDGE_CURVE ( 'NONE', #300, #145, #33, .T. ) ;
#63 = VECTOR ( 'NONE', #86, 39.37007874015748143 ) ;
#64 = AXIS2_PLACEMENT_3D ( 'NONE', #391, #324, #67 ) ;
#65 = ADVANCED_FACE ( 'NONE', ( #304 ), #313, .T. ) ;
#66 = PERSON_AND_ORGANIZATION ( #97, #177 ) ;
#67 = DIRECTION ( 'NONE',  ( 1.000000000000000000, -6.982962677686266711E-15, 4.876176775795935793E-29 ) ) ;
#68 = PERSON_AND_ORGANIZATION ( #97, #177 ) ;
#69 = PLANE ( 'NONE',  #381 ) ;
#70 = ADVANCED_FACE ( 'NONE', ( #174 ), #214, .T. ) ;
#71 = COORDINATED_UNIVERSAL_TIME_OFFSET ( 5, 0, .BEHIND. ) ;
#72 = DIRECTION ( 'NONE',  ( 1.000000000000000000, -6.982962677686266711E-15, 0.000000000000000000 ) ) ;
#73 = EDGE_CURVE ( 'NONE', #281, #207, #196, .T. ) ;
#74 = VECTOR ( 'NONE', #104, 39.37007874015748143 ) ;
#75 = DIRECTION ( 'NONE',  ( 1.000000000000000000, -6.982962677686262766E-15, 0.000000000000000000 ) ) ;
#76 = EDGE_CURVE ( 'NONE', #115, #300, #379, .T. ) ;
#77 = EDGE_LOOP ( 'NONE', ( #46, #90 ) ) ;
#78 =( GEOMETRIC_REPRESENTATION_CONTEXT ( 3 ) GLOBAL_UNCERTAINTY_ASSIGNED_CONTEXT ( ( #363 ) ) GLOBAL_UNIT_ASSIGNED_CONTEXT ( ( #252, #255, #269 ) ) REPRESENTATION_CONTEXT ( 'NONE', 'WORKASPACE' ) );
#79 = ORIENTED_EDGE ( 'NONE', *, *, #256, .T. ) ;
#80 = CARTESIAN_POINT ( 'NONE',  ( 0.1249999999999999861, -9.273918764983043491E-16, -0.02000000000000002470 ) ) ;
#81 = ORIENTED_EDGE ( 'NONE', *, *, #374, .F. ) ;
#82 = CYLINDRICAL_SURFACE ( 'NONE', #259, 0.1250000000000000000 ) ;
#83 = AXIS2_PLACEMENT_3D ( 'NONE', #157, #224, #292 ) ;
#84 = ORIENTED_EDGE ( 'NONE', *, *, #57, .T. ) ;
#85 = FACE_OUTER_BOUND ( 'NONE', #372, .T. ) ;
#86 = DIRECTION ( 'NONE',  ( -0.7071067811869218289, 7.493145998871707845E-15, 0.7071067811861732055 ) ) ;
#87 = COORDINATED_UNIVERSAL_TIME_OFFSET ( 5, 0, .BEHIND. ) ;
#88 = ORIENTED_EDGE ( 'NONE', *, *, #283, .T. ) ;
#89 = FACE_OUTER_BOUND ( 'NONE', #77, .T. ) ;
#90 = ORIENTED_EDGE ( 'NONE', *, *, #382, .T. ) ;
#91 = DIRECTION ( 'NONE',  ( 2.445468806185136597E-29, -3.491481338843145583E-15, -1.000000000000000000 ) ) ;
#92 = CARTESIAN_POINT ( 'NONE',  ( -0.1249999999999999861, 8.030407079339202378E-16, -0.02000000000000002470 ) ) ;
#93 = VERTEX_POINT ( 'NONE', #219 ) ;
#94 = CIRCLE ( 'NONE', #9, 0.1250000000000003053 ) ;
#95 = CYLINDRICAL_SURFACE ( 'NONE', #64, 0.1250000000000001388 ) ;
#96 = DIRECTION ( 'NONE',  ( 0.7071067811865466846, -7.319954787623252890E-15, -0.7071067811865483499 ) ) ;
#97 = PERSON ( 'UNSPECIFIED', 'UNSPECIFIED', 'UNSPECIFIED', ('UNSPECIFIED'), ('UNSPECIFIED'), ('UNSPECIFIED') ) ;
#98 = DIRECTION ( 'NONE',  ( 1.000000000000000000, -6.982962677686265922E-15, 4.881622206245874923E-29 ) ) ;
#99 = CARTESIAN_POINT ( 'NONE',  ( -0.1250000000000000000, 8.881784197001252323E-16, -6.148668862818632227E-30 ) ) ;
#100 = DIRECTION ( 'NONE',  ( -2.445468806185136877E-29, 3.491481338843145188E-15, 1.000000000000000000 ) ) ;
#101 = AXIS2_PLACEMENT_3D ( 'NONE', #164, #16, #201 ) ;
#102 = CALENDAR_DATE ( 2024, 10, 4 ) ;
#103 = DIRECTION ( 'NONE',  ( -2.445468806185136597E-29, 3.491481338843145583E-15, 1.000000000000000000 ) ) ;
#104 = DIRECTION ( 'NONE',  ( -2.445468806185136877E-29, 3.491481338843145188E-15, 1.000000000000000000 ) ) ;
#105 = CARTESIAN_POINT ( 'NONE',  ( 7.332110811570560522E-16, 0.1049999999999997324, -2.321473971403664097E-16 ) ) ;
#106 = CONICAL_SURFACE ( 'NONE', #213, 0.1249999999999999861, 0.7853981633974471688 ) ;
#107 = AXIS2_PLACEMENT_3D ( 'NONE', #192, #386, #222 ) ;
#108 = EDGE_LOOP ( 'NONE', ( #45, #138, #333, #204 ) ) ;
#109 = DIRECTION ( 'NONE',  ( -2.445468806185136597E-29, 3.491481338843145583E-15, 1.000000000000000000 ) ) ;
#110 = CONICAL_SURFACE ( 'NONE', #270, 0.1249999999999999861, 0.7853981633974471688 ) ;
#111 = ADVANCED_FACE ( 'NONE', ( #348 ), #61, .T. ) ;
#112 = VERTEX_POINT ( 'NONE', #143 ) ;
#113 = APPROVAL_STATUS ( 'not_yet_approved' ) ;
#114 = AXIS2_PLACEMENT_3D ( 'NONE', #383, #240, #98 ) ;
#115 = VERTEX_POINT ( 'NONE', #205 ) ;
#116 = CARTESIAN_POINT ( 'NONE',  ( -8.881784197000325412E-16, -0.1250000000000138500, -3.874999999999999556 ) ) ;
#117 = APPLICATION_CONTEXT ( 'configuration controlled 3d designs of mechanical parts and assemblies' ) ;
#118 = ORIENTED_EDGE ( 'NONE', *, *, #370, .F. ) ;
#119 = ORIENTED_EDGE ( 'NONE', *, *, #278, .F. ) ;
#120 = DIRECTION ( 'NONE',  ( 2.445468806185136597E-29, -3.491481338843145583E-15, -1.000000000000000000 ) ) ;
#121 = CIRCLE ( 'NONE', #148, 0.1239999999999999991 ) ;
#122 = DIRECTION ( 'NONE',  ( -2.445468806185136597E-29, 3.491481338843145583E-15, 1.000000000000000000 ) ) ;
#123 = PERSON_AND_ORGANIZATION ( #97, #177 ) ;
#124 = DIRECTION ( 'NONE',  ( -1.000000000000000000, 6.982962677686265922E-15, -4.876176775795935793E-29 ) ) ;
#125 = CALENDAR_DATE ( 2024, 10, 4 ) ;
#126 = CARTESIAN_POINT ( 'NONE',  ( 9.145071846053518065E-29, -1.400367255615723938E-14, -3.875000000000000000 ) ) ;
#127 = CC_DESIGN_APPROVAL ( #361, ( #334 ) ) ;
#128 = EDGE_CURVE ( 'NONE', #202, #145, #43, .T. ) ;
#129 = COORDINATED_UNIVERSAL_TIME_OFFSET ( 5, 0, .BEHIND. ) ;
#130 = ADVANCED_FACE ( 'NONE', ( #137 ), #233, .T. ) ;
#131 = CARTESIAN_POINT ( 'NONE',  ( 4.890937612370279289E-31, -6.982962677686299005E-17, -0.02000000000000002470 ) ) ;
#132 = EDGE_CURVE ( 'NONE', #14, #202, #167, .T. ) ;
#133 = DATE_TIME_ROLE ( 'classification_date' ) ;
#134 = CARTESIAN_POINT ( 'NONE',  ( 6.113672015462842613E-29, -8.728703347107864943E-15, -2.500000000000000000 ) ) ;
#135 = ORIENTED_EDGE ( 'NONE', *, *, #284, .F. ) ;
#136 = CC_DESIGN_APPROVAL ( #266, ( #365 ) ) ;
#137 = FACE_OUTER_BOUND ( 'NONE', #195, .T. ) ;
#138 = ORIENTED_EDGE ( 'NONE', *, *, #374, .T. ) ;
#139 = VECTOR ( 'NONE', #322, 39.37007874015748143 ) ;
#140 = ORIENTED_EDGE ( 'NONE', *, *, #76, .T. ) ;
#141 = EDGE_CURVE ( 'NONE', #14, #49, #241, .T. ) ;
#142 = ORIENTED_EDGE ( 'NONE', *, *, #171, .F. ) ;
#143 = CARTESIAN_POINT ( 'NONE',  ( -0.1250000000000000000, -1.024091834786240415E-14, -3.875000000000000000 ) ) ;
#144 = APPLICATION_PROTOCOL_DEFINITION ( 'international standard', 'config_control_design', 1994, #151 ) ;
#145 = VERTEX_POINT ( 'NONE', #80 ) ;
#146 = CARTESIAN_POINT ( 'NONE',  ( -0.1239999999999999991, -7.847630354765339930E-15, -2.500000000000000000 ) ) ;
#147 = AXIS2_PLACEMENT_3D ( 'NONE', #339, #54, #346 ) ;
#148 = AXIS2_PLACEMENT_3D ( 'NONE', #47, #245, #373 ) ;
#149 = LOCAL_TIME ( 8, 32, 45.00000000000000000, #129 ) ;
#150 = ORIENTED_EDGE ( 'NONE', *, *, #132, .T. ) ;
#151 = APPLICATION_CONTEXT ( 'configuration controlled 3d designs of mechanical parts and assemblies' ) ;
#152 = FACE_OUTER_BOUND ( 'NONE', #303, .T. ) ;
#153 = CARTESIAN_POINT ( 'NONE',  ( -0.1250000000000000000, -1.024091834786240099E-14, -2.500000000000000000 ) ) ;
#154 = DIRECTION ( 'NONE',  ( 6.982962677686265922E-15, 1.000000000000000000, -4.370956789862814839E-15 ) ) ;
#155 = CARTESIAN_POINT ( 'NONE',  ( -0.1239999999999999991, -7.842331900417119105E-15, -2.500000000000000000 ) ) ;
#156 = EDGE_CURVE ( 'NONE', #112, #246, #301, .T. ) ;
#157 = CARTESIAN_POINT ( 'NONE',  ( 9.145071846053518065E-29, -1.400367255615723938E-14, -3.875000000000000000 ) ) ;
#158 = CARTESIAN_POINT ( 'NONE',  ( 0.1250000000000000000, -9.601573681818648281E-15, -2.500000000000000000 ) ) ;
#159 = CALENDAR_DATE ( 2024, 10, 4 ) ;
#160 = DIRECTION ( 'NONE',  ( -2.445468806185136597E-29, 3.491481338843145583E-15, 1.000000000000000000 ) ) ;
#161 = CIRCLE ( 'NONE', #41, 0.1250000000000003053 ) ;
#162 = CARTESIAN_POINT ( 'NONE',  ( 0.1049999999999997324, -8.238720831321562839E-16, 2.689162868763313186E-16 ) ) ;
#163 = CIRCLE ( 'NONE', #107, 0.1250000000000001943 ) ;
#164 = CARTESIAN_POINT ( 'NONE',  ( 6.113672015462842613E-29, -8.728703347107864943E-15, -2.500000000000000000 ) ) ;
#165 = ORIENTED_EDGE ( 'NONE', *, *, #62, .T. ) ;
#166 = MANIFOLD_SOLID_BREP ( 'Body-Move/Copy2[2]', #2 ) ;
#167 = LINE ( 'NONE', #236, #191 ) ;
#168 = CARTESIAN_POINT ( 'NONE',  ( 0.000000000000000000, 0.000000000000000000, 0.000000000000000000 ) ) ;
#169 = ORIENTED_EDGE ( 'NONE', *, *, #400, .T. ) ;
#170 = CC_DESIGN_DATE_AND_TIME_ASSIGNMENT ( #189, #353, ( #334 ) ) ;
#171 = EDGE_CURVE ( 'NONE', #49, #14, #121, .T. ) ;
#172 = ORIENTED_EDGE ( 'NONE', *, *, #132, .F. ) ;
#173 = CARTESIAN_POINT ( 'NONE',  ( -6.576263910311883560E-45, 9.389161973396817607E-31, 2.689162868763258952E-16 ) ) ;
#174 = FACE_OUTER_BOUND ( 'NONE', #227, .T. ) ;
#175 = DIRECTION ( 'NONE',  ( 1.000000000000000000, 0.000000000000000000, 0.000000000000000000 ) ) ;
#176 = AXIS2_PLACEMENT_3D ( 'NONE', #287, #122, #306 ) ;
#177 = ORGANIZATION ( 'UNSPECIFIED', 'UNSPECIFIED', '' ) ;
#178 = ORIENTED_EDGE ( 'NONE', *, *, #284, .T. ) ;
#179 = PERSON_AND_ORGANIZATION_ROLE ( 'design_owner' ) ;
#180 = CARTESIAN_POINT ( 'NONE',  ( 6.113672015462842613E-29, -8.728703347107864943E-15, -2.500000000000000000 ) ) ;
#181 = APPROVAL_DATE_TIME ( #347, #315 ) ;
#182 = DIRECTION ( 'NONE',  ( -2.445468806185136597E-29, 3.491481338843145583E-15, 1.000000000000000000 ) ) ;
#183 = CIRCLE ( 'NONE', #260, 0.1049999999999997324 ) ;
#184 = LINE ( 'NONE', #263, #139 ) ;
#185 = COORDINATED_UNIVERSAL_TIME_OFFSET ( 5, 0, .BEHIND. ) ;
#186 = CARTESIAN_POINT ( 'NONE',  ( 9.476191623967404313E-29, -1.352949018801718908E-14, -3.875000000000000000 ) ) ;
#187 = DATE_AND_TIME ( #159, #399 ) ;
#188 = DIRECTION ( 'NONE',  ( -2.445468806185136597E-29, 3.491481338843145583E-15, 1.000000000000000000 ) ) ;
#189 = DATE_AND_TIME ( #125, #34 ) ;
#190 = DIRECTION ( 'NONE',  ( 1.000000000000000000, -6.982962677686270655E-15, 0.000000000000000000 ) ) ;
#191 = VECTOR ( 'NONE', #268, 39.37007874015748143 ) ;
#192 = CARTESIAN_POINT ( 'NONE',  ( 9.145071846053518065E-29, -1.400367255615723938E-14, -3.875000000000000000 ) ) ;
#193 = CC_DESIGN_PERSON_AND_ORGANIZATION_ASSIGNMENT ( #6, #357, ( #228 ) ) ;
#194 = EDGE_LOOP ( 'NONE', ( #279, #178, #394, #119, #88 ) ) ;
#195 = EDGE_LOOP ( 'NONE', ( #392, #326, #229, #172 ) ) ;
#196 = CIRCLE ( 'NONE', #48, 0.1250000000000000000 ) ;
#197 = AXIS2_PLACEMENT_3D ( 'NONE', #131, #103, #72 ) ;
#198 = EDGE_CURVE ( 'NONE', #341, #202, #94, .T. ) ;
#199 = EDGE_LOOP ( 'NONE', ( #79, #367, #118, #231 ) ) ;
#200 = DIRECTION ( 'NONE',  ( -2.445468806185136597E-29, 3.491481338843145583E-15, 1.000000000000000000 ) ) ;
#201 = DIRECTION ( 'NONE',  ( 1.000000000000000000, -6.982962677686262766E-15, 0.000000000000000000 ) ) ;
#202 = VERTEX_POINT ( 'NONE', #217 ) ;
#203 = PRODUCT_RELATED_PRODUCT_CATEGORY ( 'detail', '', ( #267 ) ) ;
#204 = ORIENTED_EDGE ( 'NONE', *, *, #389, .F. ) ;
#205 = CARTESIAN_POINT ( 'NONE',  ( -0.1049999999999997324, 7.681258945454885887E-16, 2.689162868763206197E-16 ) ) ;
#206 = CALENDAR_DATE ( 2024, 10, 4 ) ;
#207 = VERTEX_POINT ( 'NONE', #153 ) ;
#208 = DIRECTION ( 'NONE',  ( -1.000000000000000000, 6.982962677686266711E-15, 0.000000000000000000 ) ) ;
#209 = CARTESIAN_POINT ( 'NONE',  ( 0.000000000000000000, 0.000000000000000000, 0.000000000000000000 ) ) ;
#210 = ORIENTED_EDGE ( 'NONE', *, *, #356, .T. ) ;
#211 = DIRECTION ( 'NONE',  ( 1.000000000000000000, -6.982962677686265922E-15, 4.881622206245874923E-29 ) ) ;
#212 = DIRECTION ( 'NONE',  ( -0.7071067811865466846, 2.468850131082247989E-15, -0.7071067811865483499 ) ) ;
#213 = AXIS2_PLACEMENT_3D ( 'NONE', #286, #120, #26 ) ;
#214 = CONICAL_SURFACE ( 'NONE', #176, 0.1239999999999999991, 0.7853981633979776333 ) ;
#215 = CC_DESIGN_SECURITY_CLASSIFICATION ( #365, ( #228 ) ) ;
#216 = ORIENTED_EDGE ( 'NONE', *, *, #198, .T. ) ;
#217 = CARTESIAN_POINT ( 'NONE',  ( 0.1250000000000003053, -9.598082200479810007E-15, -2.499000000000000998 ) ) ;
#218 = ADVANCED_FACE ( 'NONE', ( #85 ), #110, .T. ) ;
#219 = CARTESIAN_POINT ( 'NONE',  ( -0.1249999999999999861, 8.030407079339202378E-16, -0.02000000000000002470 ) ) ;
#220 = CALENDAR_DATE ( 2024, 10, 4 ) ;
#221 = AXIS2_PLACEMENT_3D ( 'NONE', #134, #223, #190 ) ;
#222 = DIRECTION ( 'NONE',  ( 6.982962677686265133E-15, 1.000000000000000000, 0.000000000000000000 ) ) ;
#223 = DIRECTION ( 'NONE',  ( -2.445468806185136597E-29, 3.491481338843145583E-15, 1.000000000000000000 ) ) ;
#224 = DIRECTION ( 'NONE',  ( -1.000000000000000000, 7.105427357601001070E-15, -4.926315508542082329E-29 ) ) ;
#225 = DIRECTION ( 'NONE',  ( -1.000000000000000000, 6.982962677686265922E-15, -4.883557194083112901E-29 ) ) ;
#226 = CIRCLE ( 'NONE', #83, 0.1250000000000001943 ) ;
#227 = EDGE_LOOP ( 'NONE', ( #50, #27, #150, #298 ) ) ;
#228 = PRODUCT_DEFINITION_FORMATION_WITH_SPECIFIED_SOURCE ( 'ANY', '', #267, .NOT_KNOWN. ) ;
#229 = ORIENTED_EDGE ( 'NONE', *, *, #256, .F. ) ;
#230 = CC_DESIGN_PERSON_AND_ORGANIZATION_ASSIGNMENT ( #349, #352, ( #334 ) ) ;
#231 = ORIENTED_EDGE ( 'NONE', *, *, #128, .F. ) ;
#232 = DIRECTION ( 'NONE',  ( 1.000000000000000000, -6.982962677686262766E-15, 0.000000000000000000 ) ) ;
#233 = CONICAL_SURFACE ( 'NONE', #101, 0.1239999999999999991, 0.7853981633979776333 ) ;
#234 = APPROVAL_PERSON_ORGANIZATION ( #66, #266, #39 ) ;
#235 = FACE_OUTER_BOUND ( 'NONE', #194, .T. ) ;
#236 = CARTESIAN_POINT ( 'NONE',  ( 0.1239999999999999991, -9.594590719140960689E-15, -2.500000000000000000 ) ) ;
#237 = EDGE_CURVE ( 'NONE', #300, #115, #183, .T. ) ;
#238 = CC_DESIGN_PERSON_AND_ORGANIZATION_ASSIGNMENT ( #58, #179, ( #267 ) ) ;
#239 = FACE_OUTER_BOUND ( 'NONE', #401, .T. ) ;
#240 = DIRECTION ( 'NONE',  ( -2.445468806185136597E-29, 3.491481338843145583E-15, 1.000000000000000000 ) ) ;
#241 = CIRCLE ( 'NONE', #289, 0.1239999999999999991 ) ;
#242 = ORIENTED_EDGE ( 'NONE', *, *, #76, .F. ) ;
#243 = MECHANICAL_CONTEXT ( 'NONE', #117, 'mechanical' ) ;
#244 = ORIENTED_EDGE ( 'NONE', *, *, #128, .T. ) ;
#245 = DIRECTION ( 'NONE',  ( -2.445468806185136597E-29, 3.491481338843145583E-15, 1.000000000000000000 ) ) ;
#246 = VERTEX_POINT ( 'NONE', #116 ) ;
#247 = FACE_OUTER_BOUND ( 'NONE', #328, .T. ) ;
#248 = AXIS2_PLACEMENT_3D ( 'NONE', #403, #182, #23 ) ;
#249 = ADVANCED_FACE ( 'NONE', ( #89 ), #342, .F. ) ;
#250 = CARTESIAN_POINT ( 'NONE',  ( 9.145071846053518065E-29, -1.400367255615723938E-14, -3.875000000000000000 ) ) ;
#251 = DIRECTION ( 'NONE',  ( -2.445468806185136597E-29, 3.491481338843145583E-15, 1.000000000000000000 ) ) ;
#252 =( CONVERSION_BASED_UNIT ( 'INCH', #325 ) LENGTH_UNIT ( ) NAMED_UNIT ( #407 ) );
#253 = APPROVAL_DATE_TIME ( #336, #361 ) ;
#254 = CC_DESIGN_PERSON_AND_ORGANIZATION_ASSIGNMENT ( #68, #262, ( #228 ) ) ;
#255 =( NAMED_UNIT ( * ) PLANE_ANGLE_UNIT ( ) SI_UNIT ( $, .RADIAN. ) );
#256 = EDGE_CURVE ( 'NONE', #202, #341, #161, .T. ) ;
#257 = CARTESIAN_POINT ( 'NONE',  ( 0.1250000000000001388, -8.728703347107843249E-16, 6.095220969744926748E-30 ) ) ;
#258 = DATE_AND_TIME ( #102, #21 ) ;
#259 = AXIS2_PLACEMENT_3D ( 'NONE', #168, #29, #305 ) ;
#260 = AXIS2_PLACEMENT_3D ( 'NONE', #173, #51, #211 ) ;
#261 = CARTESIAN_POINT ( 'NONE',  ( 9.456100236134031739E-29, -1.443245368101796326E-14, -4.000000000000000888 ) ) ;
#262 = PERSON_AND_ORGANIZATION_ROLE ( 'design_supplier' ) ;
#263 = CARTESIAN_POINT ( 'NONE',  ( 0.1250000000000000000, -8.728703347107833388E-16, 6.095220969744919741E-30 ) ) ;
#264 = ADVANCED_FACE ( 'NONE', ( #247 ), #95, .T. ) ;
#265 = DIRECTION ( 'NONE',  ( 2.438088387897960049E-29, -3.491481338843145188E-15, -1.000000000000000000 ) ) ;
#266 = APPROVAL ( #314, 'UNSPECIFIED' ) ;
#267 = PRODUCT ( '70448', '70448', '', ( #243 ) ) ;
#268 = DIRECTION ( 'NONE',  ( 0.7071067811869218289, -2.468850131086177699E-15, 0.7071067811861732055 ) ) ;
#269 =( NAMED_UNIT ( * ) SI_UNIT ( $, .STERADIAN. ) SOLID_ANGLE_UNIT ( ) );
#270 = AXIS2_PLACEMENT_3D ( 'NONE', #345, #91, #208 ) ;
#271 = DIRECTION ( 'NONE',  ( -2.438088387897960049E-29, 3.491481338843145188E-15, 1.000000000000000000 ) ) ;
#272 = DIRECTION ( 'NONE',  ( 1.000000000000000000, -6.982962677686265922E-15, 4.876176775795935793E-29 ) ) ;
#273 = LINE ( 'NONE', #146, #63 ) ;
#274 = PERSON_AND_ORGANIZATION ( #97, #177 ) ;
#275 = ORIENTED_EDGE ( 'NONE', *, *, #329, .F. ) ;
#276 = CARTESIAN_POINT ( 'NONE',  ( 6.111226546656659252E-29, -8.725211865769023513E-15, -2.499000000000000998 ) ) ;
#277 = AXIS2_PLACEMENT_3D ( 'NONE', #5, #40, #290 ) ;
#278 = EDGE_CURVE ( 'NONE', #55, #281, #184, .T. ) ;
#279 = ORIENTED_EDGE ( 'NONE', *, *, #389, .T. ) ;
#280 = CARTESIAN_POINT ( 'NONE',  ( 6.113672015462842613E-29, -8.728703347107864943E-15, -2.500000000000000000 ) ) ;
#281 = VERTEX_POINT ( 'NONE', #158 ) ;
#282 = DIRECTION ( 'NONE',  ( -2.445468806185136597E-29, 3.491481338843145583E-15, 1.000000000000000000 ) ) ;
#283 = EDGE_CURVE ( 'NONE', #55, #344, #406, .T. ) ;
#284 = EDGE_CURVE ( 'NONE', #112, #207, #354, .T. ) ;
#285 = ADVANCED_BREP_SHAPE_REPRESENTATION ( '70448', ( #38, #166, #44 ), #78 ) ;
#286 = CARTESIAN_POINT ( 'NONE',  ( 4.890937612370279289E-31, -6.982962677686299005E-17, -0.02000000000000002470 ) ) ;
#287 = CARTESIAN_POINT ( 'NONE',  ( 6.113672015462842613E-29, -8.728703347107864943E-15, -2.500000000000000000 ) ) ;
#288 = AXIS2_PLACEMENT_3D ( 'NONE', #250, #1, #154 ) ;
#289 = AXIS2_PLACEMENT_3D ( 'NONE', #397, #109, #232 ) ;
#290 = DIRECTION ( 'NONE',  ( 1.000000000000000000, -6.982962677686266711E-15, 0.000000000000000000 ) ) ;
#291 = CC_DESIGN_PERSON_AND_ORGANIZATION_ASSIGNMENT ( #123, #60, ( #365 ) ) ;
#292 = DIRECTION ( 'NONE',  ( -7.105427357601000281E-15, -1.000000000000000000, 0.000000000000000000 ) ) ;
#293 = COORDINATED_UNIVERSAL_TIME_OFFSET ( 5, 0, .BEHIND. ) ;
#294 = VECTOR ( 'NONE', #17, 39.37007874015748143 ) ;
#295 = CARTESIAN_POINT ( 'NONE',  ( -0.1250000000000003053, -3.509342326572809890E-15, -2.499000000000000998 ) ) ;
#296 = ADVANCED_FACE ( 'NONE', ( #318 ), #69, .F. ) ;
#297 = CARTESIAN_POINT ( 'NONE',  ( 9.476191623967404313E-29, -1.352949018801718908E-14, -3.875000000000000000 ) ) ;
#298 = ORIENTED_EDGE ( 'NONE', *, *, #198, .F. ) ;
#299 = CIRCLE ( 'NONE', #197, 0.1249999999999999861 ) ;
#300 = VERTEX_POINT ( 'NONE', #162 ) ;
#301 = CIRCLE ( 'NONE', #330, 0.1250000000000000000 ) ;
#302 = CARTESIAN_POINT ( 'NONE',  ( 0.1239999999999999991, -9.594590719140960689E-15, -2.500000000000000000 ) ) ;
#303 = EDGE_LOOP ( 'NONE', ( #364, #142 ) ) ;
#304 = FACE_OUTER_BOUND ( 'NONE', #337, .T. ) ;
#305 = DIRECTION ( 'NONE',  ( 1.000000000000000000, -6.982962677686266711E-15, 4.876176775795935793E-29 ) ) ;
#306 = DIRECTION ( 'NONE',  ( 1.000000000000000000, -6.982962677686262766E-15, 0.000000000000000000 ) ) ;
#307 = LOCAL_TIME ( 8, 32, 45.00000000000000000, #87 ) ;
#308 = APPLICATION_PROTOCOL_DEFINITION ( 'international standard', 'config_control_design', 1994, #117 ) ;
#309 = ORIENTED_EDGE ( 'NONE', *, *, #283, .F. ) ;
#310 = DIRECTION ( 'NONE',  ( -1.000000000000000000, 6.982962677686265922E-15, -4.876176775795935793E-29 ) ) ;
#311 = CARTESIAN_POINT ( 'NONE',  ( 0.1250000000000000000, -1.200196710227331272E-14, -3.875000000000000000 ) ) ;
#312 = ORIENTED_EDGE ( 'NONE', *, *, #57, .F. ) ;
#313 = CYLINDRICAL_SURFACE ( 'NONE', #147, 0.1250000000000000000 ) ;
#314 = APPROVAL_STATUS ( 'not_yet_approved' ) ;
#315 = APPROVAL ( #35, 'UNSPECIFIED' ) ;
#316 = VECTOR ( 'NONE', #212, 39.37007874015748143 ) ;
#317 = CC_DESIGN_APPROVAL ( #315, ( #228 ) ) ;
#318 = FACE_OUTER_BOUND ( 'NONE', #405, .T. ) ;
#319 = APPROVAL_DATE_TIME ( #187, #266 ) ;
#320 = CARTESIAN_POINT ( 'NONE',  ( -0.1250000000000001388, 8.881784197001262184E-16, -6.148668862818638533E-30 ) ) ;
#321 = PERSON_AND_ORGANIZATION ( #97, #177 ) ;
#322 = DIRECTION ( 'NONE',  ( -2.445468806185136877E-29, 3.491481338843145188E-15, 1.000000000000000000 ) ) ;
#323 = VECTOR ( 'NONE', #96, 39.37007874015748143 ) ;
#324 = DIRECTION ( 'NONE',  ( -2.445468806185136597E-29, 3.491481338843145583E-15, 1.000000000000000000 ) ) ;
#325 = LENGTH_MEASURE_WITH_UNIT ( LENGTH_MEASURE( 0.02539999999999999897 ), #36 );
#326 = ORIENTED_EDGE ( 'NONE', *, *, #37, .T. ) ;
#327 = CARTESIAN_POINT ( 'NONE',  ( 9.476191623967404313E-29, -1.352949018801718908E-14, -3.875000000000000000 ) ) ;
#328 = EDGE_LOOP ( 'NONE', ( #375, #216, #244, #275 ) ) ;
#329 = EDGE_CURVE ( 'NONE', #93, #145, #19, .T. ) ;
#330 = AXIS2_PLACEMENT_3D ( 'NONE', #327, #200, #331 ) ;
#331 = DIRECTION ( 'NONE',  ( 1.000000000000000000, -6.982962677686262766E-15, 0.000000000000000000 ) ) ;
#332 = ORIENTED_EDGE ( 'NONE', *, *, #329, .T. ) ;
#333 = ORIENTED_EDGE ( 'NONE', *, *, #156, .F. ) ;
#334 = PRODUCT_DEFINITION ( 'UNKNOWN', '', #228, #335 ) ;
#335 = DESIGN_CONTEXT ( 'detailed design', #151, 'design' ) ;
#336 = DATE_AND_TIME ( #206, #307 ) ;
#337 = EDGE_LOOP ( 'NONE', ( #135, #368, #210, #377, #410 ) ) ;
#338 = CARTESIAN_POINT ( 'NONE',  ( 8.728703347108443769E-16, 0.1249999999999912709, -2.500000000000000444 ) ) ;
#339 = CARTESIAN_POINT ( 'NONE',  ( 0.000000000000000000, 0.000000000000000000, 0.000000000000000000 ) ) ;
#340 = DIRECTION ( 'NONE',  ( 0.000000000000000000, 0.000000000000000000, 1.000000000000000000 ) ) ;
#341 = VERTEX_POINT ( 'NONE', #295 ) ;
#342 = PLANE ( 'NONE',  #343 ) ;
#343 = AXIS2_PLACEMENT_3D ( 'NONE', #338, #53, #310 ) ;
#344 = VERTEX_POINT ( 'NONE', #358 ) ;
#345 = CARTESIAN_POINT ( 'NONE',  ( 4.890937612370279289E-31, -6.982962677686299005E-17, -0.02000000000000002470 ) ) ;
#346 = DIRECTION ( 'NONE',  ( 1.000000000000000000, -6.982962677686266711E-15, 4.876176775795935793E-29 ) ) ;
#347 = DATE_AND_TIME ( #220, #149 ) ;
#348 = FACE_OUTER_BOUND ( 'NONE', #199, .T. ) ;
#349 = PERSON_AND_ORGANIZATION ( #97, #177 ) ;
#350 = LINE ( 'NONE', #320, #74 ) ;
#351 = AXIS2_PLACEMENT_3D ( 'NONE', #13, #160, #75 ) ;
#352 = PERSON_AND_ORGANIZATION_ROLE ( 'creator' ) ;
#353 = DATE_TIME_ROLE ( 'creation_date' ) ;
#354 = LINE ( 'NONE', #99, #28 ) ;
#355 = EDGE_CURVE ( 'NONE', #341, #93, #350, .T. ) ;
#356 = EDGE_CURVE ( 'NONE', #246, #55, #359, .T. ) ;
#357 = PERSON_AND_ORGANIZATION_ROLE ( 'creator' ) ;
#358 = CARTESIAN_POINT ( 'NONE',  ( 8.728703347108770161E-16, 0.1249999999999863443, -3.875000000000000444 ) ) ;
#359 = CIRCLE ( 'NONE', #351, 0.1250000000000000000 ) ;
#360 = DIRECTION ( 'NONE',  ( 1.000000000000000000, -6.982962677686262766E-15, 0.000000000000000000 ) ) ;
#361 = APPROVAL ( #113, 'UNSPECIFIED' ) ;
#362 = ORIENTED_EDGE ( 'NONE', *, *, #62, .F. ) ;
#363 = UNCERTAINTY_MEASURE_WITH_UNIT (LENGTH_MEASURE( 1.000000000000000082E-05 ), #252, 'distance_accuracy_value', 'NONE');
#364 = ORIENTED_EDGE ( 'NONE', *, *, #141, .F. ) ;
#365 = SECURITY_CLASSIFICATION ( '', '', #384 ) ;
#366 = ADVANCED_FACE ( 'NONE', ( #7 ), #385, .T. ) ;
#367 = ORIENTED_EDGE ( 'NONE', *, *, #355, .T. ) ;
#368 = ORIENTED_EDGE ( 'NONE', *, *, #156, .T. ) ;
#369 = CIRCLE ( 'NONE', #393, 0.1250000000000000000 ) ;
#370 = EDGE_CURVE ( 'NONE', #145, #93, #299, .T. ) ;
#371 = APPROVAL_ROLE ( '' ) ;
#372 = EDGE_LOOP ( 'NONE', ( #362, #242, #84, #332 ) ) ;
#373 = DIRECTION ( 'NONE',  ( 1.000000000000000000, -6.982962677686262766E-15, 0.000000000000000000 ) ) ;
#374 = EDGE_CURVE ( 'NONE', #395, #246, #226, .T. ) ;
#375 = ORIENTED_EDGE ( 'NONE', *, *, #355, .F. ) ;
#376 = DIRECTION ( 'NONE',  ( 1.000000000000000000, -6.982962677686269077E-15, 0.000000000000000000 ) ) ;
#377 = ORIENTED_EDGE ( 'NONE', *, *, #278, .T. ) ;
#378 = DIRECTION ( 'NONE',  ( -2.445468806185136597E-29, 3.491481338843145583E-15, 1.000000000000000000 ) ) ;
#379 = CIRCLE ( 'NONE', #114, 0.1049999999999997324 ) ;
#380 = LINE ( 'NONE', #92, #316 ) ;
#381 = AXIS2_PLACEMENT_3D ( 'NONE', #105, #265, #124 ) ;
#382 = EDGE_CURVE ( 'NONE', #207, #281, #15, .T. ) ;
#383 = CARTESIAN_POINT ( 'NONE',  ( -6.576263910311883560E-45, 9.389161973396817607E-31, 2.689162868763258952E-16 ) ) ;
#384 = SECURITY_CLASSIFICATION_LEVEL ( 'unclassified' ) ;
#385 = SPHERICAL_SURFACE ( 'NONE', #3, 0.1250000000000001943 ) ;
#386 = DIRECTION ( 'NONE',  ( 1.000000000000000000, -6.982962677686265922E-15, 4.883557194083112340E-29 ) ) ;
#387 = AXIS2_PLACEMENT_3D ( 'NONE', #186, #42, #390 ) ;
#388 = APPROVAL_ROLE ( '' ) ;
#389 = EDGE_CURVE ( 'NONE', #344, #112, #369, .T. ) ;
#390 = DIRECTION ( 'NONE',  ( 1.000000000000000000, -6.982962677686262766E-15, 0.000000000000000000 ) ) ;
#391 = CARTESIAN_POINT ( 'NONE',  ( 0.000000000000000000, 0.000000000000000000, 0.000000000000000000 ) ) ;
#392 = ORIENTED_EDGE ( 'NONE', *, *, #141, .T. ) ;
#393 = AXIS2_PLACEMENT_3D ( 'NONE', #297, #188, #360 ) ;
#394 = ORIENTED_EDGE ( 'NONE', *, *, #73, .F. ) ;
#395 = VERTEX_POINT ( 'NONE', #261 ) ;
#396 = ORIENTED_EDGE ( 'NONE', *, *, #356, .F. ) ;
#397 = CARTESIAN_POINT ( 'NONE',  ( 6.113672015462842613E-29, -8.728703347107864943E-15, -2.500000000000000000 ) ) ;
#398 = AXIS2_PLACEMENT_3D ( 'NONE', #180, #271, #272 ) ;
#399 = LOCAL_TIME ( 8, 32, 45.00000000000000000, #185 ) ;
#400 = EDGE_CURVE ( 'NONE', #395, #344, #163, .T. ) ;
#401 = EDGE_LOOP ( 'NONE', ( #52, #165, #408, #312 ) ) ;
#402 = FACE_OUTER_BOUND ( 'NONE', #108, .T. ) ;
#403 = CARTESIAN_POINT ( 'NONE',  ( 0.000000000000000000, 0.000000000000000000, 0.000000000000000000 ) ) ;
#404 = PRODUCT_DEFINITION_SHAPE ( 'NONE', 'NONE',  #334 ) ;
#405 = EDGE_LOOP ( 'NONE', ( #140, #25 ) ) ;
#406 = CIRCLE ( 'NONE', #387, 0.1250000000000000000 ) ;
#407 = DIMENSIONAL_EXPONENTS ( 1.000000000000000000, 0.000000000000000000, 0.000000000000000000, 0.000000000000000000, 0.000000000000000000, 0.000000000000000000, 0.000000000000000000 ) ;
#408 = ORIENTED_EDGE ( 'NONE', *, *, #370, .T. ) ;
#409 = DIRECTION ( 'NONE',  ( 1.000000000000000000, -6.982962677686270655E-15, 0.000000000000000000 ) ) ;
#410 = ORIENTED_EDGE ( 'NONE', *, *, #382, .F. ) ;
#411 = CC_DESIGN_DATE_AND_TIME_ASSIGNMENT ( #258, #133, ( #365 ) ) ;
#412 = DIRECTION ( 'NONE',  ( 1.000000000000000000, -6.982962677686269077E-15, 0.000000000000000000 ) ) ;
ENDSEC;
END-ISO-10303-21;
