ISO-10303-21;
HEADER;
FILE_DESCRIPTION (( 'STEP AP203' ),
    '1' );
FILE_NAME ('70475.STEP',
    '2024-02-29T02:36:30',
    ( '' ),
    ( '' ),
    'SwSTEP 2.0',
    'SolidWorks 2023',
    '' );
FILE_SCHEMA (( 'CONFIG_CONTROL_DESIGN' ));
ENDSEC;

DATA;
#1 = ORIENTED_EDGE ( 'NONE', *, *, #265, .T. ) ;
#2 = CC_DESIGN_APPROVAL ( #203, ( #114 ) ) ;
#3 = LINE ( 'NONE', #339, #43 ) ;
#4 = PERSON_AND_ORGANIZATION_ROLE ( 'creator' ) ;
#5 = CARTESIAN_POINT ( 'NONE',  ( 0.000000000000000000, 0.000000000000000000, 0.000000000000000000 ) ) ;
#6 = DATE_AND_TIME ( #281, #322 ) ;
#7 = VERTEX_POINT ( 'NONE', #250 ) ;
#8 = AXIS2_PLACEMENT_3D ( 'NONE', #186, #303, #63 ) ;
#9 = ORIENTED_EDGE ( 'NONE', *, *, #347, .F. ) ;
#10 = EDGE_CURVE ( 'NONE', #15, #315, #214, .T. ) ;
#11 = CARTESIAN_POINT ( 'NONE',  ( -0.1250000000000000000, -1.045913593154009919E-14, -2.500000000000000000 ) ) ;
#12 = APPROVAL_STATUS ( 'not_yet_approved' ) ;
#13 = EDGE_CURVE ( 'NONE', #30, #278, #173, .T. ) ;
#14 = FACE_OUTER_BOUND ( 'NONE', #208, .T. ) ;
#15 = VERTEX_POINT ( 'NONE', #175 ) ;
#16 = CARTESIAN_POINT ( 'NONE',  ( -0.1250000000000000000, 8.881784197001252323E-16, -6.148668862818632227E-30 ) ) ;
#17 = CIRCLE ( 'NONE', #161, 0.1250000000000000000 ) ;
#18 = ADVANCED_BREP_SHAPE_REPRESENTATION ( '70475', ( #32, #146, #115 ), #108 ) ;
#19 = FACE_OUTER_BOUND ( 'NONE', #37, .T. ) ;
#20 = PERSON_AND_ORGANIZATION ( #93, #71 ) ;
#21 = LINE ( 'NONE', #217, #359 ) ;
#22 = DIRECTION ( 'NONE',  ( -2.445468806185136877E-29, 3.491481338843145188E-15, 1.000000000000000000 ) ) ;
#23 = DIRECTION ( 'NONE',  ( -2.445468806185136877E-29, 3.491481338843145188E-15, 1.000000000000000000 ) ) ;
#24 = DIRECTION ( 'NONE',  ( 1.000000000000000000, -6.982962677686266711E-15, 0.000000000000000000 ) ) ;
#25 = MECHANICAL_CONTEXT ( 'NONE', #348, 'mechanical' ) ;
#26 = CALENDAR_DATE ( 2024, 28, 2 ) ;
#27 = VERTEX_POINT ( 'NONE', #39 ) ;
#28 = CARTESIAN_POINT ( 'NONE',  ( 0.1249999999999997780, -9.273918764983027713E-16, -0.02000000000000002470 ) ) ;
#29 = DIRECTION ( 'NONE',  ( 0.000000000000000000, 0.000000000000000000, 1.000000000000000000 ) ) ;
#30 = VERTEX_POINT ( 'NONE', #199 ) ;
#31 = CARTESIAN_POINT ( 'NONE',  ( 8.728703347108443769E-16, 0.1249999999999912709, -2.500000000000000444 ) ) ;
#32 = MANIFOLD_SOLID_BREP ( 'Body-Move/Copy2[1]', #204 ) ;
#33 = EDGE_CURVE ( 'NONE', #144, #236, #55, .T. ) ;
#34 = ORIENTED_EDGE ( 'NONE', *, *, #142, .T. ) ;
#35 = ORIENTED_EDGE ( 'NONE', *, *, #121, .F. ) ;
#36 = CIRCLE ( 'NONE', #197, 0.1249999999999997780 ) ;
#37 = EDGE_LOOP ( 'NONE', ( #50, #65 ) ) ;
#38 = DIRECTION ( 'NONE',  ( -2.445468806185136597E-29, 3.491481338843145583E-15, 1.000000000000000000 ) ) ;
#39 = CARTESIAN_POINT ( 'NONE',  ( -0.1250000000000000278, -3.509342326572813835E-15, -2.499000000000000998 ) ) ;
#40 = CALENDAR_DATE ( 2024, 28, 2 ) ;
#41 = DIMENSIONAL_EXPONENTS ( 1.000000000000000000, 0.000000000000000000, 0.000000000000000000, 0.000000000000000000, 0.000000000000000000, 0.000000000000000000, 0.000000000000000000 ) ;
#42 = APPROVAL_DATE_TIME ( #6, #106 ) ;
#43 = VECTOR ( 'NONE', #97, 39.37007874015748143 ) ;
#44 = UNCERTAINTY_MEASURE_WITH_UNIT (LENGTH_MEASURE( 1.000000000000000082E-05 ), #163, 'distance_accuracy_value', 'NONE');
#45 = DATE_TIME_ROLE ( 'creation_date' ) ;
#46 = FACE_OUTER_BOUND ( 'NONE', #216, .T. ) ;
#47 = DIRECTION ( 'NONE',  ( -1.000000000000000000, 6.982962677686266711E-15, 0.000000000000000000 ) ) ;
#48 = ORIENTED_EDGE ( 'NONE', *, *, #104, .F. ) ;
#49 = CIRCLE ( 'NONE', #335, 0.1239999999999999991 ) ;
#50 = ORIENTED_EDGE ( 'NONE', *, *, #142, .F. ) ;
#51 = DESIGN_CONTEXT ( 'detailed design', #357, 'design' ) ;
#52 = APPROVAL_ROLE ( '' ) ;
#53 = ADVANCED_FACE ( 'NONE', ( #286 ), #259, .T. ) ;
#54 = DIRECTION ( 'NONE',  ( -2.445468806185136597E-29, 3.491481338843145583E-15, 1.000000000000000000 ) ) ;
#55 = CIRCLE ( 'NONE', #351, 0.1250000000000000000 ) ;
#56 = CARTESIAN_POINT ( 'NONE',  ( 6.113672015462842613E-29, -8.728703347107864943E-15, -2.500000000000000000 ) ) ;
#57 = LENGTH_MEASURE_WITH_UNIT ( LENGTH_MEASURE( 0.02539999999999999897 ), #242 );
#58 = DIRECTION ( 'NONE',  ( -1.000000000000000000, 6.982962677686265922E-15, -4.876176775795935793E-29 ) ) ;
#59 = CALENDAR_DATE ( 2024, 28, 2 ) ;
#60 = DIRECTION ( 'NONE',  ( 1.000000000000000000, -6.982962677686266711E-15, 0.000000000000000000 ) ) ;
#61 = ORIENTED_EDGE ( 'NONE', *, *, #33, .F. ) ;
#62 = DIRECTION ( 'NONE',  ( 1.000000000000000000, -6.982962677686266711E-15, 4.876176775795935793E-29 ) ) ;
#63 = DIRECTION ( 'NONE',  ( 1.000000000000000000, -6.982962677686262766E-15, 0.000000000000000000 ) ) ;
#64 = FACE_OUTER_BOUND ( 'NONE', #356, .T. ) ;
#65 = ORIENTED_EDGE ( 'NONE', *, *, #252, .F. ) ;
#66 = DIRECTION ( 'NONE',  ( 2.445468806185136597E-29, -3.491481338843145583E-15, -1.000000000000000000 ) ) ;
#67 = CARTESIAN_POINT ( 'NONE',  ( 8.728703347108810590E-16, 0.1249999999999860251, -4.000000000000000888 ) ) ;
#68 = CARTESIAN_POINT ( 'NONE',  ( 0.1239999999999999991, -9.594590719140960689E-15, -2.500000000000000000 ) ) ;
#69 = CARTESIAN_POINT ( 'NONE',  ( 0.000000000000000000, 0.000000000000000000, 0.000000000000000000 ) ) ;
#70 = AXIS2_PLACEMENT_3D ( 'NONE', #328, #167, #62 ) ;
#71 = ORGANIZATION ( 'UNSPECIFIED', 'UNSPECIFIED', '' ) ;
#72 = ORIENTED_EDGE ( 'NONE', *, *, #312, .F. ) ;
#73 = AXIS2_PLACEMENT_3D ( 'NONE', #103, #179, #47 ) ;
#74 = EDGE_CURVE ( 'NONE', #27, #7, #313, .T. ) ;
#75 = DIRECTION ( 'NONE',  ( 1.000000000000000000, -6.982962677686262766E-15, 0.000000000000000000 ) ) ;
#76 = DIRECTION ( 'NONE',  ( -2.445468806185136597E-29, 3.491481338843145583E-15, 1.000000000000000000 ) ) ;
#77 = CARTESIAN_POINT ( 'NONE',  ( 6.113672015462842613E-29, -8.728703347107864943E-15, -2.500000000000000000 ) ) ;
#78 = DIRECTION ( 'NONE',  ( 1.000000000000000000, -6.982962677686266711E-15, 4.876176775795935793E-29 ) ) ;
#79 = LINE ( 'NONE', #84, #99 ) ;
#80 = PERSON_AND_ORGANIZATION ( #93, #71 ) ;
#81 = AXIS2_PLACEMENT_3D ( 'NONE', #325, #301, #60 ) ;
#82 = ADVANCED_FACE ( 'NONE', ( #46 ), #154, .F. ) ;
#83 = CYLINDRICAL_SURFACE ( 'NONE', #123, 0.1249999999999999029 ) ;
#84 = CARTESIAN_POINT ( 'NONE',  ( 0.1249999999999999029, -8.728703347107826486E-16, 6.095220969744914837E-30 ) ) ;
#85 = DIRECTION ( 'NONE',  ( 1.000000000000000000, -6.982962677686262766E-15, 0.000000000000000000 ) ) ;
#86 = VECTOR ( 'NONE', #172, 39.37007874015748143 ) ;
#87 = EDGE_LOOP ( 'NONE', ( #337, #360, #1, #306 ) ) ;
#88 = DIRECTION ( 'NONE',  ( 1.000000000000000000, -6.982962677686265922E-15, 4.876176775795935793E-29 ) ) ;
#89 = CARTESIAN_POINT ( 'NONE',  ( 0.1250000000000000000, -9.601573681818648281E-15, -2.500000000000000000 ) ) ;
#90 = VECTOR ( 'NONE', #139, 39.37007874015748143 ) ;
#91 = LOCAL_TIME ( 21, 36, 30.00000000000000000, #207 ) ;
#92 = VERTEX_POINT ( 'NONE', #95 ) ;
#93 = PERSON ( 'UNSPECIFIED', 'UNSPECIFIED', 'UNSPECIFIED', ('UNSPECIFIED'), ('UNSPECIFIED'), ('UNSPECIFIED') ) ;
#94 = ORIENTED_EDGE ( 'NONE', *, *, #10, .F. ) ;
#95 = CARTESIAN_POINT ( 'NONE',  ( -0.1249999999999997780, 8.030407079339188573E-16, -0.02000000000000002470 ) ) ;
#96 = COORDINATED_UNIVERSAL_TIME_OFFSET ( 5, 0, .BEHIND. ) ;
#97 = DIRECTION ( 'NONE',  ( -0.7071067811865466846, 2.468850131082247989E-15, -0.7071067811865483499 ) ) ;
#98 = ORIENTED_EDGE ( 'NONE', *, *, #33, .T. ) ;
#99 = VECTOR ( 'NONE', #23, 39.37007874015748143 ) ;
#100 = PERSON_AND_ORGANIZATION ( #93, #71 ) ;
#101 = DIRECTION ( 'NONE',  ( 1.000000000000000000, -6.982962677686270655E-15, 0.000000000000000000 ) ) ;
#102 = PERSON_AND_ORGANIZATION_ROLE ( 'creator' ) ;
#103 = CARTESIAN_POINT ( 'NONE',  ( 4.890937612370279289E-31, -6.982962677686299005E-17, -0.02000000000000002470 ) ) ;
#104 = EDGE_CURVE ( 'NONE', #278, #144, #194, .T. ) ;
#105 = APPROVAL_PERSON_ORGANIZATION ( #153, #106, #205 ) ;
#106 = APPROVAL ( #260, 'UNSPECIFIED' ) ;
#107 = ORIENTED_EDGE ( 'NONE', *, *, #312, .T. ) ;
#108 =( GEOMETRIC_REPRESENTATION_CONTEXT ( 3 ) GLOBAL_UNCERTAINTY_ASSIGNED_CONTEXT ( ( #44 ) ) GLOBAL_UNIT_ASSIGNED_CONTEXT ( ( #163, #213, #126 ) ) REPRESENTATION_CONTEXT ( 'NONE', 'WORKASPACE' ) );
#109 = DIRECTION ( 'NONE',  ( -2.445468806185136597E-29, 3.491481338843145583E-15, 1.000000000000000000 ) ) ;
#110 = DIRECTION ( 'NONE',  ( -2.445468806185136597E-29, 3.491481338843145583E-15, 1.000000000000000000 ) ) ;
#111 = CYLINDRICAL_SURFACE ( 'NONE', #70, 0.1249999999999999029 ) ;
#112 = LINE ( 'NONE', #135, #275 ) ;
#113 = AXIS2_PLACEMENT_3D ( 'NONE', #225, #128, #78 ) ;
#114 = PRODUCT_DEFINITION ( 'UNKNOWN', '', #282, #51 ) ;
#115 = AXIS2_PLACEMENT_3D ( 'NONE', #69, #29, #131 ) ;
#116 = ORIENTED_EDGE ( 'NONE', *, *, #133, .F. ) ;
#117 = CARTESIAN_POINT ( 'NONE',  ( 6.113672015462842613E-29, -8.728703347107864943E-15, -2.500000000000000000 ) ) ;
#118 = CC_DESIGN_PERSON_AND_ORGANIZATION_ASSIGNMENT ( #20, #234, ( #230 ) ) ;
#119 = CONICAL_SURFACE ( 'NONE', #231, 0.1239999999999999991, 0.7853981633978239785 ) ;
#120 = DIRECTION ( 'NONE',  ( -2.445468806185136597E-29, 3.491481338843145583E-15, 1.000000000000000000 ) ) ;
#121 = EDGE_CURVE ( 'NONE', #7, #165, #79, .T. ) ;
#122 = AXIS2_PLACEMENT_3D ( 'NONE', #249, #261, #338 ) ;
#123 = AXIS2_PLACEMENT_3D ( 'NONE', #183, #283, #277 ) ;
#124 = DATE_AND_TIME ( #40, #352 ) ;
#125 = ORIENTED_EDGE ( 'NONE', *, *, #181, .T. ) ;
#126 =( NAMED_UNIT ( * ) SI_UNIT ( $, .STERADIAN. ) SOLID_ANGLE_UNIT ( ) );
#127 = PERSON_AND_ORGANIZATION ( #93, #71 ) ;
#128 = DIRECTION ( 'NONE',  ( -2.445468806185136597E-29, 3.491481338843145583E-15, 1.000000000000000000 ) ) ;
#129 = APPROVAL_ROLE ( '' ) ;
#130 = VERTEX_POINT ( 'NONE', #330 ) ;
#131 = DIRECTION ( 'NONE',  ( 1.000000000000000000, 0.000000000000000000, 0.000000000000000000 ) ) ;
#132 = AXIS2_PLACEMENT_3D ( 'NONE', #280, #316, #75 ) ;
#133 = EDGE_CURVE ( 'NONE', #30, #236, #298, .T. ) ;
#134 = LINE ( 'NONE', #28, #90 ) ;
#135 = CARTESIAN_POINT ( 'NONE',  ( -0.1239999999999999991, -7.847630354765339930E-15, -2.500000000000000000 ) ) ;
#136 = AXIS2_PLACEMENT_3D ( 'NONE', #341, #258, #196 ) ;
#137 = CARTESIAN_POINT ( 'NONE',  ( 0.000000000000000000, 0.000000000000000000, 0.000000000000000000 ) ) ;
#138 = ORIENTED_EDGE ( 'NONE', *, *, #264, .T. ) ;
#139 = DIRECTION ( 'NONE',  ( 0.7071067811865466846, -7.319954787623252890E-15, -0.7071067811865483499 ) ) ;
#140 = CARTESIAN_POINT ( 'NONE',  ( -0.1239999999999999991, -7.842331900417119105E-15, -2.500000000000000000 ) ) ;
#141 = ADVANCED_FACE ( 'NONE', ( #212 ), #305, .T. ) ;
#142 = EDGE_CURVE ( 'NONE', #130, #287, #156, .T. ) ;
#143 = ORIENTED_EDGE ( 'NONE', *, *, #361, .F. ) ;
#144 = VERTEX_POINT ( 'NONE', #89 ) ;
#145 = LOCAL_TIME ( 21, 36, 30.00000000000000000, #353 ) ;
#146 = MANIFOLD_SOLID_BREP ( 'Body-Move/Copy2[2]', #326 ) ;
#147 = DIRECTION ( 'NONE',  ( -2.445468806185136597E-29, 3.491481338843145583E-15, 1.000000000000000000 ) ) ;
#148 = DIRECTION ( 'NONE',  ( 1.000000000000000000, -6.982962677686262766E-15, 0.000000000000000000 ) ) ;
#149 = APPLICATION_PROTOCOL_DEFINITION ( 'international standard', 'config_control_design', 1994, #348 ) ;
#150 = ORIENTED_EDGE ( 'NONE', *, *, #201, .T. ) ;
#151 = ORIENTED_EDGE ( 'NONE', *, *, #264, .F. ) ;
#152 = CC_DESIGN_APPROVAL ( #106, ( #282 ) ) ;
#153 = PERSON_AND_ORGANIZATION ( #93, #71 ) ;
#154 = PLANE ( 'NONE',  #122 ) ;
#155 = ADVANCED_FACE ( 'NONE', ( #363 ), #119, .T. ) ;
#156 = CIRCLE ( 'NONE', #267, 0.1239999999999999991 ) ;
#157 = PRODUCT_RELATED_PRODUCT_CATEGORY ( 'detail', '', ( #318 ) ) ;
#158 = ORIENTED_EDGE ( 'NONE', *, *, #74, .T. ) ;
#159 = DATE_AND_TIME ( #26, #145 ) ;
#160 = ORIENTED_EDGE ( 'NONE', *, *, #13, .F. ) ;
#161 = AXIS2_PLACEMENT_3D ( 'NONE', #174, #38, #226 ) ;
#162 = DIRECTION ( 'NONE',  ( -2.445468806185136597E-29, 3.491481338843145583E-15, 1.000000000000000000 ) ) ;
#163 =( CONVERSION_BASED_UNIT ( 'INCH', #57 ) LENGTH_UNIT ( ) NAMED_UNIT ( #41 ) );
#164 = SHAPE_DEFINITION_REPRESENTATION ( #253, #18 ) ;
#165 = VERTEX_POINT ( 'NONE', #320 ) ;
#166 = FACE_OUTER_BOUND ( 'NONE', #193, .T. ) ;
#167 = DIRECTION ( 'NONE',  ( -2.445468806185136597E-29, 3.491481338843145583E-15, 1.000000000000000000 ) ) ;
#168 = CONICAL_SURFACE ( 'NONE', #73, 0.1249999999999997780, 0.7853981633974471688 ) ;
#169 = ADVANCED_FACE ( 'NONE', ( #227 ), #168, .T. ) ;
#170 = PLANE ( 'NONE',  #245 ) ;
#171 = DIRECTION ( 'NONE',  ( -2.445468806185136597E-29, 3.491481338843145583E-15, 1.000000000000000000 ) ) ;
#172 = DIRECTION ( 'NONE',  ( -2.445468806185136877E-29, 3.491481338843145188E-15, 1.000000000000000000 ) ) ;
#173 = CIRCLE ( 'NONE', #132, 0.1250000000000000000 ) ;
#174 = CARTESIAN_POINT ( 'NONE',  ( 6.113672015462842613E-29, -8.728703347107864943E-15, -2.500000000000000000 ) ) ;
#175 = CARTESIAN_POINT ( 'NONE',  ( -0.1049999999999998018, 7.681258945454876027E-16, -5.249639473182157468E-30 ) ) ;
#176 = ADVANCED_FACE ( 'NONE', ( #14 ), #170, .F. ) ;
#177 = AXIS2_PLACEMENT_3D ( 'NONE', #223, #147, #293 ) ;
#178 = COORDINATED_UNIVERSAL_TIME_OFFSET ( 5, 0, .BEHIND. ) ;
#179 = DIRECTION ( 'NONE',  ( 2.445468806185136597E-29, -3.491481338843145583E-15, -1.000000000000000000 ) ) ;
#180 = ORIENTED_EDGE ( 'NONE', *, *, #104, .T. ) ;
#181 = EDGE_CURVE ( 'NONE', #27, #92, #21, .T. ) ;
#182 = CC_DESIGN_DATE_AND_TIME_ASSIGNMENT ( #202, #45, ( #114 ) ) ;
#183 = CARTESIAN_POINT ( 'NONE',  ( 0.000000000000000000, 0.000000000000000000, 0.000000000000000000 ) ) ;
#184 = AXIS2_PLACEMENT_3D ( 'NONE', #241, #66, #366 ) ;
#185 = CIRCLE ( 'NONE', #354, 0.1250000000000000000 ) ;
#186 = CARTESIAN_POINT ( 'NONE',  ( 9.781875224740546387E-29, -1.396592535537258233E-14, -4.000000000000000000 ) ) ;
#187 = CARTESIAN_POINT ( 'NONE',  ( 0.1250000000000000000, -1.483879569008336409E-14, -4.000000000000000000 ) ) ;
#188 = FACE_OUTER_BOUND ( 'NONE', #334, .T. ) ;
#189 = CARTESIAN_POINT ( 'NONE',  ( 6.113672015462842613E-29, -8.728703347107864943E-15, -2.500000000000000000 ) ) ;
#190 = DIRECTION ( 'NONE',  ( 1.000000000000000000, -6.982962677686262766E-15, 0.000000000000000000 ) ) ;
#191 = APPROVAL_PERSON_ORGANIZATION ( #235, #218, #52 ) ;
#192 = ADVANCED_FACE ( 'NONE', ( #237 ), #209, .T. ) ;
#193 = EDGE_LOOP ( 'NONE', ( #143, #160 ) ) ;
#194 = LINE ( 'NONE', #310, #86 ) ;
#195 = ADVANCED_FACE ( 'NONE', ( #188 ), #111, .T. ) ;
#196 = DIRECTION ( 'NONE',  ( 1.000000000000000000, -6.982962677686265922E-15, 4.876176775795935793E-29 ) ) ;
#197 = AXIS2_PLACEMENT_3D ( 'NONE', #273, #271, #24 ) ;
#198 = PERSON_AND_ORGANIZATION_ROLE ( 'design_supplier' ) ;
#199 = CARTESIAN_POINT ( 'NONE',  ( -0.1250000000000000000, -1.045913593154009919E-14, -4.000000000000000000 ) ) ;
#200 = EDGE_LOOP ( 'NONE', ( #116, #285, #180, #317 ) ) ;
#201 = EDGE_CURVE ( 'NONE', #165, #92, #36, .T. ) ;
#202 = DATE_AND_TIME ( #290, #246 ) ;
#203 = APPROVAL ( #12, 'UNSPECIFIED' ) ;
#204 = CLOSED_SHELL ( 'NONE', ( #53, #365, #176, #141 ) ) ;
#205 = APPROVAL_ROLE ( '' ) ;
#206 = APPROVAL_DATE_TIME ( #124, #203 ) ;
#207 = COORDINATED_UNIVERSAL_TIME_OFFSET ( 5, 0, .BEHIND. ) ;
#208 = EDGE_LOOP ( 'NONE', ( #98, #243 ) ) ;
#209 = CONICAL_SURFACE ( 'NONE', #184, 0.1249999999999997780, 0.7853981633974471688 ) ;
#210 = AXIS2_PLACEMENT_3D ( 'NONE', #67, #229, #350 ) ;
#211 = DATE_AND_TIME ( #59, #91 ) ;
#212 = FACE_OUTER_BOUND ( 'NONE', #200, .T. ) ;
#213 =( NAMED_UNIT ( * ) PLANE_ANGLE_UNIT ( ) SI_UNIT ( $, .RADIAN. ) );
#214 = CIRCLE ( 'NONE', #274, 0.1049999999999998018 ) ;
#215 = DIRECTION ( 'NONE',  ( 1.000000000000000000, -6.982962677686270655E-15, 0.000000000000000000 ) ) ;
#216 = EDGE_LOOP ( 'NONE', ( #257, #138 ) ) ;
#217 = CARTESIAN_POINT ( 'NONE',  ( -0.1249999999999999029, 8.881784197001245421E-16, -6.148668862818627323E-30 ) ) ;
#218 = APPROVAL ( #358, 'UNSPECIFIED' ) ;
#219 = DIRECTION ( 'NONE',  ( -2.445468806185136597E-29, 3.491481338843145583E-15, 1.000000000000000000 ) ) ;
#220 = ORIENTED_EDGE ( 'NONE', *, *, #333, .T. ) ;
#221 = EDGE_CURVE ( 'NONE', #315, #165, #134, .T. ) ;
#222 = ORIENTED_EDGE ( 'NONE', *, *, #121, .T. ) ;
#223 = CARTESIAN_POINT ( 'NONE',  ( 6.111226546656659252E-29, -8.725211865769023513E-15, -2.499000000000000998 ) ) ;
#224 = ADVANCED_FACE ( 'NONE', ( #364 ), #291, .T. ) ;
#225 = CARTESIAN_POINT ( 'NONE',  ( 0.000000000000000000, 0.000000000000000000, 0.000000000000000000 ) ) ;
#226 = DIRECTION ( 'NONE',  ( 1.000000000000000000, -6.982962677686270655E-15, 0.000000000000000000 ) ) ;
#227 = FACE_OUTER_BOUND ( 'NONE', #345, .T. ) ;
#228 = APPLICATION_PROTOCOL_DEFINITION ( 'international standard', 'config_control_design', 1994, #357 ) ;
#229 = DIRECTION ( 'NONE',  ( 2.438088387897960049E-29, -3.491481338843145188E-15, -1.000000000000000000 ) ) ;
#230 = SECURITY_CLASSIFICATION ( '', '', #297 ) ;
#231 = AXIS2_PLACEMENT_3D ( 'NONE', #189, #110, #85 ) ;
#232 = CC_DESIGN_SECURITY_CLASSIFICATION ( #230, ( #282 ) ) ;
#233 = PLANE ( 'NONE',  #327 ) ;
#234 = PERSON_AND_ORGANIZATION_ROLE ( 'classification_officer' ) ;
#235 = PERSON_AND_ORGANIZATION ( #93, #71 ) ;
#236 = VERTEX_POINT ( 'NONE', #11 ) ;
#237 = FACE_OUTER_BOUND ( 'NONE', #284, .T. ) ;
#238 = AXIS2_PLACEMENT_3D ( 'NONE', #117, #219, #190 ) ;
#239 = DIRECTION ( 'NONE',  ( -0.7071067811868130271, 7.493145998871311837E-15, 0.7071067811862817853 ) ) ;
#240 = DIRECTION ( 'NONE',  ( 1.000000000000000000, -6.982962677686262766E-15, 0.000000000000000000 ) ) ;
#241 = CARTESIAN_POINT ( 'NONE',  ( 4.890937612370279289E-31, -6.982962677686299005E-17, -0.02000000000000002470 ) ) ;
#242 =( LENGTH_UNIT ( ) NAMED_UNIT ( * ) SI_UNIT ( $, .METRE. ) );
#243 = ORIENTED_EDGE ( 'NONE', *, *, #314, .T. ) ;
#244 = CC_DESIGN_PERSON_AND_ORGANIZATION_ASSIGNMENT ( #80, #102, ( #114 ) ) ;
#245 = AXIS2_PLACEMENT_3D ( 'NONE', #31, #279, #58 ) ;
#246 = LOCAL_TIME ( 21, 36, 30.00000000000000000, #251 ) ;
#247 = DIRECTION ( 'NONE',  ( 1.000000000000000000, -6.982962677686265922E-15, 4.876176775795935793E-29 ) ) ;
#248 = ORIENTED_EDGE ( 'NONE', *, *, #272, .F. ) ;
#249 = CARTESIAN_POINT ( 'NONE',  ( 7.332110811570565452E-16, 0.1049999999999998018, -3.666055405785296038E-16 ) ) ;
#250 = CARTESIAN_POINT ( 'NONE',  ( 0.1250000000000000000, -9.598082200479808430E-15, -2.499000000000000998 ) ) ;
#251 = COORDINATED_UNIVERSAL_TIME_OFFSET ( 5, 0, .BEHIND. ) ;
#252 = EDGE_CURVE ( 'NONE', #287, #130, #49, .T. ) ;
#253 = PRODUCT_DEFINITION_SHAPE ( 'NONE', 'NONE',  #114 ) ;
#254 = ORIENTED_EDGE ( 'NONE', *, *, #221, .T. ) ;
#255 = CC_DESIGN_PERSON_AND_ORGANIZATION_ASSIGNMENT ( #100, #4, ( #282 ) ) ;
#256 = CIRCLE ( 'NONE', #8, 0.1250000000000000000 ) ;
#257 = ORIENTED_EDGE ( 'NONE', *, *, #10, .T. ) ;
#258 = DIRECTION ( 'NONE',  ( -2.445468806185136597E-29, 3.491481338843145583E-15, 1.000000000000000000 ) ) ;
#259 = CYLINDRICAL_SURFACE ( 'NONE', #113, 0.1250000000000000000 ) ;
#260 = APPROVAL_STATUS ( 'not_yet_approved' ) ;
#261 = DIRECTION ( 'NONE',  ( 2.438088387897960049E-29, -3.491481338843145188E-15, -1.000000000000000000 ) ) ;
#262 = ORIENTED_EDGE ( 'NONE', *, *, #181, .F. ) ;
#263 = AXIS2_PLACEMENT_3D ( 'NONE', #137, #109, #276 ) ;
#264 = EDGE_CURVE ( 'NONE', #315, #15, #295, .T. ) ;
#265 = EDGE_CURVE ( 'NONE', #130, #7, #292, .T. ) ;
#266 = ORIENTED_EDGE ( 'NONE', *, *, #361, .T. ) ;
#267 = AXIS2_PLACEMENT_3D ( 'NONE', #56, #162, #240 ) ;
#268 = CIRCLE ( 'NONE', #81, 0.1249999999999997780 ) ;
#269 = CARTESIAN_POINT ( 'NONE',  ( 6.113672015462842613E-29, -8.728703347107864943E-15, -2.500000000000000000 ) ) ;
#270 = ORIENTED_EDGE ( 'NONE', *, *, #272, .T. ) ;
#271 = DIRECTION ( 'NONE',  ( -2.445468806185136597E-29, 3.491481338843145583E-15, 1.000000000000000000 ) ) ;
#272 = EDGE_CURVE ( 'NONE', #92, #165, #268, .T. ) ;
#273 = CARTESIAN_POINT ( 'NONE',  ( 4.890937612370279289E-31, -6.982962677686299005E-17, -0.02000000000000002470 ) ) ;
#274 = AXIS2_PLACEMENT_3D ( 'NONE', #5, #171, #247 ) ;
#275 = VECTOR ( 'NONE', #239, 39.37007874015748854 ) ;
#276 = DIRECTION ( 'NONE',  ( 1.000000000000000000, -6.982962677686266711E-15, 4.876176775795935793E-29 ) ) ;
#277 = DIRECTION ( 'NONE',  ( 1.000000000000000000, -6.982962677686266711E-15, 4.876176775795935793E-29 ) ) ;
#278 = VERTEX_POINT ( 'NONE', #187 ) ;
#279 = DIRECTION ( 'NONE',  ( 2.438088387897960049E-29, -3.491481338843145188E-15, -1.000000000000000000 ) ) ;
#280 = CARTESIAN_POINT ( 'NONE',  ( 9.781875224740546387E-29, -1.396592535537258233E-14, -4.000000000000000000 ) ) ;
#281 = CALENDAR_DATE ( 2024, 28, 2 ) ;
#282 = PRODUCT_DEFINITION_FORMATION_WITH_SPECIFIED_SOURCE ( 'ANY', '', #318, .NOT_KNOWN. ) ;
#283 = DIRECTION ( 'NONE',  ( -2.445468806185136597E-29, 3.491481338843145583E-15, 1.000000000000000000 ) ) ;
#284 = EDGE_LOOP ( 'NONE', ( #151, #254, #150, #72 ) ) ;
#285 = ORIENTED_EDGE ( 'NONE', *, *, #13, .T. ) ;
#286 = FACE_OUTER_BOUND ( 'NONE', #332, .T. ) ;
#287 = VERTEX_POINT ( 'NONE', #140 ) ;
#288 = CC_DESIGN_DATE_AND_TIME_ASSIGNMENT ( #211, #324, ( #230 ) ) ;
#289 = PERSON_AND_ORGANIZATION_ROLE ( 'design_owner' ) ;
#290 = CALENDAR_DATE ( 2024, 28, 2 ) ;
#291 = CONICAL_SURFACE ( 'NONE', #238, 0.1239999999999999991, 0.7853981633978239785 ) ;
#292 = LINE ( 'NONE', #68, #344 ) ;
#293 = DIRECTION ( 'NONE',  ( 1.000000000000000000, -6.982962677686270655E-15, 0.000000000000000000 ) ) ;
#294 = ADVANCED_FACE ( 'NONE', ( #64 ), #83, .T. ) ;
#295 = CIRCLE ( 'NONE', #136, 0.1049999999999998018 ) ;
#296 = EDGE_LOOP ( 'NONE', ( #34, #220, #9, #340 ) ) ;
#297 = SECURITY_CLASSIFICATION_LEVEL ( 'unclassified' ) ;
#298 = LINE ( 'NONE', #16, #323 ) ;
#299 = DIRECTION ( 'NONE',  ( 0.7071067811868130271, -2.468850131085038979E-15, 0.7071067811862817853 ) ) ;
#300 = APPROVAL_PERSON_ORGANIZATION ( #346, #203, #129 ) ;
#301 = DIRECTION ( 'NONE',  ( -2.445468806185136597E-29, 3.491481338843145583E-15, 1.000000000000000000 ) ) ;
#302 = DIRECTION ( 'NONE',  ( -2.445468806185136877E-29, 3.491481338843145188E-15, 1.000000000000000000 ) ) ;
#303 = DIRECTION ( 'NONE',  ( -2.445468806185136597E-29, 3.491481338843145583E-15, 1.000000000000000000 ) ) ;
#304 = APPROVAL_DATE_TIME ( #159, #218 ) ;
#305 = CYLINDRICAL_SURFACE ( 'NONE', #263, 0.1250000000000000000 ) ;
#306 = ORIENTED_EDGE ( 'NONE', *, *, #74, .F. ) ;
#307 = CC_DESIGN_PERSON_AND_ORGANIZATION_ASSIGNMENT ( #127, #289, ( #318 ) ) ;
#308 = ORIENTED_EDGE ( 'NONE', *, *, #201, .F. ) ;
#309 = ORIENTED_EDGE ( 'NONE', *, *, #347, .T. ) ;
#310 = CARTESIAN_POINT ( 'NONE',  ( 0.1250000000000000000, -8.728703347107833388E-16, 6.095220969744919741E-30 ) ) ;
#311 = CC_DESIGN_PERSON_AND_ORGANIZATION_ASSIGNMENT ( #342, #198, ( #282 ) ) ;
#312 = EDGE_CURVE ( 'NONE', #15, #92, #3, .T. ) ;
#313 = CIRCLE ( 'NONE', #177, 0.1250000000000000000 ) ;
#314 = EDGE_CURVE ( 'NONE', #236, #144, #17, .T. ) ;
#315 = VERTEX_POINT ( 'NONE', #321 ) ;
#316 = DIRECTION ( 'NONE',  ( -2.445468806185136597E-29, 3.491481338843145583E-15, 1.000000000000000000 ) ) ;
#317 = ORIENTED_EDGE ( 'NONE', *, *, #314, .F. ) ;
#318 = PRODUCT ( '70475', '70475', '', ( #25 ) ) ;
#319 = CARTESIAN_POINT ( 'NONE',  ( 6.113672015462842613E-29, -8.728703347107864943E-15, -2.500000000000000000 ) ) ;
#320 = CARTESIAN_POINT ( 'NONE',  ( 0.1249999999999997780, -9.273918764983027713E-16, -0.02000000000000002470 ) ) ;
#321 = CARTESIAN_POINT ( 'NONE',  ( 0.1049999999999998018, -8.238720831321562839E-16, 5.444276250344140956E-30 ) ) ;
#322 = LOCAL_TIME ( 21, 36, 30.00000000000000000, #96 ) ;
#323 = VECTOR ( 'NONE', #22, 39.37007874015748143 ) ;
#324 = DATE_TIME_ROLE ( 'classification_date' ) ;
#325 = CARTESIAN_POINT ( 'NONE',  ( 4.890937612370279289E-31, -6.982962677686299005E-17, -0.02000000000000002470 ) ) ;
#326 = CLOSED_SHELL ( 'NONE', ( #155, #294, #192, #169, #195, #224, #355, #82 ) ) ;
#327 = AXIS2_PLACEMENT_3D ( 'NONE', #269, #329, #88 ) ;
#328 = CARTESIAN_POINT ( 'NONE',  ( 0.000000000000000000, 0.000000000000000000, 0.000000000000000000 ) ) ;
#329 = DIRECTION ( 'NONE',  ( -2.438088387897960049E-29, 3.491481338843145188E-15, 1.000000000000000000 ) ) ;
#330 = CARTESIAN_POINT ( 'NONE',  ( 0.1239999999999999991, -9.594590719140960689E-15, -2.500000000000000000 ) ) ;
#331 = PLANE ( 'NONE',  #210 ) ;
#332 = EDGE_LOOP ( 'NONE', ( #266, #343, #61, #48 ) ) ;
#333 = EDGE_CURVE ( 'NONE', #287, #27, #112, .T. ) ;
#334 = EDGE_LOOP ( 'NONE', ( #262, #158, #222, #248 ) ) ;
#335 = AXIS2_PLACEMENT_3D ( 'NONE', #77, #76, #148 ) ;
#336 = CC_DESIGN_APPROVAL ( #218, ( #230 ) ) ;
#337 = ORIENTED_EDGE ( 'NONE', *, *, #333, .F. ) ;
#338 = DIRECTION ( 'NONE',  ( -1.000000000000000000, 6.982962677686265922E-15, -4.876176775795935793E-29 ) ) ;
#339 = CARTESIAN_POINT ( 'NONE',  ( -0.1249999999999997780, 8.030407079339188573E-16, -0.02000000000000002470 ) ) ;
#340 = ORIENTED_EDGE ( 'NONE', *, *, #265, .F. ) ;
#341 = CARTESIAN_POINT ( 'NONE',  ( 0.000000000000000000, 0.000000000000000000, 0.000000000000000000 ) ) ;
#342 = PERSON_AND_ORGANIZATION ( #93, #71 ) ;
#343 = ORIENTED_EDGE ( 'NONE', *, *, #133, .T. ) ;
#344 = VECTOR ( 'NONE', #299, 39.37007874015748854 ) ;
#345 = EDGE_LOOP ( 'NONE', ( #349, #94, #107, #270 ) ) ;
#346 = PERSON_AND_ORGANIZATION ( #93, #71 ) ;
#347 = EDGE_CURVE ( 'NONE', #7, #27, #185, .T. ) ;
#348 = APPLICATION_CONTEXT ( 'configuration controlled 3d designs of mechanical parts and assemblies' ) ;
#349 = ORIENTED_EDGE ( 'NONE', *, *, #221, .F. ) ;
#350 = DIRECTION ( 'NONE',  ( -1.000000000000000000, 6.982962677686265922E-15, -4.876176775795935793E-29 ) ) ;
#351 = AXIS2_PLACEMENT_3D ( 'NONE', #319, #120, #101 ) ;
#352 = LOCAL_TIME ( 21, 36, 30.00000000000000000, #178 ) ;
#353 = COORDINATED_UNIVERSAL_TIME_OFFSET ( 5, 0, .BEHIND. ) ;
#354 = AXIS2_PLACEMENT_3D ( 'NONE', #362, #54, #215 ) ;
#355 = ADVANCED_FACE ( 'NONE', ( #19 ), #233, .F. ) ;
#356 = EDGE_LOOP ( 'NONE', ( #309, #125, #308, #35 ) ) ;
#357 = APPLICATION_CONTEXT ( 'configuration controlled 3d designs of mechanical parts and assemblies' ) ;
#358 = APPROVAL_STATUS ( 'not_yet_approved' ) ;
#359 = VECTOR ( 'NONE', #302, 39.37007874015748143 ) ;
#360 = ORIENTED_EDGE ( 'NONE', *, *, #252, .T. ) ;
#361 = EDGE_CURVE ( 'NONE', #278, #30, #256, .T. ) ;
#362 = CARTESIAN_POINT ( 'NONE',  ( 6.111226546656659252E-29, -8.725211865769023513E-15, -2.499000000000000998 ) ) ;
#363 = FACE_OUTER_BOUND ( 'NONE', #296, .T. ) ;
#364 = FACE_OUTER_BOUND ( 'NONE', #87, .T. ) ;
#365 = ADVANCED_FACE ( 'NONE', ( #166 ), #331, .T. ) ;
#366 = DIRECTION ( 'NONE',  ( -1.000000000000000000, 6.982962677686266711E-15, 0.000000000000000000 ) ) ;
ENDSEC;
END-ISO-10303-21;
