ISO-10303-21;
HEADER;
FILE_DESCRIPTION (( 'STEP AP203' ),
    '1' );
FILE_NAME ('70476.STEP',
    '2024-02-29T02:40:06',
    ( '' ),
    ( '' ),
    'SwSTEP 2.0',
    'SolidWorks 2023',
    '' );
FILE_SCHEMA (( 'CONFIG_CONTROL_DESIGN' ));
ENDSEC;

DATA;
#1 = DESIGN_CONTEXT ( 'detailed design', #332, 'design' ) ;
#2 = APPROVAL_STATUS ( 'not_yet_approved' ) ;
#3 = LOCAL_TIME ( 21, 40, 6.000000000000000000, #6 ) ;
#4 = CC_DESIGN_SECURITY_CLASSIFICATION ( #87, ( #257 ) ) ;
#5 = COORDINATED_UNIVERSAL_TIME_OFFSET ( 5, 0, .BEHIND. ) ;
#6 = COORDINATED_UNIVERSAL_TIME_OFFSET ( 5, 0, .BEHIND. ) ;
#7 = EDGE_CURVE ( 'NONE', #268, #66, #197, .T. ) ;
#8 = CARTESIAN_POINT ( 'NONE',  ( 0.1562500000000000000, -7.637615428719378669E-15, -1.875000000000000000 ) ) ;
#9 = CONICAL_SURFACE ( 'NONE', #120, 0.1552499999999999991, 0.7853981633974141952 ) ;
#10 = ORIENTED_EDGE ( 'NONE', *, *, #365, .F. ) ;
#11 = PRODUCT_DEFINITION_SHAPE ( 'NONE', 'NONE',  #21 ) ;
#12 = CARTESIAN_POINT ( 'NONE',  ( -0.1362499999999997879, 9.863434782231834374E-16, -6.775751096333128673E-30 ) ) ;
#13 = ORIENTED_EDGE ( 'NONE', *, *, #227, .T. ) ;
#14 = CARTESIAN_POINT ( 'NONE',  ( 4.582808542790945516E-29, -6.543036028992054911E-15, -1.874000000000000110 ) ) ;
#15 = ORIENTED_EDGE ( 'NONE', *, *, #245, .F. ) ;
#16 = DIRECTION ( 'NONE',  ( 2.445468806185136597E-29, -3.491481338843145583E-15, -1.000000000000000000 ) ) ;
#17 = CARTESIAN_POINT ( 'NONE',  ( -0.1562500000000000000, -2.196209803259299803E-15, -1.874000000000000110 ) ) ;
#18 = LOCAL_TIME ( 21, 40, 6.000000000000000000, #337 ) ;
#19 = CARTESIAN_POINT ( 'NONE',  ( 0.1562500000000000000, -7.634123947380534085E-15, -1.874000000000000110 ) ) ;
#20 = DIRECTION ( 'NONE',  ( 2.438088387897960049E-29, -3.491481338843145188E-15, -1.000000000000000000 ) ) ;
#21 = PRODUCT_DEFINITION ( 'UNKNOWN', '', #257, #1 ) ;
#22 = CARTESIAN_POINT ( 'NONE',  ( 0.1562500000000000000, -1.156553193491791632E-14, -3.000000000000000444 ) ) ;
#23 = DIRECTION ( 'NONE',  ( -2.445468806185136597E-29, 3.491481338843145583E-15, 1.000000000000000000 ) ) ;
#24 = VECTOR ( 'NONE', #129, 39.37007874015748143 ) ;
#25 = CARTESIAN_POINT ( 'NONE',  ( 0.000000000000000000, 0.000000000000000000, 0.000000000000000000 ) ) ;
#26 = PLANE ( 'NONE',  #287 ) ;
#27 = ORIENTED_EDGE ( 'NONE', *, *, #7, .F. ) ;
#28 = VERTEX_POINT ( 'NONE', #48 ) ;
#29 = CALENDAR_DATE ( 2024, 28, 2 ) ;
#30 = AXIS2_PLACEMENT_3D ( 'NONE', #138, #102, #104 ) ;
#31 = EDGE_CURVE ( 'NONE', #66, #268, #145, .T. ) ;
#32 = PERSON_AND_ORGANIZATION ( #75, #90 ) ;
#33 = CC_DESIGN_DATE_AND_TIME_ASSIGNMENT ( #309, #148, ( #87 ) ) ;
#34 = AXIS2_PLACEMENT_3D ( 'NONE', #353, #77, #97 ) ;
#35 = LOCAL_TIME ( 21, 40, 6.000000000000000000, #173 ) ;
#36 = DATE_TIME_ROLE ( 'creation_date' ) ;
#37 = EDGE_CURVE ( 'NONE', #207, #66, #184, .T. ) ;
#38 = ORIENTED_EDGE ( 'NONE', *, *, #80, .T. ) ;
#39 = CARTESIAN_POINT ( 'NONE',  ( 0.000000000000000000, 0.000000000000000000, 0.000000000000000000 ) ) ;
#40 = CIRCLE ( 'NONE', #168, 0.1552499999999999991 ) ;
#41 = CIRCLE ( 'NONE', #304, 0.1362499999999997879 ) ;
#42 = ORIENTED_EDGE ( 'NONE', *, *, #308, .F. ) ;
#43 = CARTESIAN_POINT ( 'NONE',  ( 4.890937612370276662E-31, -6.982962677686296539E-17, -0.02000000000000001776 ) ) ;
#44 = CARTESIAN_POINT ( 'NONE',  ( 4.585254011597131119E-29, -6.546527510330898707E-15, -1.875000000000000000 ) ) ;
#45 = EDGE_LOOP ( 'NONE', ( #209, #13, #313, #231 ) ) ;
#46 = DIMENSIONAL_EXPONENTS ( 1.000000000000000000, 0.000000000000000000, 0.000000000000000000, 0.000000000000000000, 0.000000000000000000, 0.000000000000000000, 0.000000000000000000 ) ;
#47 = DIRECTION ( 'NONE',  ( -2.445468806185136597E-29, 3.491481338843145583E-15, 1.000000000000000000 ) ) ;
#48 = CARTESIAN_POINT ( 'NONE',  ( -0.1562500000000000000, -7.400262738805011779E-15, -3.000000000000000444 ) ) ;
#49 = DIRECTION ( 'NONE',  ( 1.000000000000000000, -6.982962677686265922E-15, 4.876176775795935793E-29 ) ) ;
#50 = ORIENTED_EDGE ( 'NONE', *, *, #136, .F. ) ;
#51 = AXIS2_PLACEMENT_3D ( 'NONE', #56, #301, #57 ) ;
#52 = ORIENTED_EDGE ( 'NONE', *, *, #283, .F. ) ;
#53 = DIRECTION ( 'NONE',  ( 1.000000000000000000, -6.982962677686269077E-15, 0.000000000000000000 ) ) ;
#54 = PERSON_AND_ORGANIZATION ( #75, #90 ) ;
#55 = ORIENTED_EDGE ( 'NONE', *, *, #227, .F. ) ;
#56 = CARTESIAN_POINT ( 'NONE',  ( 0.000000000000000000, 0.000000000000000000, 0.000000000000000000 ) ) ;
#57 = DIRECTION ( 'NONE',  ( 1.000000000000000000, -6.982962677686266711E-15, 4.876176775795936353E-29 ) ) ;
#58 = AXIS2_PLACEMENT_3D ( 'NONE', #359, #20, #112 ) ;
#59 = LENGTH_MEASURE_WITH_UNIT ( LENGTH_MEASURE( 0.02539999999999999897 ), #360 );
#60 = CARTESIAN_POINT ( 'NONE',  ( -0.1552499999999999991, -5.438111458715121561E-15, -1.875000000000000000 ) ) ;
#61 = CC_DESIGN_PERSON_AND_ORGANIZATION_ASSIGNMENT ( #366, #229, ( #87 ) ) ;
#62 = PERSON_AND_ORGANIZATION_ROLE ( 'creator' ) ;
#63 = VERTEX_POINT ( 'NONE', #17 ) ;
#64 = AXIS2_PLACEMENT_3D ( 'NONE', #242, #244, #354 ) ;
#65 = APPROVAL ( #310, 'UNSPECIFIED' ) ;
#66 = VERTEX_POINT ( 'NONE', #8 ) ;
#67 = EDGE_LOOP ( 'NONE', ( #10, #130, #179, #275 ) ) ;
#68 = SHAPE_DEFINITION_REPRESENTATION ( #11, #172 ) ;
#69 = DIRECTION ( 'NONE',  ( 1.000000000000000000, -6.982962677686262766E-15, 0.000000000000000000 ) ) ;
#70 = EDGE_CURVE ( 'NONE', #212, #305, #82, .T. ) ;
#71 = CYLINDRICAL_SURFACE ( 'NONE', #51, 0.1562499999999998612 ) ;
#72 = CARTESIAN_POINT ( 'NONE',  ( -0.1552499999999999991, -5.443409913063343964E-15, -1.875000000000000000 ) ) ;
#73 = LOCAL_TIME ( 21, 40, 6.000000000000000000, #195 ) ;
#74 = DIRECTION ( 'NONE',  ( -2.445468806185136597E-29, 3.491481338843145583E-15, 1.000000000000000000 ) ) ;
#75 = PERSON ( 'UNSPECIFIED', 'UNSPECIFIED', 'UNSPECIFIED', ('UNSPECIFIED'), ('UNSPECIFIED'), ('UNSPECIFIED') ) ;
#76 = DIRECTION ( 'NONE',  ( -2.445468806185136597E-29, 3.491481338843145583E-15, 1.000000000000000000 ) ) ;
#77 = DIRECTION ( 'NONE',  ( -2.445468806185136597E-29, 3.491481338843145583E-15, 1.000000000000000000 ) ) ;
#78 = DIRECTION ( 'NONE',  ( 1.000000000000000000, -6.982962677686266711E-15, 4.876176775795935232E-29 ) ) ;
#79 = DIRECTION ( 'NONE',  ( 2.438088387897960049E-29, -3.491481338843145188E-15, -1.000000000000000000 ) ) ;
#80 = EDGE_CURVE ( 'NONE', #217, #134, #40, .T. ) ;
#81 = DIRECTION ( 'NONE',  ( 2.445468806185136597E-29, -3.491481338843145583E-15, -1.000000000000000000 ) ) ;
#82 = CIRCLE ( 'NONE', #322, 0.1562499999999997224 ) ;
#83 = AXIS2_PLACEMENT_3D ( 'NONE', #96, #139, #348 ) ;
#84 = APPROVAL_STATUS ( 'not_yet_approved' ) ;
#85 = EDGE_CURVE ( 'NONE', #207, #28, #221, .T. ) ;
#86 = EDGE_LOOP ( 'NONE', ( #38, #199, #258, #15 ) ) ;
#87 = SECURITY_CLASSIFICATION ( '', '', #119 ) ;
#88 = ADVANCED_FACE ( 'NONE', ( #215 ), #236, .F. ) ;
#89 = ORIENTED_EDGE ( 'NONE', *, *, #260, .T. ) ;
#90 = ORGANIZATION ( 'UNSPECIFIED', 'UNSPECIFIED', '' ) ;
#91 = PERSON_AND_ORGANIZATION ( #75, #90 ) ;
#92 = PERSON_AND_ORGANIZATION ( #75, #90 ) ;
#93 = CLOSED_SHELL ( 'NONE', ( #274, #122, #144, #325 ) ) ;
#94 = CARTESIAN_POINT ( 'NONE',  ( 4.585254011597131119E-29, -6.546527510330898707E-15, -1.875000000000000000 ) ) ;
#95 = ADVANCED_FACE ( 'NONE', ( #232 ), #71, .T. ) ;
#96 = CARTESIAN_POINT ( 'NONE',  ( 4.585254011597131119E-29, -6.546527510330898707E-15, -1.875000000000000000 ) ) ;
#97 = DIRECTION ( 'NONE',  ( 1.000000000000000000, -6.982962677686269077E-15, 0.000000000000000000 ) ) ;
#98 = LINE ( 'NONE', #72, #330 ) ;
#99 = ORIENTED_EDGE ( 'NONE', *, *, #80, .F. ) ;
#100 = FACE_OUTER_BOUND ( 'NONE', #45, .T. ) ;
#101 = CONICAL_SURFACE ( 'NONE', #116, 0.1552499999999999991, 0.7853981633974141952 ) ;
#102 = DIRECTION ( 'NONE',  ( -2.445468806185136597E-29, 3.491481338843145583E-15, 1.000000000000000000 ) ) ;
#103 = CARTESIAN_POINT ( 'NONE',  ( 0.1552499999999999991, -7.630632466041692655E-15, -1.875000000000000000 ) ) ;
#104 = DIRECTION ( 'NONE',  ( 1.000000000000000000, -6.982962677686262766E-15, 0.000000000000000000 ) ) ;
#105 = ADVANCED_FACE ( 'NONE', ( #163 ), #9, .T. ) ;
#106 = DATE_AND_TIME ( #340, #254 ) ;
#107 = CARTESIAN_POINT ( 'NONE',  ( -0.1562499999999997224, 1.021258291611614495E-15, -0.02000000000000001776 ) ) ;
#108 = CARTESIAN_POINT ( 'NONE',  ( 1.091087918388552538E-15, 0.1562499999999895361, -3.000000000000000888 ) ) ;
#109 = DIRECTION ( 'NONE',  ( -2.445468806185136597E-29, 3.491481338843145583E-15, 1.000000000000000000 ) ) ;
#110 = DIRECTION ( 'NONE',  ( 1.000000000000000000, -6.982962677686268288E-15, 0.000000000000000000 ) ) ;
#111 =( CONVERSION_BASED_UNIT ( 'INCH', #59 ) LENGTH_UNIT ( ) NAMED_UNIT ( #46 ) );
#112 = DIRECTION ( 'NONE',  ( -1.000000000000000000, 6.982962677686265922E-15, -4.876176775795935793E-29 ) ) ;
#113 = APPLICATION_CONTEXT ( 'configuration controlled 3d designs of mechanical parts and assemblies' ) ;
#114 = CC_DESIGN_DATE_AND_TIME_ASSIGNMENT ( #282, #36, ( #21 ) ) ;
#115 = FACE_OUTER_BOUND ( 'NONE', #176, .T. ) ;
#116 = AXIS2_PLACEMENT_3D ( 'NONE', #154, #317, #208 ) ;
#117 = CC_DESIGN_PERSON_AND_ORGANIZATION_ASSIGNMENT ( #226, #194, ( #150 ) ) ;
#118 = DATE_AND_TIME ( #170, #35 ) ;
#119 = SECURITY_CLASSIFICATION_LEVEL ( 'unclassified' ) ;
#120 = AXIS2_PLACEMENT_3D ( 'NONE', #224, #246, #110 ) ;
#121 = PERSON_AND_ORGANIZATION ( #75, #90 ) ;
#122 = ADVANCED_FACE ( 'NONE', ( #115 ), #26, .T. ) ;
#123 = ORIENTED_EDGE ( 'NONE', *, *, #365, .T. ) ;
#124 = DIRECTION ( 'NONE',  ( -1.000000000000000000, 6.982962677686265922E-15, -4.876176775795935793E-29 ) ) ;
#125 = ADVANCED_FACE ( 'NONE', ( #251 ), #361, .T. ) ;
#126 = AXIS2_PLACEMENT_3D ( 'NONE', #39, #265, #346 ) ;
#127 = CIRCLE ( 'NONE', #339, 0.1562500000000000000 ) ;
#128 = ORIENTED_EDGE ( 'NONE', *, *, #85, .F. ) ;
#129 = DIRECTION ( 'NONE',  ( -2.445468806185136877E-29, 3.491481338843145188E-15, 1.000000000000000000 ) ) ;
#130 = ORIENTED_EDGE ( 'NONE', *, *, #338, .T. ) ;
#131 = EDGE_LOOP ( 'NONE', ( #52, #153, #284, #27 ) ) ;
#132 = APPROVAL_DATE_TIME ( #106, #65 ) ;
#133 = DIRECTION ( 'NONE',  ( -1.000000000000000000, 6.982962677686267499E-15, 0.000000000000000000 ) ) ;
#134 = VERTEX_POINT ( 'NONE', #60 ) ;
#135 = DIRECTION ( 'NONE',  ( -1.000000000000000000, 6.982962677686267499E-15, 0.000000000000000000 ) ) ;
#136 = EDGE_CURVE ( 'NONE', #305, #212, #137, .T. ) ;
#137 = CIRCLE ( 'NONE', #323, 0.1562499999999997224 ) ;
#138 = CARTESIAN_POINT ( 'NONE',  ( 7.336406418555409790E-29, -1.047444401652943635E-14, -3.000000000000000444 ) ) ;
#139 = DIRECTION ( 'NONE',  ( -2.445468806185136597E-29, 3.491481338843145583E-15, 1.000000000000000000 ) ) ;
#140 = CC_DESIGN_PERSON_AND_ORGANIZATION_ASSIGNMENT ( #32, #280, ( #257 ) ) ;
#141 = LINE ( 'NONE', #220, #213 ) ;
#142 = AXIS2_PLACEMENT_3D ( 'NONE', #319, #79, #124 ) ;
#143 = DIRECTION ( 'NONE',  ( -1.000000000000000000, 6.982962677686265922E-15, -4.876176775795935793E-29 ) ) ;
#144 = ADVANCED_FACE ( 'NONE', ( #249 ), #277, .F. ) ;
#145 = CIRCLE ( 'NONE', #191, 0.1562500000000000000 ) ;
#146 = VECTOR ( 'NONE', #186, 39.37007874015748143 ) ;
#147 = EDGE_CURVE ( 'NONE', #181, #212, #141, .T. ) ;
#148 = DATE_TIME_ROLE ( 'classification_date' ) ;
#149 = APPROVAL_DATE_TIME ( #364, #201 ) ;
#150 = PRODUCT ( '70476', '70476', '', ( #324 ) ) ;
#151 = ORIENTED_EDGE ( 'NONE', *, *, #171, .T. ) ;
#152 = AXIS2_PLACEMENT_3D ( 'NONE', #180, #81, #133 ) ;
#153 = ORIENTED_EDGE ( 'NONE', *, *, #308, .T. ) ;
#154 = CARTESIAN_POINT ( 'NONE',  ( 4.585254011597131119E-29, -6.546527510330898707E-15, -1.875000000000000000 ) ) ;
#155 = DIRECTION ( 'NONE',  ( 1.000000000000000000, -6.982962677686268288E-15, 0.000000000000000000 ) ) ;
#156 = CARTESIAN_POINT ( 'NONE',  ( 4.585254011597131119E-29, -6.546527510330898707E-15, -1.875000000000000000 ) ) ;
#157 = ORIENTED_EDGE ( 'NONE', *, *, #185, .F. ) ;
#158 = CYLINDRICAL_SURFACE ( 'NONE', #64, 0.1562500000000000000 ) ;
#159 = CIRCLE ( 'NONE', #169, 0.1562500000000000000 ) ;
#160 = DIRECTION ( 'NONE',  ( -2.445468806185136877E-29, 3.491481338843145188E-15, 1.000000000000000000 ) ) ;
#161 = DIRECTION ( 'NONE',  ( 1.000000000000000000, -6.982962677686269077E-15, 0.000000000000000000 ) ) ;
#162 = DIRECTION ( 'NONE',  ( 1.000000000000000000, -6.982962677686266711E-15, 4.876176775795935232E-29 ) ) ;
#163 = FACE_OUTER_BOUND ( 'NONE', #86, .T. ) ;
#164 = APPROVAL_PERSON_ORGANIZATION ( #54, #201, #327 ) ;
#165 = DIRECTION ( 'NONE',  ( 1.000000000000000000, -6.982962677686267499E-15, 0.000000000000000000 ) ) ;
#166 = EDGE_CURVE ( 'NONE', #63, #181, #127, .T. ) ;
#167 = EDGE_LOOP ( 'NONE', ( #151, #89, #291, #189 ) ) ;
#168 = AXIS2_PLACEMENT_3D ( 'NONE', #44, #311, #155 ) ;
#169 = AXIS2_PLACEMENT_3D ( 'NONE', #219, #290, #69 ) ;
#170 = CALENDAR_DATE ( 2024, 28, 2 ) ;
#171 = EDGE_CURVE ( 'NONE', #181, #63, #341, .T. ) ;
#172 = ADVANCED_BREP_SHAPE_REPRESENTATION ( '70476', ( #300, #294, #356 ), #264 ) ;
#173 = COORDINATED_UNIVERSAL_TIME_OFFSET ( 5, 0, .BEHIND. ) ;
#174 = VERTEX_POINT ( 'NONE', #12 ) ;
#175 = ORIENTED_EDGE ( 'NONE', *, *, #260, .F. ) ;
#176 = EDGE_LOOP ( 'NONE', ( #128, #42 ) ) ;
#177 = CC_DESIGN_APPROVAL ( #201, ( #21 ) ) ;
#178 = PERSON_AND_ORGANIZATION_ROLE ( 'creator' ) ;
#179 = ORIENTED_EDGE ( 'NONE', *, *, #70, .T. ) ;
#180 = CARTESIAN_POINT ( 'NONE',  ( 4.890937612370276662E-31, -6.982962677686296539E-17, -0.02000000000000001776 ) ) ;
#181 = VERTEX_POINT ( 'NONE', #19 ) ;
#182 = AXIS2_PLACEMENT_3D ( 'NONE', #156, #292, #49 ) ;
#183 = DIRECTION ( 'NONE',  ( -0.7071067811865232589, 7.493145998870265808E-15, 0.7071067811865715536 ) ) ;
#184 = LINE ( 'NONE', #263, #233 ) ;
#185 = EDGE_CURVE ( 'NONE', #174, #342, #253, .T. ) ;
#186 = DIRECTION ( 'NONE',  ( -2.445468806185136877E-29, 3.491481338843145188E-15, 1.000000000000000000 ) ) ;
#187 = ORIENTED_EDGE ( 'NONE', *, *, #185, .T. ) ;
#188 = FACE_OUTER_BOUND ( 'NONE', #67, .T. ) ;
#189 = ORIENTED_EDGE ( 'NONE', *, *, #147, .F. ) ;
#190 = CARTESIAN_POINT ( 'NONE',  ( 0.1552499999999999991, -7.630632466041692655E-15, -1.875000000000000000 ) ) ;
#191 = AXIS2_PLACEMENT_3D ( 'NONE', #94, #74, #240 ) ;
#192 = AXIS2_PLACEMENT_3D ( 'NONE', #272, #47, #78 ) ;
#193 = DIRECTION ( 'NONE',  ( -2.445468806185136877E-29, 3.491481338843145188E-15, 1.000000000000000000 ) ) ;
#194 = PERSON_AND_ORGANIZATION_ROLE ( 'design_owner' ) ;
#195 = COORDINATED_UNIVERSAL_TIME_OFFSET ( 5, 0, .BEHIND. ) ;
#196 = ORIENTED_EDGE ( 'NONE', *, *, #362, .T. ) ;
#197 = CIRCLE ( 'NONE', #34, 0.1562500000000000000 ) ;
#198 = DIRECTION ( 'NONE',  ( 1.000000000000000000, -6.982962677686266711E-15, 4.876176775795936353E-29 ) ) ;
#199 = ORIENTED_EDGE ( 'NONE', *, *, #333, .T. ) ;
#200 = APPLICATION_PROTOCOL_DEFINITION ( 'international standard', 'config_control_design', 1994, #113 ) ;
#201 = APPROVAL ( #84, 'UNSPECIFIED' ) ;
#202 =( NAMED_UNIT ( * ) SI_UNIT ( $, .STERADIAN. ) SOLID_ANGLE_UNIT ( ) );
#203 = ADVANCED_FACE ( 'NONE', ( #214 ), #316, .T. ) ;
#204 = VECTOR ( 'NONE', #299, 39.37007874015748143 ) ;
#205 = CALENDAR_DATE ( 2024, 28, 2 ) ;
#206 = CALENDAR_DATE ( 2024, 28, 2 ) ;
#207 = VERTEX_POINT ( 'NONE', #22 ) ;
#208 = DIRECTION ( 'NONE',  ( 1.000000000000000000, -6.982962677686268288E-15, 0.000000000000000000 ) ) ;
#209 = ORIENTED_EDGE ( 'NONE', *, *, #333, .F. ) ;
#210 = CARTESIAN_POINT ( 'NONE',  ( -0.1562500000000000000, -7.400262738805011779E-15, -1.875000000000000000 ) ) ;
#211 = ADVANCED_FACE ( 'NONE', ( #188 ), #278, .T. ) ;
#212 = VERTEX_POINT ( 'NONE', #320 ) ;
#213 = VECTOR ( 'NONE', #193, 39.37007874015748143 ) ;
#214 = FACE_OUTER_BOUND ( 'NONE', #281, .T. ) ;
#215 = FACE_OUTER_BOUND ( 'NONE', #238, .T. ) ;
#216 = CYLINDRICAL_SURFACE ( 'NONE', #126, 0.1562500000000000000 ) ;
#217 = VERTEX_POINT ( 'NONE', #103 ) ;
#218 = ADVANCED_FACE ( 'NONE', ( #235 ), #343, .F. ) ;
#219 = CARTESIAN_POINT ( 'NONE',  ( 7.336406418555409790E-29, -1.047444401652943635E-14, -3.000000000000000444 ) ) ;
#220 = CARTESIAN_POINT ( 'NONE',  ( 0.1562499999999998612, -1.091087918388478187E-15, 7.619026212181143371E-30 ) ) ;
#221 = CIRCLE ( 'NONE', #30, 0.1562500000000000000 ) ;
#222 = AXIS2_PLACEMENT_3D ( 'NONE', #43, #16, #135 ) ;
#223 = CARTESIAN_POINT ( 'NONE',  ( 0.000000000000000000, 0.000000000000000000, 0.000000000000000000 ) ) ;
#224 = CARTESIAN_POINT ( 'NONE',  ( 4.585254011597131119E-29, -6.546527510330898707E-15, -1.875000000000000000 ) ) ;
#225 = AXIS2_PLACEMENT_3D ( 'NONE', #14, #285, #53 ) ;
#226 = PERSON_AND_ORGANIZATION ( #75, #90 ) ;
#227 = EDGE_CURVE ( 'NONE', #134, #217, #295, .T. ) ;
#228 = APPROVAL_DATE_TIME ( #118, #302 ) ;
#229 = PERSON_AND_ORGANIZATION_ROLE ( 'classification_officer' ) ;
#230 = VECTOR ( 'NONE', #239, 39.37007874015748854 ) ;
#231 = ORIENTED_EDGE ( 'NONE', *, *, #166, .F. ) ;
#232 = FACE_OUTER_BOUND ( 'NONE', #255, .T. ) ;
#233 = VECTOR ( 'NONE', #160, 39.37007874015748143 ) ;
#234 = AXIS2_PLACEMENT_3D ( 'NONE', #223, #23, #198 ) ;
#235 = FACE_OUTER_BOUND ( 'NONE', #357, .T. ) ;
#236 = PLANE ( 'NONE',  #142 ) ;
#237 = LINE ( 'NONE', #271, #146 ) ;
#238 = EDGE_LOOP ( 'NONE', ( #187, #123 ) ) ;
#239 = DIRECTION ( 'NONE',  ( 0.7071067811865232589, -2.468850131082003836E-15, 0.7071067811865715536 ) ) ;
#240 = DIRECTION ( 'NONE',  ( 1.000000000000000000, -6.982962677686269077E-15, 0.000000000000000000 ) ) ;
#241 = CC_DESIGN_APPROVAL ( #302, ( #257 ) ) ;
#242 = CARTESIAN_POINT ( 'NONE',  ( 0.000000000000000000, 0.000000000000000000, 0.000000000000000000 ) ) ;
#243 = ORIENTED_EDGE ( 'NONE', *, *, #147, .T. ) ;
#244 = DIRECTION ( 'NONE',  ( -2.445468806185136597E-29, 3.491481338843145583E-15, 1.000000000000000000 ) ) ;
#245 = EDGE_CURVE ( 'NONE', #217, #181, #267, .T. ) ;
#246 = DIRECTION ( 'NONE',  ( -2.445468806185136597E-29, 3.491481338843145583E-15, 1.000000000000000000 ) ) ;
#247 = DIRECTION ( 'NONE',  ( 0.7071067811865464625, -7.319954787623252890E-15, -0.7071067811865485719 ) ) ;
#248 = CC_DESIGN_APPROVAL ( #65, ( #87 ) ) ;
#249 = FACE_OUTER_BOUND ( 'NONE', #293, .T. ) ;
#250 = ADVANCED_FACE ( 'NONE', ( #100 ), #101, .T. ) ;
#251 = FACE_OUTER_BOUND ( 'NONE', #167, .T. ) ;
#252 = CLOSED_SHELL ( 'NONE', ( #105, #125, #211, #203, #95, #250, #218, #88 ) ) ;
#253 = CIRCLE ( 'NONE', #192, 0.1362499999999997879 ) ;
#254 = LOCAL_TIME ( 21, 40, 6.000000000000000000, #5 ) ;
#255 = EDGE_LOOP ( 'NONE', ( #175, #315, #243, #50 ) ) ;
#256 = PERSON_AND_ORGANIZATION ( #75, #90 ) ;
#257 = PRODUCT_DEFINITION_FORMATION_WITH_SPECIFIED_SOURCE ( 'ANY', '', #150, .NOT_KNOWN. ) ;
#258 = ORIENTED_EDGE ( 'NONE', *, *, #171, .F. ) ;
#259 = APPROVAL_ROLE ( '' ) ;
#260 = EDGE_CURVE ( 'NONE', #63, #305, #237, .T. ) ;
#261 = ORIENTED_EDGE ( 'NONE', *, *, #7, .T. ) ;
#262 = CC_DESIGN_PERSON_AND_ORGANIZATION_ASSIGNMENT ( #256, #62, ( #257 ) ) ;
#263 = CARTESIAN_POINT ( 'NONE',  ( 0.1562500000000000000, -1.091087918388479174E-15, 7.619026212181150377E-30 ) ) ;
#264 =( GEOMETRIC_REPRESENTATION_CONTEXT ( 3 ) GLOBAL_UNCERTAINTY_ASSIGNED_CONTEXT ( ( #273 ) ) GLOBAL_UNIT_ASSIGNED_CONTEXT ( ( #111, #363, #202 ) ) REPRESENTATION_CONTEXT ( 'NONE', 'WORKASPACE' ) );
#265 = DIRECTION ( 'NONE',  ( -2.445468806185136597E-29, 3.491481338843145583E-15, 1.000000000000000000 ) ) ;
#266 = ORIENTED_EDGE ( 'NONE', *, *, #338, .F. ) ;
#267 = LINE ( 'NONE', #190, #230 ) ;
#268 = VERTEX_POINT ( 'NONE', #210 ) ;
#269 = CARTESIAN_POINT ( 'NONE',  ( 4.582808542790945516E-29, -6.543036028992054911E-15, -1.874000000000000110 ) ) ;
#270 = ORIENTED_EDGE ( 'NONE', *, *, #136, .T. ) ;
#271 = CARTESIAN_POINT ( 'NONE',  ( -0.1562499999999998612, 1.110223024625155554E-15, -7.685836078523284153E-30 ) ) ;
#272 = CARTESIAN_POINT ( 'NONE',  ( 0.000000000000000000, 0.000000000000000000, 0.000000000000000000 ) ) ;
#273 = UNCERTAINTY_MEASURE_WITH_UNIT (LENGTH_MEASURE( 1.000000000000000082E-05 ), #111, 'distance_accuracy_value', 'NONE');
#274 = ADVANCED_FACE ( 'NONE', ( #352 ), #158, .T. ) ;
#275 = ORIENTED_EDGE ( 'NONE', *, *, #362, .F. ) ;
#276 = VECTOR ( 'NONE', #247, 39.37007874015748143 ) ;
#277 = PLANE ( 'NONE',  #58 ) ;
#278 = CONICAL_SURFACE ( 'NONE', #152, 0.1562499999999997224, 0.7853981633974468357 ) ;
#279 = APPROVAL_ROLE ( '' ) ;
#280 = PERSON_AND_ORGANIZATION_ROLE ( 'design_supplier' ) ;
#281 = EDGE_LOOP ( 'NONE', ( #266, #157, #196, #270 ) ) ;
#282 = DATE_AND_TIME ( #29, #3 ) ;
#283 = EDGE_CURVE ( 'NONE', #28, #268, #312, .T. ) ;
#284 = ORIENTED_EDGE ( 'NONE', *, *, #37, .T. ) ;
#285 = DIRECTION ( 'NONE',  ( -2.445468806185136597E-29, 3.491481338843145583E-15, 1.000000000000000000 ) ) ;
#286 = CARTESIAN_POINT ( 'NONE',  ( 4.890937612370276662E-31, -6.982962677686296539E-17, -0.02000000000000001776 ) ) ;
#287 = AXIS2_PLACEMENT_3D ( 'NONE', #108, #297, #143 ) ;
#288 = LINE ( 'NONE', #355, #276 ) ;
#289 = DIRECTION ( 'NONE',  ( -2.445468806185136597E-29, 3.491481338843145583E-15, 1.000000000000000000 ) ) ;
#290 = DIRECTION ( 'NONE',  ( -2.445468806185136597E-29, 3.491481338843145583E-15, 1.000000000000000000 ) ) ;
#291 = ORIENTED_EDGE ( 'NONE', *, *, #70, .F. ) ;
#292 = DIRECTION ( 'NONE',  ( -2.438088387897960049E-29, 3.491481338843145188E-15, 1.000000000000000000 ) ) ;
#293 = EDGE_LOOP ( 'NONE', ( #344, #261 ) ) ;
#294 = MANIFOLD_SOLID_BREP ( 'Body-Move/Copy2[2]', #252 ) ;
#295 = CIRCLE ( 'NONE', #83, 0.1552499999999999991 ) ;
#296 = CARTESIAN_POINT ( 'NONE',  ( -0.1562500000000000000, 1.110223024625156540E-15, -7.685836078523291160E-30 ) ) ;
#297 = DIRECTION ( 'NONE',  ( 2.438088387897960049E-29, -3.491481338843145188E-15, -1.000000000000000000 ) ) ;
#298 = APPLICATION_PROTOCOL_DEFINITION ( 'international standard', 'config_control_design', 1994, #332 ) ;
#299 = DIRECTION ( 'NONE',  ( -0.7071067811865464625, 2.468850131082245622E-15, -0.7071067811865485719 ) ) ;
#300 = MANIFOLD_SOLID_BREP ( 'Body-Move/Copy2[1]', #93 ) ;
#301 = DIRECTION ( 'NONE',  ( -2.445468806185136597E-29, 3.491481338843145583E-15, 1.000000000000000000 ) ) ;
#302 = APPROVAL ( #2, 'UNSPECIFIED' ) ;
#303 = DIRECTION ( 'NONE',  ( 0.000000000000000000, 0.000000000000000000, 1.000000000000000000 ) ) ;
#304 = AXIS2_PLACEMENT_3D ( 'NONE', #25, #109, #162 ) ;
#305 = VERTEX_POINT ( 'NONE', #107 ) ;
#306 = CARTESIAN_POINT ( 'NONE',  ( 0.1362499999999997879, -1.038262645562516349E-15, 6.957025900226683865E-30 ) ) ;
#307 = LINE ( 'NONE', #334, #204 ) ;
#308 = EDGE_CURVE ( 'NONE', #28, #207, #159, .T. ) ;
#309 = DATE_AND_TIME ( #205, #18 ) ;
#310 = APPROVAL_STATUS ( 'not_yet_approved' ) ;
#311 = DIRECTION ( 'NONE',  ( -2.445468806185136597E-29, 3.491481338843145583E-15, 1.000000000000000000 ) ) ;
#312 = LINE ( 'NONE', #296, #24 ) ;
#313 = ORIENTED_EDGE ( 'NONE', *, *, #245, .T. ) ;
#314 = FACE_OUTER_BOUND ( 'NONE', #131, .T. ) ;
#315 = ORIENTED_EDGE ( 'NONE', *, *, #166, .T. ) ;
#316 = CONICAL_SURFACE ( 'NONE', #222, 0.1562499999999997224, 0.7853981633974468357 ) ;
#317 = DIRECTION ( 'NONE',  ( -2.445468806185136597E-29, 3.491481338843145583E-15, 1.000000000000000000 ) ) ;
#318 = EDGE_LOOP ( 'NONE', ( #336, #345, #331, #347 ) ) ;
#319 = CARTESIAN_POINT ( 'NONE',  ( 9.514286648347521827E-16, 0.1362499999999997879, -4.757143324173777677E-16 ) ) ;
#320 = CARTESIAN_POINT ( 'NONE',  ( 0.1562499999999997224, -1.141782438928662935E-15, -0.02000000000000001776 ) ) ;
#321 = DIRECTION ( 'NONE',  ( -2.445468806185136597E-29, 3.491481338843145583E-15, 1.000000000000000000 ) ) ;
#322 = AXIS2_PLACEMENT_3D ( 'NONE', #286, #289, #349 ) ;
#323 = AXIS2_PLACEMENT_3D ( 'NONE', #326, #321, #165 ) ;
#324 = MECHANICAL_CONTEXT ( 'NONE', #113, 'mechanical' ) ;
#325 = ADVANCED_FACE ( 'NONE', ( #314 ), #216, .T. ) ;
#326 = CARTESIAN_POINT ( 'NONE',  ( 4.890937612370276662E-31, -6.982962677686296539E-17, -0.02000000000000001776 ) ) ;
#327 = APPROVAL_ROLE ( '' ) ;
#328 = PRODUCT_RELATED_PRODUCT_CATEGORY ( 'detail', '', ( #150 ) ) ;
#329 = CARTESIAN_POINT ( 'NONE',  ( 0.000000000000000000, 0.000000000000000000, 0.000000000000000000 ) ) ;
#330 = VECTOR ( 'NONE', #183, 39.37007874015748854 ) ;
#331 = ORIENTED_EDGE ( 'NONE', *, *, #31, .F. ) ;
#332 = APPLICATION_CONTEXT ( 'configuration controlled 3d designs of mechanical parts and assemblies' ) ;
#333 = EDGE_CURVE ( 'NONE', #134, #63, #98, .T. ) ;
#334 = CARTESIAN_POINT ( 'NONE',  ( -0.1562499999999997224, 1.021258291611614495E-15, -0.02000000000000001776 ) ) ;
#335 = CC_DESIGN_PERSON_AND_ORGANIZATION_ASSIGNMENT ( #91, #178, ( #21 ) ) ;
#336 = ORIENTED_EDGE ( 'NONE', *, *, #85, .T. ) ;
#337 = COORDINATED_UNIVERSAL_TIME_OFFSET ( 5, 0, .BEHIND. ) ;
#338 = EDGE_CURVE ( 'NONE', #342, #212, #288, .T. ) ;
#339 = AXIS2_PLACEMENT_3D ( 'NONE', #269, #76, #161 ) ;
#340 = CALENDAR_DATE ( 2024, 28, 2 ) ;
#341 = CIRCLE ( 'NONE', #225, 0.1562500000000000000 ) ;
#342 = VERTEX_POINT ( 'NONE', #306 ) ;
#343 = PLANE ( 'NONE',  #182 ) ;
#344 = ORIENTED_EDGE ( 'NONE', *, *, #31, .T. ) ;
#345 = ORIENTED_EDGE ( 'NONE', *, *, #283, .T. ) ;
#346 = DIRECTION ( 'NONE',  ( 1.000000000000000000, -6.982962677686266711E-15, 4.876176775795936353E-29 ) ) ;
#347 = ORIENTED_EDGE ( 'NONE', *, *, #37, .F. ) ;
#348 = DIRECTION ( 'NONE',  ( 1.000000000000000000, -6.982962677686268288E-15, 0.000000000000000000 ) ) ;
#349 = DIRECTION ( 'NONE',  ( 1.000000000000000000, -6.982962677686267499E-15, 0.000000000000000000 ) ) ;
#350 = APPROVAL_PERSON_ORGANIZATION ( #92, #302, #279 ) ;
#351 = APPROVAL_PERSON_ORGANIZATION ( #121, #65, #259 ) ;
#352 = FACE_OUTER_BOUND ( 'NONE', #318, .T. ) ;
#353 = CARTESIAN_POINT ( 'NONE',  ( 4.585254011597131119E-29, -6.546527510330898707E-15, -1.875000000000000000 ) ) ;
#354 = DIRECTION ( 'NONE',  ( 1.000000000000000000, -6.982962677686266711E-15, 4.876176775795936353E-29 ) ) ;
#355 = CARTESIAN_POINT ( 'NONE',  ( 0.1562499999999997224, -1.141782438928662935E-15, -0.02000000000000001776 ) ) ;
#356 = AXIS2_PLACEMENT_3D ( 'NONE', #329, #303, #358 ) ;
#357 = EDGE_LOOP ( 'NONE', ( #99, #55 ) ) ;
#358 = DIRECTION ( 'NONE',  ( 1.000000000000000000, 0.000000000000000000, 0.000000000000000000 ) ) ;
#359 = CARTESIAN_POINT ( 'NONE',  ( 1.091087918388524927E-15, 0.1562499999999934497, -1.875000000000000666 ) ) ;
#360 =( LENGTH_UNIT ( ) NAMED_UNIT ( * ) SI_UNIT ( $, .METRE. ) );
#361 = CYLINDRICAL_SURFACE ( 'NONE', #234, 0.1562499999999998612 ) ;
#362 = EDGE_CURVE ( 'NONE', #174, #305, #307, .T. ) ;
#363 =( NAMED_UNIT ( * ) PLANE_ANGLE_UNIT ( ) SI_UNIT ( $, .RADIAN. ) );
#364 = DATE_AND_TIME ( #206, #73 ) ;
#365 = EDGE_CURVE ( 'NONE', #342, #174, #41, .T. ) ;
#366 = PERSON_AND_ORGANIZATION ( #75, #90 ) ;
ENDSEC;
END-ISO-10303-21;
