ISO-10303-21;
HEADER;
FILE_DESCRIPTION (( 'STEP AP203' ),
    '1' );
FILE_NAME ('70556.STEP',
    '2024-02-29T03:49:01',
    ( '' ),
    ( '' ),
    'SwSTEP 2.0',
    'SolidWorks 2023',
    '' );
FILE_SCHEMA (( 'CONFIG_CONTROL_DESIGN' ));
ENDSEC;

DATA;
#1 = EDGE_LOOP ( 'NONE', ( #208, #212, #19, #319 ) ) ;
#2 = LINE ( 'NONE', #169, #168 ) ;
#3 = CIRCLE ( 'NONE', #7, 0.1968499999999997752 ) ;
#4 = APPROVAL ( #214, 'UNSPECIFIED' ) ;
#5 = ORIENTED_EDGE ( 'NONE', *, *, #13, .T. ) ;
#6 = EDGE_LOOP ( 'NONE', ( #35, #339, #237, #88 ) ) ;
#7 = AXIS2_PLACEMENT_3D ( 'NONE', #275, #308, #50 ) ;
#8 = VERTEX_POINT ( 'NONE', #352 ) ;
#9 = ADVANCED_FACE ( 'NONE', ( #150 ), #270, .T. ) ;
#10 = VERTEX_POINT ( 'NONE', #213 ) ;
#11 =( CONVERSION_BASED_UNIT ( 'INCH', #255 ) LENGTH_UNIT ( ) NAMED_UNIT ( #254 ) );
#12 = CARTESIAN_POINT ( 'NONE',  ( -0.1968500000000000250, 1.398703375343757393E-15, -9.682923725166783677E-30 ) ) ;
#13 = EDGE_CURVE ( 'NONE', #178, #10, #41, .T. ) ;
#14 = CONICAL_SURFACE ( 'NONE', #210, 0.1958499999999999963, 0.7853981633972946241 ) ;
#15 = CARTESIAN_POINT ( 'NONE',  ( -0.1958499999999999963, -7.125460397647855362E-15, -2.440900000000000070 ) ) ;
#16 = COORDINATED_UNIVERSAL_TIME_OFFSET ( 5, 0, .BEHIND. ) ;
#17 = DIRECTION ( 'NONE',  ( -2.445468806185136597E-29, 3.491481338843145583E-15, 1.000000000000000000 ) ) ;
#18 = PRODUCT_DEFINITION_SHAPE ( 'NONE', 'NONE',  #284 ) ;
#19 = ORIENTED_EDGE ( 'NONE', *, *, #123, .F. ) ;
#20 = DIRECTION ( 'NONE',  ( -2.445468806185136877E-29, 3.491481338843145188E-15, 1.000000000000000000 ) ) ;
#21 = APPROVAL_DATE_TIME ( #184, #4 ) ;
#22 = AXIS2_PLACEMENT_3D ( 'NONE', #281, #218, #162 ) ;
#23 = AXIS2_PLACEMENT_3D ( 'NONE', #288, #338, #342 ) ;
#24 = FACE_OUTER_BOUND ( 'NONE', #6, .T. ) ;
#25 = CIRCLE ( 'NONE', #80, 0.1958499999999999963 ) ;
#26 = CARTESIAN_POINT ( 'NONE',  ( 5.969144809017300159E-29, -8.522356799982234543E-15, -2.440900000000000070 ) ) ;
#27 = DIRECTION ( 'NONE',  ( -1.000000000000000000, 6.982962677686265922E-15, -4.876176775795935793E-29 ) ) ;
#28 = ORIENTED_EDGE ( 'NONE', *, *, #256, .T. ) ;
#29 = ADVANCED_FACE ( 'NONE', ( #242 ), #186, .T. ) ;
#30 = LOCAL_TIME ( 22, 49, 1.000000000000000000, #355 ) ;
#31 = DIRECTION ( 'NONE',  ( 1.000000000000000000, -6.982962677686266711E-15, 4.876176775795935793E-29 ) ) ;
#32 = FACE_OUTER_BOUND ( 'NONE', #244, .T. ) ;
#33 = CIRCLE ( 'NONE', #174, 0.1968500000000000527 ) ;
#34 = VERTEX_POINT ( 'NONE', #154 ) ;
#35 = ORIENTED_EDGE ( 'NONE', *, *, #82, .F. ) ;
#36 = EDGE_CURVE ( 'NONE', #34, #239, #274, .T. ) ;
#37 = ORIENTED_EDGE ( 'NONE', *, *, #189, .F. ) ;
#38 = MECHANICAL_CONTEXT ( 'NONE', #128, 'mechanical' ) ;
#39 = AXIS2_PLACEMENT_3D ( 'NONE', #279, #329, #305 ) ;
#40 = AXIS2_PLACEMENT_3D ( 'NONE', #262, #113, #233 ) ;
#41 = LINE ( 'NONE', #151, #335 ) ;
#42 = DIRECTION ( 'NONE',  ( 1.000000000000000000, -6.982962677686265922E-15, 4.876176775795935793E-29 ) ) ;
#43 = CARTESIAN_POINT ( 'NONE',  ( 5.969144809017300159E-29, -8.522356799982234543E-15, -2.440900000000000070 ) ) ;
#44 = DATE_AND_TIME ( #98, #30 ) ;
#45 = VECTOR ( 'NONE', #252, 39.37007874015748143 ) ;
#46 = DIRECTION ( 'NONE',  ( -2.445468806185136597E-29, 3.491481338843145583E-15, 1.000000000000000000 ) ) ;
#47 = CARTESIAN_POINT ( 'NONE',  ( 0.1968500000000000527, -9.893461521745931567E-15, -2.439899999999999736 ) ) ;
#48 = DIRECTION ( 'NONE',  ( 1.000000000000000000, -6.982962677686266711E-15, 4.876176775795935793E-29 ) ) ;
#49 = AXIS2_PLACEMENT_3D ( 'NONE', #257, #231, #53 ) ;
#50 = DIRECTION ( 'NONE',  ( 1.000000000000000000, -6.982962677686266711E-15, 0.000000000000000000 ) ) ;
#51 = CARTESIAN_POINT ( 'NONE',  ( -0.1968500000000000250, -9.735456040160091980E-15, -2.440900000000000070 ) ) ;
#52 = DIRECTION ( 'NONE',  ( -2.445468806185136597E-29, 3.491481338843145583E-15, 1.000000000000000000 ) ) ;
#53 = DIRECTION ( 'NONE',  ( 1.000000000000000000, -6.982962677686262766E-15, 0.000000000000000000 ) ) ;
#54 = CIRCLE ( 'NONE', #321, 0.1968500000000000250 ) ;
#55 = DIRECTION ( 'NONE',  ( 2.438088387897960049E-29, -3.491481338843145188E-15, -1.000000000000000000 ) ) ;
#56 = ADVANCED_FACE ( 'NONE', ( #187 ), #259, .T. ) ;
#57 = EDGE_LOOP ( 'NONE', ( #147, #285, #5, #28 ) ) ;
#58 = ORIENTED_EDGE ( 'NONE', *, *, #62, .F. ) ;
#59 = CONICAL_SURFACE ( 'NONE', #95, 0.1958499999999999963, 0.7853981633972946241 ) ;
#60 = CIRCLE ( 'NONE', #23, 0.1968500000000000527 ) ;
#61 = ORIENTED_EDGE ( 'NONE', *, *, #280, .F. ) ;
#62 = EDGE_CURVE ( 'NONE', #66, #227, #127, .T. ) ;
#63 = ORIENTED_EDGE ( 'NONE', *, *, #116, .F. ) ;
#64 = ORIENTED_EDGE ( 'NONE', *, *, #291, .T. ) ;
#65 = APPROVAL_ROLE ( '' ) ;
#66 = VERTEX_POINT ( 'NONE', #47 ) ;
#67 = APPROVAL ( #179, 'UNSPECIFIED' ) ;
#68 = CARTESIAN_POINT ( 'NONE',  ( -0.1968499999999999139, 1.398703375343756604E-15, -9.682923725166778072E-30 ) ) ;
#69 = APPROVAL_DATE_TIME ( #44, #67 ) ;
#70 = DIRECTION ( 'NONE',  ( -2.438088387897960049E-29, 3.491481338843145188E-15, 1.000000000000000000 ) ) ;
#71 = PERSON_AND_ORGANIZATION ( #200, #266 ) ;
#72 = LOCAL_TIME ( 22, 49, 1.000000000000000000, #177 ) ;
#73 = DIRECTION ( 'NONE',  ( -2.445468806185136597E-29, 3.491481338843145583E-15, 1.000000000000000000 ) ) ;
#74 = COORDINATED_UNIVERSAL_TIME_OFFSET ( 5, 0, .BEHIND. ) ;
#75 = ADVANCED_FACE ( 'NONE', ( #192 ), #358, .T. ) ;
#76 = CARTESIAN_POINT ( 'NONE',  ( 0.1968499999999999139, -1.374596203102541017E-15, 9.598753983154295253E-30 ) ) ;
#77 = FACE_OUTER_BOUND ( 'NONE', #175, .T. ) ;
#78 = PERSON_AND_ORGANIZATION ( #200, #266 ) ;
#79 = VECTOR ( 'NONE', #125, 39.37007874015748143 ) ;
#80 = AXIS2_PLACEMENT_3D ( 'NONE', #190, #46, #277 ) ;
#81 = COORDINATED_UNIVERSAL_TIME_OFFSET ( 5, 0, .BEHIND. ) ;
#82 = EDGE_CURVE ( 'NONE', #100, #178, #182, .T. ) ;
#83 = CARTESIAN_POINT ( 'NONE',  ( 0.1968500000000000250, -1.512055823412800660E-14, -3.937000000000000277 ) ) ;
#84 = CARTESIAN_POINT ( 'NONE',  ( 5.969144809017300159E-29, -8.522356799982234543E-15, -2.440900000000000070 ) ) ;
#85 = APPROVAL_PERSON_ORGANIZATION ( #122, #4, #65 ) ;
#86 = ADVANCED_FACE ( 'NONE', ( #326 ), #59, .T. ) ;
#87 = ORIENTED_EDGE ( 'NONE', *, *, #36, .T. ) ;
#88 = ORIENTED_EDGE ( 'NONE', *, *, #13, .F. ) ;
#89 = ADVANCED_FACE ( 'NONE', ( #24 ), #145, .T. ) ;
#90 = AXIS2_PLACEMENT_3D ( 'NONE', #313, #52, #31 ) ;
#91 = ORIENTED_EDGE ( 'NONE', *, *, #280, .T. ) ;
#92 = ORIENTED_EDGE ( 'NONE', *, *, #62, .T. ) ;
#93 = EDGE_CURVE ( 'NONE', #349, #10, #303, .T. ) ;
#94 = DIRECTION ( 'NONE',  ( -1.000000000000000000, 6.982962677686265922E-15, -4.876176775795935793E-29 ) ) ;
#95 = AXIS2_PLACEMENT_3D ( 'NONE', #307, #73, #101 ) ;
#96 = UNCERTAINTY_MEASURE_WITH_UNIT (LENGTH_MEASURE( 1.000000000000000082E-05 ), #11, 'distance_accuracy_value', 'NONE');
#97 = DIRECTION ( 'NONE',  ( 1.000000000000000000, -6.982962677686267499E-15, 0.000000000000000000 ) ) ;
#98 = CALENDAR_DATE ( 2024, 28, 2 ) ;
#99 = LINE ( 'NONE', #356, #45 ) ;
#100 = VERTEX_POINT ( 'NONE', #196 ) ;
#101 = DIRECTION ( 'NONE',  ( 1.000000000000000000, -6.982962677686262766E-15, 0.000000000000000000 ) ) ;
#102 = VECTOR ( 'NONE', #322, 39.37007874015748143 ) ;
#103 = LINE ( 'NONE', #129, #198 ) ;
#104 = CALENDAR_DATE ( 2024, 28, 2 ) ;
#105 = DIRECTION ( 'NONE',  ( 1.000000000000000000, -6.982962677686266711E-15, 4.875932113059884735E-29 ) ) ;
#106 = DATE_AND_TIME ( #250, #330 ) ;
#107 = CC_DESIGN_PERSON_AND_ORGANIZATION_ASSIGNMENT ( #78, #336, ( #119 ) ) ;
#108 = CARTESIAN_POINT ( 'NONE',  ( 1.374596203102601167E-15, 0.1968499999999914762, -2.440900000000000514 ) ) ;
#109 = CIRCLE ( 'NONE', #164, 0.1958499999999999963 ) ;
#110 = DIRECTION ( 'NONE',  ( 1.000000000000000000, -6.982962677686266711E-15, 0.000000000000000000 ) ) ;
#111 = DIRECTION ( 'NONE',  ( 1.000000000000000000, -6.982962677686262766E-15, 0.000000000000000000 ) ) ;
#112 = ORIENTED_EDGE ( 'NONE', *, *, #167, .T. ) ;
#113 = DIRECTION ( 'NONE',  ( 0.000000000000000000, 0.000000000000000000, 1.000000000000000000 ) ) ;
#114 = CARTESIAN_POINT ( 'NONE',  ( 1.234936949548814420E-15, 0.1768499999999997574, -6.153342185293592648E-16 ) ) ;
#115 = EDGE_LOOP ( 'NONE', ( #112, #290 ) ) ;
#116 = EDGE_CURVE ( 'NONE', #172, #349, #103, .T. ) ;
#117 = CC_DESIGN_SECURITY_CLASSIFICATION ( #119, ( #251 ) ) ;
#118 = EDGE_LOOP ( 'NONE', ( #148, #64, #92, #298 ) ) ;
#119 = SECURITY_CLASSIFICATION ( '', '', #139 ) ;
#120 = PERSON_AND_ORGANIZATION ( #200, #266 ) ;
#121 = CARTESIAN_POINT ( 'NONE',  ( 1.374596203102637849E-15, 0.1968499999999862582, -3.937000000000000721 ) ) ;
#122 = PERSON_AND_ORGANIZATION ( #200, #266 ) ;
#123 = EDGE_CURVE ( 'NONE', #66, #349, #33, .T. ) ;
#124 = ORIENTED_EDGE ( 'NONE', *, *, #291, .F. ) ;
#125 = DIRECTION ( 'NONE',  ( -2.445468806185136877E-29, 3.491481338843145188E-15, 1.000000000000000000 ) ) ;
#126 = PERSON_AND_ORGANIZATION ( #200, #266 ) ;
#127 = LINE ( 'NONE', #76, #340 ) ;
#128 = APPLICATION_CONTEXT ( 'configuration controlled 3d designs of mechanical parts and assemblies' ) ;
#129 = CARTESIAN_POINT ( 'NONE',  ( -0.1958499999999999963, -7.130758851996077764E-15, -2.440900000000000070 ) ) ;
#130 = PRODUCT ( '70556', '70556', '', ( #38 ) ) ;
#131 = ADVANCED_FACE ( 'NONE', ( #197 ), #14, .T. ) ;
#132 = VERTEX_POINT ( 'NONE', #249 ) ;
#133 = DIRECTION ( 'NONE',  ( 1.000000000000000000, -6.982962677686266711E-15, 0.000000000000000000 ) ) ;
#134 = AXIS2_PLACEMENT_3D ( 'NONE', #359, #224, #48 ) ;
#135 = CIRCLE ( 'NONE', #325, 0.1968500000000000250 ) ;
#136 = CARTESIAN_POINT ( 'NONE',  ( 4.890937612370279289E-31, -6.982962677686299005E-17, -0.02000000000000002470 ) ) ;
#137 = EDGE_CURVE ( 'NONE', #227, #10, #3, .T. ) ;
#138 = DIRECTION ( 'NONE',  ( 1.000000000000000000, -6.982962677686265922E-15, 4.876176775795935793E-29 ) ) ;
#139 = SECURITY_CLASSIFICATION_LEVEL ( 'unclassified' ) ;
#140 = PRODUCT_RELATED_PRODUCT_CATEGORY ( 'detail', '', ( #130 ) ) ;
#141 = CARTESIAN_POINT ( 'NONE',  ( 4.890937612370279289E-31, -6.982962677686299005E-17, -0.02000000000000002470 ) ) ;
#142 = AXIS2_PLACEMENT_3D ( 'NONE', #143, #253, #166 ) ;
#143 = CARTESIAN_POINT ( 'NONE',  ( 0.000000000000000000, 0.000000000000000000, 0.000000000000000000 ) ) ;
#144 = PLANE ( 'NONE',  #282 ) ;
#145 = CONICAL_SURFACE ( 'NONE', #353, 0.1968499999999997752, 0.7853981633974481680 ) ;
#146 = APPROVAL ( #306, 'UNSPECIFIED' ) ;
#147 = ORIENTED_EDGE ( 'NONE', *, *, #316, .F. ) ;
#148 = ORIENTED_EDGE ( 'NONE', *, *, #93, .F. ) ;
#149 = PERSON_AND_ORGANIZATION_ROLE ( 'design_owner' ) ;
#150 = FACE_OUTER_BOUND ( 'NONE', #294, .T. ) ;
#151 = CARTESIAN_POINT ( 'NONE',  ( -0.1968499999999997752, 1.304766576325676930E-15, -0.02000000000000002470 ) ) ;
#152 = EDGE_CURVE ( 'NONE', #34, #278, #135, .T. ) ;
#153 = CALENDAR_DATE ( 2024, 28, 2 ) ;
#154 = CARTESIAN_POINT ( 'NONE',  ( -0.1968500000000000250, -9.735456040160091980E-15, -3.937000000000000277 ) ) ;
#155 = DIRECTION ( 'NONE',  ( 2.445468806185136597E-29, -3.491481338843145583E-15, -1.000000000000000000 ) ) ;
#156 = APPROVAL_ROLE ( '' ) ;
#157 = AXIS2_PLACEMENT_3D ( 'NONE', #108, #55, #286 ) ;
#158 = EDGE_CURVE ( 'NONE', #278, #132, #99, .T. ) ;
#159 = DIRECTION ( 'NONE',  ( -2.445468806185136877E-29, 3.491481338843145188E-15, 1.000000000000000000 ) ) ;
#160 = EDGE_LOOP ( 'NONE', ( #211, #267, #261, #170 ) ) ;
#161 = CARTESIAN_POINT ( 'NONE',  ( 5.966699340211114556E-29, -8.518865318643389958E-15, -2.439899999999999736 ) ) ;
#162 = DIRECTION ( 'NONE',  ( 1.000000000000000000, -6.982962677686266711E-15, 4.875932113059884735E-29 ) ) ;
#163 = PERSON_AND_ORGANIZATION ( #200, #266 ) ;
#164 = AXIS2_PLACEMENT_3D ( 'NONE', #84, #203, #111 ) ;
#165 = CARTESIAN_POINT ( 'NONE',  ( 9.627810689950883669E-29, -1.374596203102546341E-14, -3.937000000000000277 ) ) ;
#166 = DIRECTION ( 'NONE',  ( 1.000000000000000000, -6.982962677686265922E-15, 4.876176775795935793E-29 ) ) ;
#167 = EDGE_CURVE ( 'NONE', #178, #100, #260, .T. ) ;
#168 = VECTOR ( 'NONE', #334, 39.37007874015748854 ) ;
#169 = CARTESIAN_POINT ( 'NONE',  ( 0.1968499999999997752, -1.420318657638187544E-15, -0.02000000000000002470 ) ) ;
#170 = ORIENTED_EDGE ( 'NONE', *, *, #295, .F. ) ;
#171 = DIRECTION ( 'NONE',  ( 1.000000000000000000, -6.982962677686262766E-15, 0.000000000000000000 ) ) ;
#172 = VERTEX_POINT ( 'NONE', #15 ) ;
#173 = CC_DESIGN_PERSON_AND_ORGANIZATION_ASSIGNMENT ( #71, #258, ( #251 ) ) ;
#174 = AXIS2_PLACEMENT_3D ( 'NONE', #161, #309, #133 ) ;
#175 = EDGE_LOOP ( 'NONE', ( #324, #323 ) ) ;
#176 = ORIENTED_EDGE ( 'NONE', *, *, #158, .F. ) ;
#177 = COORDINATED_UNIVERSAL_TIME_OFFSET ( 5, 0, .BEHIND. ) ;
#178 = VERTEX_POINT ( 'NONE', #226 ) ;
#179 = APPROVAL_STATUS ( 'not_yet_approved' ) ;
#180 = ORIENTED_EDGE ( 'NONE', *, *, #344, .T. ) ;
#181 = APPLICATION_CONTEXT ( 'configuration controlled 3d designs of mechanical parts and assemblies' ) ;
#182 = CIRCLE ( 'NONE', #22, 0.1768499999999997574 ) ;
#183 = APPROVAL_PERSON_ORGANIZATION ( #362, #146, #312 ) ;
#184 = DATE_AND_TIME ( #246, #287 ) ;
#185 = MANIFOLD_SOLID_BREP ( 'Body-Move/Copy2[2]', #347 ) ;
#186 = CYLINDRICAL_SURFACE ( 'NONE', #310, 0.1968500000000000250 ) ;
#187 = FACE_OUTER_BOUND ( 'NONE', #57, .T. ) ;
#188 = PERSON_AND_ORGANIZATION ( #200, #266 ) ;
#189 = EDGE_CURVE ( 'NONE', #278, #34, #54, .T. ) ;
#190 = CARTESIAN_POINT ( 'NONE',  ( 5.969144809017300159E-29, -8.522356799982234543E-15, -2.440900000000000070 ) ) ;
#191 = DATE_TIME_ROLE ( 'classification_date' ) ;
#192 = FACE_OUTER_BOUND ( 'NONE', #118, .T. ) ;
#193 = DATE_AND_TIME ( #104, #311 ) ;
#194 = EDGE_LOOP ( 'NONE', ( #268, #87, #61, #176 ) ) ;
#195 = ADVANCED_BREP_SHAPE_REPRESENTATION ( '70556', ( #314, #185, #40 ), #348 ) ;
#196 = CARTESIAN_POINT ( 'NONE',  ( 0.1768499999999997574, -1.316798864272040563E-15, 4.268512490109333727E-18 ) ) ;
#197 = FACE_OUTER_BOUND ( 'NONE', #1, .T. ) ;
#198 = VECTOR ( 'NONE', #221, 39.37007874015748143 ) ;
#199 = APPROVAL_PERSON_ORGANIZATION ( #120, #67, #156 ) ;
#200 = PERSON ( 'UNSPECIFIED', 'UNSPECIFIED', 'UNSPECIFIED', ('UNSPECIFIED'), ('UNSPECIFIED'), ('UNSPECIFIED') ) ;
#201 = CYLINDRICAL_SURFACE ( 'NONE', #90, 0.1968499999999999139 ) ;
#202 = ADVANCED_FACE ( 'NONE', ( #77 ), #283, .F. ) ;
#203 = DIRECTION ( 'NONE',  ( -2.445468806185136597E-29, 3.491481338843145583E-15, 1.000000000000000000 ) ) ;
#204 = AXIS2_PLACEMENT_3D ( 'NONE', #121, #350, #94 ) ;
#205 = AXIS2_PLACEMENT_3D ( 'NONE', #26, #70, #138 ) ;
#206 = FACE_OUTER_BOUND ( 'NONE', #115, .T. ) ;
#207 = CC_DESIGN_DATE_AND_TIME_ASSIGNMENT ( #299, #271, ( #284 ) ) ;
#208 = ORIENTED_EDGE ( 'NONE', *, *, #320, .T. ) ;
#209 = APPLICATION_PROTOCOL_DEFINITION ( 'international standard', 'config_control_design', 1994, #128 ) ;
#210 = AXIS2_PLACEMENT_3D ( 'NONE', #43, #17, #327 ) ;
#211 = ORIENTED_EDGE ( 'NONE', *, *, #36, .F. ) ;
#212 = ORIENTED_EDGE ( 'NONE', *, *, #116, .T. ) ;
#213 = CARTESIAN_POINT ( 'NONE',  ( -0.1968499999999997752, 1.304766576325676930E-15, -0.02000000000000002470 ) ) ;
#214 = APPROVAL_STATUS ( 'not_yet_approved' ) ;
#215 = VECTOR ( 'NONE', #159, 39.37007874015748143 ) ;
#216 = CARTESIAN_POINT ( 'NONE',  ( 0.000000000000000000, 0.000000000000000000, 0.000000000000000000 ) ) ;
#217 = CIRCLE ( 'NONE', #49, 0.1968500000000000250 ) ;
#218 = DIRECTION ( 'NONE',  ( -2.445468806185136597E-29, 3.491481338843145583E-15, 1.000000000000000000 ) ) ;
#219 = CC_DESIGN_DATE_AND_TIME_ASSIGNMENT ( #106, #191, ( #119 ) ) ;
#220 = CARTESIAN_POINT ( 'NONE',  ( 9.627810689950883669E-29, -1.374596203102546341E-14, -3.937000000000000277 ) ) ;
#221 = DIRECTION ( 'NONE',  ( -0.7071067811864388819, 7.493145998869961307E-15, 0.7071067811866561525 ) ) ;
#222 = DESIGN_CONTEXT ( 'detailed design', #181, 'design' ) ;
#223 = CIRCLE ( 'NONE', #363, 0.1968500000000000250 ) ;
#224 = DIRECTION ( 'NONE',  ( -2.445468806185136597E-29, 3.491481338843145583E-15, 1.000000000000000000 ) ) ;
#225 = EDGE_CURVE ( 'NONE', #172, #8, #25, .T. ) ;
#226 = CARTESIAN_POINT ( 'NONE',  ( -0.1768499999999997574, 1.269851762937245675E-15, 4.268512490091652920E-18 ) ) ;
#227 = VERTEX_POINT ( 'NONE', #317 ) ;
#228 = DIRECTION ( 'NONE',  ( -2.445468806185136597E-29, 3.491481338843145583E-15, 1.000000000000000000 ) ) ;
#229 = PERSON_AND_ORGANIZATION_ROLE ( 'creator' ) ;
#230 = AXIS2_PLACEMENT_3D ( 'NONE', #331, #361, #105 ) ;
#231 = DIRECTION ( 'NONE',  ( -2.445468806185136597E-29, 3.491481338843145583E-15, 1.000000000000000000 ) ) ;
#232 = CARTESIAN_POINT ( 'NONE',  ( 0.1958499999999999963, -9.889970040407088560E-15, -2.440900000000000070 ) ) ;
#233 = DIRECTION ( 'NONE',  ( 1.000000000000000000, 0.000000000000000000, 0.000000000000000000 ) ) ;
#234 = ADVANCED_FACE ( 'NONE', ( #32 ), #289, .F. ) ;
#235 = CC_DESIGN_APPROVAL ( #146, ( #119 ) ) ;
#236 = DIRECTION ( 'NONE',  ( -2.445468806185136597E-29, 3.491481338843145583E-15, 1.000000000000000000 ) ) ;
#237 = ORIENTED_EDGE ( 'NONE', *, *, #137, .T. ) ;
#238 = CC_DESIGN_APPROVAL ( #67, ( #284 ) ) ;
#239 = VERTEX_POINT ( 'NONE', #51 ) ;
#240 = CC_DESIGN_PERSON_AND_ORGANIZATION_ASSIGNMENT ( #163, #229, ( #251 ) ) ;
#241 = EDGE_LOOP ( 'NONE', ( #63, #296, #180, #124 ) ) ;
#242 = FACE_OUTER_BOUND ( 'NONE', #160, .T. ) ;
#243 = ADVANCED_FACE ( 'NONE', ( #206 ), #144, .F. ) ;
#244 = EDGE_LOOP ( 'NONE', ( #91, #247 ) ) ;
#245 = DIRECTION ( 'NONE',  ( -1.000000000000000000, 6.982962677686266711E-15, 0.000000000000000000 ) ) ;
#246 = CALENDAR_DATE ( 2024, 28, 2 ) ;
#247 = ORIENTED_EDGE ( 'NONE', *, *, #295, .T. ) ;
#248 = DIRECTION ( 'NONE',  ( 1.000000000000000000, -6.982962677686267499E-15, 0.000000000000000000 ) ) ;
#249 = CARTESIAN_POINT ( 'NONE',  ( 0.1968500000000000250, -9.896953003084774574E-15, -2.440900000000000070 ) ) ;
#250 = CALENDAR_DATE ( 2024, 28, 2 ) ;
#251 = PRODUCT_DEFINITION_FORMATION_WITH_SPECIFIED_SOURCE ( 'ANY', '', #130, .NOT_KNOWN. ) ;
#252 = DIRECTION ( 'NONE',  ( -2.445468806185136877E-29, 3.491481338843145188E-15, 1.000000000000000000 ) ) ;
#253 = DIRECTION ( 'NONE',  ( -2.445468806185136597E-29, 3.491481338843145583E-15, 1.000000000000000000 ) ) ;
#254 = DIMENSIONAL_EXPONENTS ( 1.000000000000000000, 0.000000000000000000, 0.000000000000000000, 0.000000000000000000, 0.000000000000000000, 0.000000000000000000, 0.000000000000000000 ) ;
#255 = LENGTH_MEASURE_WITH_UNIT ( LENGTH_MEASURE( 0.02539999999999999897 ), #351 );
#256 = EDGE_CURVE ( 'NONE', #10, #227, #300, .T. ) ;
#257 = CARTESIAN_POINT ( 'NONE',  ( 5.969144809017299038E-29, -8.522356799982232966E-15, -2.440900000000000070 ) ) ;
#258 = PERSON_AND_ORGANIZATION_ROLE ( 'design_supplier' ) ;
#259 = CONICAL_SURFACE ( 'NONE', #39, 0.1968499999999997752, 0.7853981633974481680 ) ;
#260 = CIRCLE ( 'NONE', #230, 0.1768499999999997574 ) ;
#261 = ORIENTED_EDGE ( 'NONE', *, *, #158, .T. ) ;
#262 = CARTESIAN_POINT ( 'NONE',  ( 0.000000000000000000, 0.000000000000000000, 0.000000000000000000 ) ) ;
#263 = LINE ( 'NONE', #232, #102 ) ;
#264 = ORIENTED_EDGE ( 'NONE', *, *, #137, .F. ) ;
#265 = FACE_OUTER_BOUND ( 'NONE', #194, .T. ) ;
#266 = ORGANIZATION ( 'UNSPECIFIED', 'UNSPECIFIED', '' ) ;
#267 = ORIENTED_EDGE ( 'NONE', *, *, #152, .T. ) ;
#268 = ORIENTED_EDGE ( 'NONE', *, *, #189, .T. ) ;
#269 = AXIS2_PLACEMENT_3D ( 'NONE', #141, #236, #110 ) ;
#270 = PLANE ( 'NONE',  #204 ) ;
#271 = DATE_TIME_ROLE ( 'creation_date' ) ;
#272 = DIRECTION ( 'NONE',  ( -0.7071067811865473507, 2.468850131082255483E-15, -0.7071067811865475727 ) ) ;
#273 = CC_DESIGN_PERSON_AND_ORGANIZATION_ASSIGNMENT ( #188, #276, ( #284 ) ) ;
#274 = LINE ( 'NONE', #12, #79 ) ;
#275 = CARTESIAN_POINT ( 'NONE',  ( 4.890937612370279289E-31, -6.982962677686299005E-17, -0.02000000000000002470 ) ) ;
#276 = PERSON_AND_ORGANIZATION_ROLE ( 'creator' ) ;
#277 = DIRECTION ( 'NONE',  ( 1.000000000000000000, -6.982962677686262766E-15, 0.000000000000000000 ) ) ;
#278 = VERTEX_POINT ( 'NONE', #83 ) ;
#279 = CARTESIAN_POINT ( 'NONE',  ( 4.890937612370279289E-31, -6.982962677686299005E-17, -0.02000000000000002470 ) ) ;
#280 = EDGE_CURVE ( 'NONE', #132, #239, #223, .T. ) ;
#281 = CARTESIAN_POINT ( 'NONE',  ( -1.043851414335219820E-46, 1.490343170380447200E-32, 4.268512490100411279E-18 ) ) ;
#282 = AXIS2_PLACEMENT_3D ( 'NONE', #114, #366, #27 ) ;
#283 = PLANE ( 'NONE',  #205 ) ;
#284 = PRODUCT_DEFINITION ( 'UNKNOWN', '', #251, #222 ) ;
#285 = ORIENTED_EDGE ( 'NONE', *, *, #167, .F. ) ;
#286 = DIRECTION ( 'NONE',  ( -1.000000000000000000, 6.982962677686265922E-15, -4.876176775795935793E-29 ) ) ;
#287 = LOCAL_TIME ( 22, 49, 1.000000000000000000, #16 ) ;
#288 = CARTESIAN_POINT ( 'NONE',  ( 5.966699340211114556E-29, -8.518865318643389958E-15, -2.439899999999999736 ) ) ;
#289 = PLANE ( 'NONE',  #157 ) ;
#290 = ORIENTED_EDGE ( 'NONE', *, *, #82, .T. ) ;
#291 = EDGE_CURVE ( 'NONE', #349, #66, #60, .T. ) ;
#292 = CYLINDRICAL_SURFACE ( 'NONE', #142, 0.1968500000000000250 ) ;
#293 =( NAMED_UNIT ( * ) SI_UNIT ( $, .STERADIAN. ) SOLID_ANGLE_UNIT ( ) );
#294 = EDGE_LOOP ( 'NONE', ( #37, #357 ) ) ;
#295 = EDGE_CURVE ( 'NONE', #239, #132, #217, .T. ) ;
#296 = ORIENTED_EDGE ( 'NONE', *, *, #225, .T. ) ;
#297 = CARTESIAN_POINT ( 'NONE',  ( -0.1968500000000000527, -2.895644097366366474E-15, -2.439899999999999736 ) ) ;
#298 = ORIENTED_EDGE ( 'NONE', *, *, #256, .F. ) ;
#299 = DATE_AND_TIME ( #153, #72 ) ;
#300 = CIRCLE ( 'NONE', #269, 0.1968499999999997752 ) ;
#301 = EDGE_LOOP ( 'NONE', ( #318, #346, #264, #58 ) ) ;
#302 = DIRECTION ( 'NONE',  ( -2.445468806185136597E-29, 3.491481338843145583E-15, 1.000000000000000000 ) ) ;
#303 = LINE ( 'NONE', #68, #215 ) ;
#304 = APPLICATION_PROTOCOL_DEFINITION ( 'international standard', 'config_control_design', 1994, #181 ) ;
#305 = DIRECTION ( 'NONE',  ( -1.000000000000000000, 6.982962677686266711E-15, 0.000000000000000000 ) ) ;
#306 = APPROVAL_STATUS ( 'not_yet_approved' ) ;
#307 = CARTESIAN_POINT ( 'NONE',  ( 5.969144809017300159E-29, -8.522356799982234543E-15, -2.440900000000000070 ) ) ;
#308 = DIRECTION ( 'NONE',  ( -2.445468806185136597E-29, 3.491481338843145583E-15, 1.000000000000000000 ) ) ;
#309 = DIRECTION ( 'NONE',  ( -2.445468806185136597E-29, 3.491481338843145583E-15, 1.000000000000000000 ) ) ;
#310 = AXIS2_PLACEMENT_3D ( 'NONE', #216, #302, #42 ) ;
#311 = LOCAL_TIME ( 22, 49, 1.000000000000000000, #74 ) ;
#312 = APPROVAL_ROLE ( '' ) ;
#313 = CARTESIAN_POINT ( 'NONE',  ( 0.000000000000000000, 0.000000000000000000, 0.000000000000000000 ) ) ;
#314 = MANIFOLD_SOLID_BREP ( 'Body-Move/Copy2[1]', #315 ) ;
#315 = CLOSED_SHELL ( 'NONE', ( #332, #9, #234, #29 ) ) ;
#316 = EDGE_CURVE ( 'NONE', #100, #227, #2, .T. ) ;
#317 = CARTESIAN_POINT ( 'NONE',  ( 0.1968499999999997752, -1.420318657638187544E-15, -0.02000000000000002470 ) ) ;
#318 = ORIENTED_EDGE ( 'NONE', *, *, #123, .T. ) ;
#319 = ORIENTED_EDGE ( 'NONE', *, *, #344, .F. ) ;
#320 = EDGE_CURVE ( 'NONE', #8, #172, #109, .T. ) ;
#321 = AXIS2_PLACEMENT_3D ( 'NONE', #220, #333, #248 ) ;
#322 = DIRECTION ( 'NONE',  ( 0.7071067811864388819, -2.468850131081119129E-15, 0.7071067811866561525 ) ) ;
#323 = ORIENTED_EDGE ( 'NONE', *, *, #225, .F. ) ;
#324 = ORIENTED_EDGE ( 'NONE', *, *, #320, .F. ) ;
#325 = AXIS2_PLACEMENT_3D ( 'NONE', #165, #354, #97 ) ;
#326 = FACE_OUTER_BOUND ( 'NONE', #241, .T. ) ;
#327 = DIRECTION ( 'NONE',  ( 1.000000000000000000, -6.982962677686262766E-15, 0.000000000000000000 ) ) ;
#328 = ADVANCED_FACE ( 'NONE', ( #337 ), #201, .T. ) ;
#329 = DIRECTION ( 'NONE',  ( 2.445468806185136597E-29, -3.491481338843145583E-15, -1.000000000000000000 ) ) ;
#330 = LOCAL_TIME ( 22, 49, 1.000000000000000000, #81 ) ;
#331 = CARTESIAN_POINT ( 'NONE',  ( -1.043851414335219820E-46, 1.490343170380447200E-32, 4.268512490100411279E-18 ) ) ;
#332 = ADVANCED_FACE ( 'NONE', ( #265 ), #292, .T. ) ;
#333 = DIRECTION ( 'NONE',  ( -2.445468806185136597E-29, 3.491481338843145583E-15, 1.000000000000000000 ) ) ;
#334 = DIRECTION ( 'NONE',  ( 0.7071067811865473507, -7.319954787623254468E-15, -0.7071067811865475727 ) ) ;
#335 = VECTOR ( 'NONE', #272, 39.37007874015748854 ) ;
#336 = PERSON_AND_ORGANIZATION_ROLE ( 'classification_officer' ) ;
#337 = FACE_OUTER_BOUND ( 'NONE', #301, .T. ) ;
#338 = DIRECTION ( 'NONE',  ( -2.445468806185136597E-29, 3.491481338843145583E-15, 1.000000000000000000 ) ) ;
#339 = ORIENTED_EDGE ( 'NONE', *, *, #316, .T. ) ;
#340 = VECTOR ( 'NONE', #20, 39.37007874015748143 ) ;
#341 = CC_DESIGN_APPROVAL ( #4, ( #251 ) ) ;
#342 = DIRECTION ( 'NONE',  ( 1.000000000000000000, -6.982962677686266711E-15, 0.000000000000000000 ) ) ;
#343 =( NAMED_UNIT ( * ) PLANE_ANGLE_UNIT ( ) SI_UNIT ( $, .RADIAN. ) );
#344 = EDGE_CURVE ( 'NONE', #8, #66, #263, .T. ) ;
#345 = SHAPE_DEFINITION_REPRESENTATION ( #18, #195 ) ;
#346 = ORIENTED_EDGE ( 'NONE', *, *, #93, .T. ) ;
#347 = CLOSED_SHELL ( 'NONE', ( #131, #328, #89, #56, #75, #86, #202, #243 ) ) ;
#348 =( GEOMETRIC_REPRESENTATION_CONTEXT ( 3 ) GLOBAL_UNCERTAINTY_ASSIGNED_CONTEXT ( ( #96 ) ) GLOBAL_UNIT_ASSIGNED_CONTEXT ( ( #11, #343, #293 ) ) REPRESENTATION_CONTEXT ( 'NONE', 'WORKASPACE' ) );
#349 = VERTEX_POINT ( 'NONE', #297 ) ;
#350 = DIRECTION ( 'NONE',  ( 2.438088387897960049E-29, -3.491481338843145188E-15, -1.000000000000000000 ) ) ;
#351 =( LENGTH_UNIT ( ) NAMED_UNIT ( * ) SI_UNIT ( $, .METRE. ) );
#352 = CARTESIAN_POINT ( 'NONE',  ( 0.1958499999999999963, -9.889970040407088560E-15, -2.440900000000000070 ) ) ;
#353 = AXIS2_PLACEMENT_3D ( 'NONE', #136, #155, #245 ) ;
#354 = DIRECTION ( 'NONE',  ( -2.445468806185136597E-29, 3.491481338843145583E-15, 1.000000000000000000 ) ) ;
#355 = COORDINATED_UNIVERSAL_TIME_OFFSET ( 5, 0, .BEHIND. ) ;
#356 = CARTESIAN_POINT ( 'NONE',  ( 0.1968500000000000250, -1.374596203102541608E-15, 9.598753983154300858E-30 ) ) ;
#357 = ORIENTED_EDGE ( 'NONE', *, *, #152, .F. ) ;
#358 = CYLINDRICAL_SURFACE ( 'NONE', #134, 0.1968499999999999139 ) ;
#359 = CARTESIAN_POINT ( 'NONE',  ( 0.000000000000000000, 0.000000000000000000, 0.000000000000000000 ) ) ;
#360 = APPROVAL_DATE_TIME ( #193, #146 ) ;
#361 = DIRECTION ( 'NONE',  ( -2.445468806185136597E-29, 3.491481338843145583E-15, 1.000000000000000000 ) ) ;
#362 = PERSON_AND_ORGANIZATION ( #200, #266 ) ;
#363 = AXIS2_PLACEMENT_3D ( 'NONE', #364, #228, #171 ) ;
#364 = CARTESIAN_POINT ( 'NONE',  ( 5.969144809017299038E-29, -8.522356799982232966E-15, -2.440900000000000070 ) ) ;
#365 = CC_DESIGN_PERSON_AND_ORGANIZATION_ASSIGNMENT ( #126, #149, ( #130 ) ) ;
#366 = DIRECTION ( 'NONE',  ( 2.438088387897960049E-29, -3.491481338843145188E-15, -1.000000000000000000 ) ) ;
ENDSEC;
END-ISO-10303-21;
