ISO-10303-21;
HEADER;
FILE_DESCRIPTION (( 'STEP AP203' ),
    '1' );
FILE_NAME ('72957.STEP',
    '2024-02-29T04:59:08',
    ( '' ),
    ( '' ),
    'SwSTEP 2.0',
    'SolidWorks 2023',
    '' );
FILE_SCHEMA (( 'CONFIG_CONTROL_DESIGN' ));
ENDSEC;

DATA;
#1 = ORIENTED_EDGE ( 'NONE', *, *, #232, .T. ) ;
#2 = CARTESIAN_POINT ( 'NONE',  ( 0.1249999999999997780, -9.273918764983029686E-16, -0.02000000000000004552 ) ) ;
#3 = AXIS2_PLACEMENT_3D ( 'NONE', #183, #220, #332 ) ;
#4 = ORIENTED_EDGE ( 'NONE', *, *, #221, .T. ) ;
#5 = CARTESIAN_POINT ( 'NONE',  ( 3.668203209277704335E-29, -5.237222008264717388E-15, -1.499999999999999778 ) ) ;
#6 = ORIENTED_EDGE ( 'NONE', *, *, #84, .F. ) ;
#7 = CIRCLE ( 'NONE', #124, 0.1249999999999997780 ) ;
#8 = VECTOR ( 'NONE', #247, 39.37007874015748143 ) ;
#9 = ORIENTED_EDGE ( 'NONE', *, *, #20, .T. ) ;
#10 = CALENDAR_DATE ( 2024, 28, 2 ) ;
#11 = DIRECTION ( 'NONE',  ( -2.445468806185136597E-29, 3.491481338843145583E-15, 1.000000000000000000 ) ) ;
#12 = EDGE_CURVE ( 'NONE', #257, #179, #7, .T. ) ;
#13 = APPLICATION_CONTEXT ( 'configuration controlled 3d designs of mechanical parts and assemblies' ) ;
#14 = AXIS2_PLACEMENT_3D ( 'NONE', #229, #26, #142 ) ;
#15 = CARTESIAN_POINT ( 'NONE',  ( 0.1250000000000000000, -9.601573681818648281E-15, -2.500000000000000000 ) ) ;
#16 = ORIENTED_EDGE ( 'NONE', *, *, #192, .T. ) ;
#17 = LINE ( 'NONE', #128, #152 ) ;
#18 = CARTESIAN_POINT ( 'NONE',  ( 3.665757740471519853E-29, -5.233730526925875958E-15, -1.499000000000000110 ) ) ;
#19 = DIRECTION ( 'NONE',  ( -2.445468806185136597E-29, 3.491481338843145583E-15, 1.000000000000000000 ) ) ;
#20 = EDGE_CURVE ( 'NONE', #62, #98, #173, .T. ) ;
#21 = AXIS2_PLACEMENT_3D ( 'NONE', #125, #238, #97 ) ;
#22 = CARTESIAN_POINT ( 'NONE',  ( -0.1250000000000000000, -6.094784257986165933E-15, -2.500000000000000000 ) ) ;
#23 = PLANE ( 'NONE',  #304 ) ;
#24 = CC_DESIGN_DATE_AND_TIME_ASSIGNMENT ( #356, #324, ( #37 ) ) ;
#25 = VECTOR ( 'NONE', #342, 39.37007874015748143 ) ;
#26 = DIRECTION ( 'NONE',  ( -2.445468806185136597E-29, 3.491481338843145583E-15, 1.000000000000000000 ) ) ;
#27 = PERSON_AND_ORGANIZATION_ROLE ( 'classification_officer' ) ;
#28 = CC_DESIGN_SECURITY_CLASSIFICATION ( #212, ( #111 ) ) ;
#29 = FACE_OUTER_BOUND ( 'NONE', #175, .T. ) ;
#30 = VERTEX_POINT ( 'NONE', #275 ) ;
#31 = PRODUCT_RELATED_PRODUCT_CATEGORY ( 'detail', '', ( #262 ) ) ;
#32 = DIRECTION ( 'NONE',  ( -1.000000000000000000, 6.982962677686265922E-15, -4.876176775795935793E-29 ) ) ;
#33 = VERTEX_POINT ( 'NONE', #22 ) ;
#34 = FACE_OUTER_BOUND ( 'NONE', #143, .T. ) ;
#35 = CARTESIAN_POINT ( 'NONE',  ( 3.668203209277704335E-29, -5.237222008264717388E-15, -1.499999999999999778 ) ) ;
#36 = PERSON ( 'UNSPECIFIED', 'UNSPECIFIED', 'UNSPECIFIED', ('UNSPECIFIED'), ('UNSPECIFIED'), ('UNSPECIFIED') ) ;
#37 = PRODUCT_DEFINITION ( 'UNKNOWN', '', #111, #264 ) ;
#38 = EDGE_LOOP ( 'NONE', ( #60, #4 ) ) ;
#39 = CIRCLE ( 'NONE', #14, 0.1249999999999997780 ) ;
#40 = LOCAL_TIME ( 23, 59, 8.000000000000000000, #209 ) ;
#41 = DIRECTION ( 'NONE',  ( 1.000000000000000000, -6.982962677686270655E-15, 0.000000000000000000 ) ) ;
#42 = PERSON_AND_ORGANIZATION ( #36, #268 ) ;
#43 = CARTESIAN_POINT ( 'NONE',  ( -0.1249999999999999029, 8.881784197001245421E-16, -6.148668862818627323E-30 ) ) ;
#44 = APPROVAL_STATUS ( 'not_yet_approved' ) ;
#45 = DIRECTION ( 'NONE',  ( 1.000000000000000000, 0.000000000000000000, 0.000000000000000000 ) ) ;
#46 = CONICAL_SURFACE ( 'NONE', #237, 0.1249999999999997780, 0.7853981633974469467 ) ;
#47 = DIRECTION ( 'NONE',  ( -2.445468806185136597E-29, 3.491481338843145583E-15, 1.000000000000000000 ) ) ;
#48 = FACE_OUTER_BOUND ( 'NONE', #184, .T. ) ;
#49 = DATE_AND_TIME ( #195, #190 ) ;
#50 = ADVANCED_FACE ( 'NONE', ( #359 ), #23, .F. ) ;
#51 = DIRECTION ( 'NONE',  ( 1.000000000000000000, -6.982962677686270655E-15, 0.000000000000000000 ) ) ;
#52 = EDGE_LOOP ( 'NONE', ( #279, #126, #64, #344 ) ) ;
#53 =( NAMED_UNIT ( * ) SI_UNIT ( $, .STERADIAN. ) SOLID_ANGLE_UNIT ( ) );
#54 = CARTESIAN_POINT ( 'NONE',  ( 3.668203209277704335E-29, -5.237222008264717388E-15, -1.499999999999999778 ) ) ;
#55 = AXIS2_PLACEMENT_3D ( 'NONE', #158, #300, #51 ) ;
#56 = DIRECTION ( 'NONE',  ( -2.445468806185136877E-29, 3.491481338843145188E-15, 1.000000000000000000 ) ) ;
#57 = EDGE_LOOP ( 'NONE', ( #9, #1, #208, #340 ) ) ;
#58 = DIRECTION ( 'NONE',  ( -0.7071067811866199593, 7.493145998870616062E-15, 0.7071067811864750752 ) ) ;
#59 = SHAPE_DEFINITION_REPRESENTATION ( #108, #352 ) ;
#60 = ORIENTED_EDGE ( 'NONE', *, *, #260, .T. ) ;
#61 = DIRECTION ( 'NONE',  ( -2.445468806185136597E-29, 3.491481338843145583E-15, 1.000000000000000000 ) ) ;
#62 = VERTEX_POINT ( 'NONE', #258 ) ;
#63 = CARTESIAN_POINT ( 'NONE',  ( 0.1239999999999999991, -6.103109380297813924E-15, -1.499999999999999778 ) ) ;
#64 = ORIENTED_EDGE ( 'NONE', *, *, #323, .F. ) ;
#65 = ADVANCED_FACE ( 'NONE', ( #289 ), #196, .T. ) ;
#66 = AXIS2_PLACEMENT_3D ( 'NONE', #325, #131, #72 ) ;
#67 = ADVANCED_FACE ( 'NONE', ( #116 ), #46, .T. ) ;
#68 = AXIS2_PLACEMENT_3D ( 'NONE', #194, #61, #171 ) ;
#69 = DIRECTION ( 'NONE',  ( 2.445468806185136597E-29, -3.491481338843145583E-15, -1.000000000000000000 ) ) ;
#70 = ORIENTED_EDGE ( 'NONE', *, *, #362, .F. ) ;
#71 = DATE_AND_TIME ( #121, #40 ) ;
#72 = DIRECTION ( 'NONE',  ( 1.000000000000000000, -6.982962677686265922E-15, 4.876206205277402997E-29 ) ) ;
#73 = DIRECTION ( 'NONE',  ( -2.445468806185136597E-29, 3.491481338843145583E-15, 1.000000000000000000 ) ) ;
#74 = APPROVAL_STATUS ( 'not_yet_approved' ) ;
#75 = EDGE_CURVE ( 'NONE', #151, #62, #177, .T. ) ;
#76 = LINE ( 'NONE', #274, #321 ) ;
#77 = PERSON_AND_ORGANIZATION ( #36, #268 ) ;
#78 = APPROVAL ( #44, 'UNSPECIFIED' ) ;
#79 = AXIS2_PLACEMENT_3D ( 'NONE', #366, #286, #32 ) ;
#80 = ORIENTED_EDGE ( 'NONE', *, *, #20, .F. ) ;
#81 =( NAMED_UNIT ( * ) PLANE_ANGLE_UNIT ( ) SI_UNIT ( $, .RADIAN. ) );
#82 = VECTOR ( 'NONE', #239, 39.37007874015748143 ) ;
#83 = CARTESIAN_POINT ( 'NONE',  ( 4.890937612370284544E-31, -6.982962677686307633E-17, -0.02000000000000004552 ) ) ;
#84 = EDGE_CURVE ( 'NONE', #151, #94, #310, .T. ) ;
#85 = ORIENTED_EDGE ( 'NONE', *, *, #12, .T. ) ;
#86 = DIRECTION ( 'NONE',  ( -2.438088387897960049E-29, 3.491481338843145188E-15, 1.000000000000000000 ) ) ;
#87 = CARTESIAN_POINT ( 'NONE',  ( 0.1049999999999998018, -8.238720831321562839E-16, -1.707404996039620013E-17 ) ) ;
#88 = ADVANCED_FACE ( 'NONE', ( #34 ), #146, .F. ) ;
#89 = CIRCLE ( 'NONE', #360, 0.1250000000000000000 ) ;
#90 = EDGE_LOOP ( 'NONE', ( #320, #318 ) ) ;
#91 = APPROVAL ( #136, 'UNSPECIFIED' ) ;
#92 = PERSON_AND_ORGANIZATION ( #36, #268 ) ;
#93 = DIRECTION ( 'NONE',  ( 1.000000000000000000, -6.982962677686262766E-15, 0.000000000000000000 ) ) ;
#94 = VERTEX_POINT ( 'NONE', #109 ) ;
#95 = CARTESIAN_POINT ( 'NONE',  ( -0.1249999999999997780, 8.030407079339186601E-16, -0.02000000000000004552 ) ) ;
#96 = COORDINATED_UNIVERSAL_TIME_OFFSET ( 5, 0, .BEHIND. ) ;
#97 = DIRECTION ( 'NONE',  ( 1.000000000000000000, -6.982962677686266711E-15, 4.876176775795935793E-29 ) ) ;
#98 = VERTEX_POINT ( 'NONE', #174 ) ;
#99 = APPLICATION_PROTOCOL_DEFINITION ( 'international standard', 'config_control_design', 1994, #13 ) ;
#100 = EDGE_CURVE ( 'NONE', #327, #30, #363, .T. ) ;
#101 = LINE ( 'NONE', #137, #8 ) ;
#102 = AXIS2_PLACEMENT_3D ( 'NONE', #224, #253, #337 ) ;
#103 = DIRECTION ( 'NONE',  ( -2.445468806185136597E-29, 3.491481338843145583E-15, 1.000000000000000000 ) ) ;
#104 =( CONVERSION_BASED_UNIT ( 'INCH', #333 ) LENGTH_UNIT ( ) NAMED_UNIT ( #326 ) );
#105 = CIRCLE ( 'NONE', #314, 0.1250000000000000000 ) ;
#106 = APPROVAL_DATE_TIME ( #249, #78 ) ;
#107 = ORIENTED_EDGE ( 'NONE', *, *, #232, .F. ) ;
#108 = PRODUCT_DEFINITION_SHAPE ( 'NONE', 'NONE',  #37 ) ;
#109 = CARTESIAN_POINT ( 'NONE',  ( -0.1239999999999999991, -4.350850561573971550E-15, -1.499999999999999778 ) ) ;
#110 = CLOSED_SHELL ( 'NONE', ( #246, #255, #67, #226, #198, #172, #88, #50 ) ) ;
#111 = PRODUCT_DEFINITION_FORMATION_WITH_SPECIFIED_SOURCE ( 'ANY', '', #262, .NOT_KNOWN. ) ;
#112 = DIRECTION ( 'NONE',  ( 1.000000000000000000, -6.982962677686265922E-15, 4.876176775795935793E-29 ) ) ;
#113 = ORIENTED_EDGE ( 'NONE', *, *, #305, .T. ) ;
#114 = FACE_OUTER_BOUND ( 'NONE', #261, .T. ) ;
#115 = CC_DESIGN_PERSON_AND_ORGANIZATION_ASSIGNMENT ( #77, #223, ( #111 ) ) ;
#116 = FACE_OUTER_BOUND ( 'NONE', #206, .T. ) ;
#117 = AXIS2_PLACEMENT_3D ( 'NONE', #159, #47, #162 ) ;
#118 = APPROVAL_PERSON_ORGANIZATION ( #92, #149, #272 ) ;
#119 = VERTEX_POINT ( 'NONE', #87 ) ;
#120 = APPROVAL_ROLE ( '' ) ;
#121 = CALENDAR_DATE ( 2024, 28, 2 ) ;
#122 = DIRECTION ( 'NONE',  ( 1.000000000000000000, -6.982962677686262766E-15, 0.000000000000000000 ) ) ;
#123 = ORIENTED_EDGE ( 'NONE', *, *, #192, .F. ) ;
#124 = AXIS2_PLACEMENT_3D ( 'NONE', #355, #334, #167 ) ;
#125 = CARTESIAN_POINT ( 'NONE',  ( 0.000000000000000000, 0.000000000000000000, 0.000000000000000000 ) ) ;
#126 = ORIENTED_EDGE ( 'NONE', *, *, #336, .T. ) ;
#127 = PERSON_AND_ORGANIZATION_ROLE ( 'design_owner' ) ;
#128 = CARTESIAN_POINT ( 'NONE',  ( 0.1249999999999999029, -8.728703347107826486E-16, 6.095220969744914837E-30 ) ) ;
#129 = DIRECTION ( 'NONE',  ( -2.445468806185136877E-29, 3.491481338843145188E-15, 1.000000000000000000 ) ) ;
#130 = AXIS2_PLACEMENT_3D ( 'NONE', #166, #19, #242 ) ;
#131 = DIRECTION ( 'NONE',  ( -2.445468806185136597E-29, 3.491481338843145583E-15, 1.000000000000000000 ) ) ;
#132 = APPROVAL_PERSON_ORGANIZATION ( #157, #78, #120 ) ;
#133 = CC_DESIGN_PERSON_AND_ORGANIZATION_ASSIGNMENT ( #42, #240, ( #37 ) ) ;
#134 = DIRECTION ( 'NONE',  ( -2.445468806185136597E-29, 3.491481338843145583E-15, 1.000000000000000000 ) ) ;
#135 = APPROVAL_ROLE ( '' ) ;
#136 = APPROVAL_STATUS ( 'not_yet_approved' ) ;
#137 = CARTESIAN_POINT ( 'NONE',  ( 0.1249999999999997780, -9.273918764983029686E-16, -0.02000000000000004552 ) ) ;
#138 = CARTESIAN_POINT ( 'NONE',  ( 7.332110811570565452E-16, 0.1049999999999998018, -3.751425655587304572E-16 ) ) ;
#139 = CALENDAR_DATE ( 2024, 28, 2 ) ;
#140 = AXIS2_PLACEMENT_3D ( 'NONE', #18, #134, #331 ) ;
#141 = CC_DESIGN_APPROVAL ( #91, ( #212 ) ) ;
#142 = DIRECTION ( 'NONE',  ( 1.000000000000000000, -6.982962677686266711E-15, 0.000000000000000000 ) ) ;
#143 = EDGE_LOOP ( 'NONE', ( #6, #290 ) ) ;
#144 = EDGE_CURVE ( 'NONE', #94, #98, #203, .T. ) ;
#145 = EDGE_LOOP ( 'NONE', ( #365, #347, #199, #123 ) ) ;
#146 = PLANE ( 'NONE',  #219 ) ;
#147 = ORIENTED_EDGE ( 'NONE', *, *, #336, .F. ) ;
#148 = VECTOR ( 'NONE', #58, 39.37007874015748143 ) ;
#149 = APPROVAL ( #74, 'UNSPECIFIED' ) ;
#150 = DIRECTION ( 'NONE',  ( -2.445468806185136597E-29, 3.491481338843145583E-15, 1.000000000000000000 ) ) ;
#151 = VERTEX_POINT ( 'NONE', #181 ) ;
#152 = VECTOR ( 'NONE', #186, 39.37007874015748143 ) ;
#153 = CC_DESIGN_APPROVAL ( #78, ( #111 ) ) ;
#154 = DIRECTION ( 'NONE',  ( 0.000000000000000000, 0.000000000000000000, 1.000000000000000000 ) ) ;
#155 = CC_DESIGN_PERSON_AND_ORGANIZATION_ASSIGNMENT ( #335, #27, ( #212 ) ) ;
#156 = VERTEX_POINT ( 'NONE', #256 ) ;
#157 = PERSON_AND_ORGANIZATION ( #36, #268 ) ;
#158 = CARTESIAN_POINT ( 'NONE',  ( 6.113672015462842613E-29, -8.728703347107864943E-15, -2.500000000000000000 ) ) ;
#159 = CARTESIAN_POINT ( 'NONE',  ( 4.175405657340879278E-46, -5.961372681521788801E-32, -1.707404996040164512E-17 ) ) ;
#160 = EDGE_CURVE ( 'NONE', #94, #151, #193, .T. ) ;
#161 = CIRCLE ( 'NONE', #358, 0.1250000000000000000 ) ;
#162 = DIRECTION ( 'NONE',  ( 1.000000000000000000, -6.982962677686265922E-15, 4.876206205277402997E-29 ) ) ;
#163 = CARTESIAN_POINT ( 'NONE',  ( 3.668203209277704335E-29, -5.237222008264717388E-15, -1.499999999999999778 ) ) ;
#164 = CC_DESIGN_PERSON_AND_ORGANIZATION_ASSIGNMENT ( #222, #170, ( #111 ) ) ;
#165 = MANIFOLD_SOLID_BREP ( 'Body-Move/Copy2[2]', #110 ) ;
#166 = CARTESIAN_POINT ( 'NONE',  ( 0.000000000000000000, 0.000000000000000000, 0.000000000000000000 ) ) ;
#167 = DIRECTION ( 'NONE',  ( 1.000000000000000000, -6.982962677686266711E-15, 0.000000000000000000 ) ) ;
#168 = AXIS2_PLACEMENT_3D ( 'NONE', #35, #259, #200 ) ;
#169 = LOCAL_TIME ( 23, 59, 8.000000000000000000, #245 ) ;
#170 = PERSON_AND_ORGANIZATION_ROLE ( 'creator' ) ;
#171 = DIRECTION ( 'NONE',  ( 1.000000000000000000, -6.982962677686266711E-15, 4.876176775795935793E-29 ) ) ;
#172 = ADVANCED_FACE ( 'NONE', ( #295 ), #180, .T. ) ;
#173 = CIRCLE ( 'NONE', #140, 0.1250000000000000000 ) ;
#174 = CARTESIAN_POINT ( 'NONE',  ( -0.1250000000000000278, -1.763601657151242227E-15, -1.499000000000000110 ) ) ;
#175 = EDGE_LOOP ( 'NONE', ( #107, #16, #287, #231 ) ) ;
#176 =( LENGTH_UNIT ( ) NAMED_UNIT ( * ) SI_UNIT ( $, .METRE. ) );
#177 = LINE ( 'NONE', #63, #25 ) ;
#178 = ADVANCED_FACE ( 'NONE', ( #114 ), #346, .F. ) ;
#179 = VERTEX_POINT ( 'NONE', #2 ) ;
#180 = CONICAL_SURFACE ( 'NONE', #168, 0.1239999999999999991, 0.7853981633975507526 ) ;
#181 = CARTESIAN_POINT ( 'NONE',  ( 0.1239999999999999991, -6.103109380297813924E-15, -1.499999999999999778 ) ) ;
#182 = ORIENTED_EDGE ( 'NONE', *, *, #294, .T. ) ;
#183 = CARTESIAN_POINT ( 'NONE',  ( 8.728703347108443769E-16, 0.1249999999999912709, -2.500000000000000444 ) ) ;
#184 = EDGE_LOOP ( 'NONE', ( #70, #213, #113, #85 ) ) ;
#185 = EDGE_CURVE ( 'NONE', #179, #257, #39, .T. ) ;
#186 = DIRECTION ( 'NONE',  ( -2.445468806185136877E-29, 3.491481338843145188E-15, 1.000000000000000000 ) ) ;
#187 = VERTEX_POINT ( 'NONE', #317 ) ;
#188 = CARTESIAN_POINT ( 'NONE',  ( 4.890937612370284544E-31, -6.982962677686307633E-17, -0.02000000000000004552 ) ) ;
#189 = CIRCLE ( 'NONE', #66, 0.1049999999999998018 ) ;
#190 = LOCAL_TIME ( 23, 59, 8.000000000000000000, #307 ) ;
#191 = DATE_TIME_ROLE ( 'classification_date' ) ;
#192 = EDGE_CURVE ( 'NONE', #98, #62, #89, .T. ) ;
#193 = CIRCLE ( 'NONE', #276, 0.1239999999999999991 ) ;
#194 = CARTESIAN_POINT ( 'NONE',  ( 0.000000000000000000, 0.000000000000000000, 0.000000000000000000 ) ) ;
#195 = CALENDAR_DATE ( 2024, 28, 2 ) ;
#196 = CYLINDRICAL_SURFACE ( 'NONE', #68, 0.1250000000000000000 ) ;
#197 = ORIENTED_EDGE ( 'NONE', *, *, #305, .F. ) ;
#198 = ADVANCED_FACE ( 'NONE', ( #29 ), #227, .T. ) ;
#199 = ORIENTED_EDGE ( 'NONE', *, *, #75, .T. ) ;
#200 = DIRECTION ( 'NONE',  ( 1.000000000000000000, -6.982962677686262766E-15, 0.000000000000000000 ) ) ;
#201 = DATE_AND_TIME ( #296, #169 ) ;
#202 = EDGE_LOOP ( 'NONE', ( #217, #285, #80, #252 ) ) ;
#203 = LINE ( 'NONE', #316, #148 ) ;
#204 = ORIENTED_EDGE ( 'NONE', *, *, #351, .F. ) ;
#205 = CLOSED_SHELL ( 'NONE', ( #65, #278, #178, #343 ) ) ;
#206 = EDGE_LOOP ( 'NONE', ( #225, #230, #313, #197 ) ) ;
#207 = EDGE_LOOP ( 'NONE', ( #147, #182, #215, #204 ) ) ;
#208 = ORIENTED_EDGE ( 'NONE', *, *, #185, .F. ) ;
#209 = COORDINATED_UNIVERSAL_TIME_OFFSET ( 5, 0, .BEHIND. ) ;
#210 = FACE_OUTER_BOUND ( 'NONE', #57, .T. ) ;
#211 = AXIS2_PLACEMENT_3D ( 'NONE', #163, #103, #93 ) ;
#212 = SECURITY_CLASSIFICATION ( '', '', #282 ) ;
#213 = ORIENTED_EDGE ( 'NONE', *, *, #260, .F. ) ;
#214 = FACE_OUTER_BOUND ( 'NONE', #90, .T. ) ;
#215 = ORIENTED_EDGE ( 'NONE', *, *, #100, .T. ) ;
#216 = CARTESIAN_POINT ( 'NONE',  ( 3.668203209277704895E-29, -5.237222008264718177E-15, -1.500000000000000222 ) ) ;
#217 = ORIENTED_EDGE ( 'NONE', *, *, #84, .T. ) ;
#218 = FACE_OUTER_BOUND ( 'NONE', #207, .T. ) ;
#219 = AXIS2_PLACEMENT_3D ( 'NONE', #5, #86, #112 ) ;
#220 = DIRECTION ( 'NONE',  ( 2.438088387897960049E-29, -3.491481338843145188E-15, -1.000000000000000000 ) ) ;
#221 = EDGE_CURVE ( 'NONE', #119, #156, #189, .T. ) ;
#222 = PERSON_AND_ORGANIZATION ( #36, #268 ) ;
#223 = PERSON_AND_ORGANIZATION_ROLE ( 'design_supplier' ) ;
#224 = CARTESIAN_POINT ( 'NONE',  ( 3.668203209277704335E-29, -5.237222008264717388E-15, -1.499999999999999778 ) ) ;
#225 = ORIENTED_EDGE ( 'NONE', *, *, #221, .F. ) ;
#226 = ADVANCED_FACE ( 'NONE', ( #48 ), #233, .T. ) ;
#227 = CYLINDRICAL_SURFACE ( 'NONE', #348, 0.1249999999999999029 ) ;
#228 = AXIS2_PLACEMENT_3D ( 'NONE', #188, #69, #244 ) ;
#229 = CARTESIAN_POINT ( 'NONE',  ( 4.890937612370284544E-31, -6.982962677686307633E-17, -0.02000000000000004552 ) ) ;
#230 = ORIENTED_EDGE ( 'NONE', *, *, #362, .T. ) ;
#231 = ORIENTED_EDGE ( 'NONE', *, *, #12, .F. ) ;
#232 = EDGE_CURVE ( 'NONE', #98, #257, #306, .T. ) ;
#233 = CONICAL_SURFACE ( 'NONE', #228, 0.1249999999999997780, 0.7853981633974469467 ) ;
#234 = LOCAL_TIME ( 23, 59, 8.000000000000000000, #299 ) ;
#235 = APPROVAL_DATE_TIME ( #71, #149 ) ;
#236 = LINE ( 'NONE', #353, #82 ) ;
#237 = AXIS2_PLACEMENT_3D ( 'NONE', #83, #311, #345 ) ;
#238 = DIRECTION ( 'NONE',  ( -2.445468806185136597E-29, 3.491481338843145583E-15, 1.000000000000000000 ) ) ;
#239 = DIRECTION ( 'NONE',  ( -2.445468806185136877E-29, 3.491481338843145188E-15, 1.000000000000000000 ) ) ;
#240 = PERSON_AND_ORGANIZATION_ROLE ( 'creator' ) ;
#241 = CC_DESIGN_PERSON_AND_ORGANIZATION_ASSIGNMENT ( #269, #127, ( #262 ) ) ;
#242 = DIRECTION ( 'NONE',  ( 1.000000000000000000, -6.982962677686266711E-15, 4.876176775795935793E-29 ) ) ;
#243 = CIRCLE ( 'NONE', #117, 0.1049999999999998018 ) ;
#244 = DIRECTION ( 'NONE',  ( -1.000000000000000000, 6.982962677686266711E-15, 0.000000000000000000 ) ) ;
#245 = COORDINATED_UNIVERSAL_TIME_OFFSET ( 5, 0, .BEHIND. ) ;
#246 = ADVANCED_FACE ( 'NONE', ( #330 ), #292, .T. ) ;
#247 = DIRECTION ( 'NONE',  ( 0.7071067811865465735, -7.319954787623252890E-15, -0.7071067811865484609 ) ) ;
#248 = DIRECTION ( 'NONE',  ( 2.438088387897960049E-29, -3.491481338843145188E-15, -1.000000000000000000 ) ) ;
#249 = DATE_AND_TIME ( #139, #298 ) ;
#250 = VECTOR ( 'NONE', #56, 39.37007874015748143 ) ;
#251 = CARTESIAN_POINT ( 'NONE',  ( 3.665757740471519853E-29, -5.233730526925875958E-15, -1.499000000000000110 ) ) ;
#252 = ORIENTED_EDGE ( 'NONE', *, *, #75, .F. ) ;
#253 = DIRECTION ( 'NONE',  ( -2.445468806185136597E-29, 3.491481338843145583E-15, 1.000000000000000000 ) ) ;
#254 = ORIENTED_EDGE ( 'NONE', *, *, #323, .T. ) ;
#255 = ADVANCED_FACE ( 'NONE', ( #210 ), #303, .T. ) ;
#256 = CARTESIAN_POINT ( 'NONE',  ( -0.1049999999999998018, 7.681258945454876027E-16, -1.707404996040689597E-17 ) ) ;
#257 = VERTEX_POINT ( 'NONE', #95 ) ;
#258 = CARTESIAN_POINT ( 'NONE',  ( 0.1250000000000000000, -6.106600861636658508E-15, -1.499000000000000110 ) ) ;
#259 = DIRECTION ( 'NONE',  ( -2.445468806185136597E-29, 3.491481338843145583E-15, 1.000000000000000000 ) ) ;
#260 = EDGE_CURVE ( 'NONE', #156, #119, #243, .T. ) ;
#261 = EDGE_LOOP ( 'NONE', ( #254, #338 ) ) ;
#262 = PRODUCT ( '72957', '72957', '', ( #302 ) ) ;
#263 = VECTOR ( 'NONE', #129, 39.37007874015748143 ) ;
#264 = DESIGN_CONTEXT ( 'detailed design', #13, 'design' ) ;
#265 = CARTESIAN_POINT ( 'NONE',  ( 3.668203209277704895E-29, -5.237222008264718177E-15, -1.500000000000000222 ) ) ;
#266 = CARTESIAN_POINT ( 'NONE',  ( 6.113672015462842613E-29, -8.728703347107864943E-15, -2.500000000000000000 ) ) ;
#267 = CIRCLE ( 'NONE', #55, 0.1250000000000000000 ) ;
#268 = ORGANIZATION ( 'UNSPECIFIED', 'UNSPECIFIED', '' ) ;
#269 = PERSON_AND_ORGANIZATION ( #36, #268 ) ;
#270 = DIRECTION ( 'NONE',  ( -0.7071067811865465735, 2.468850131082246805E-15, -0.7071067811865484609 ) ) ;
#271 = CC_DESIGN_DATE_AND_TIME_ASSIGNMENT ( #49, #191, ( #212 ) ) ;
#272 = APPROVAL_ROLE ( '' ) ;
#273 = DIRECTION ( 'NONE',  ( 1.000000000000000000, -6.982962677686266711E-15, 4.876176775795935793E-29 ) ) ;
#274 = CARTESIAN_POINT ( 'NONE',  ( -0.1249999999999997780, 8.030407079339186601E-16, -0.02000000000000004552 ) ) ;
#275 = CARTESIAN_POINT ( 'NONE',  ( 0.1250000000000000000, -6.110092342975501516E-15, -1.500000000000000222 ) ) ;
#276 = AXIS2_PLACEMENT_3D ( 'NONE', #54, #150, #281 ) ;
#277 = AXIS2_PLACEMENT_3D ( 'NONE', #216, #73, #354 ) ;
#278 = ADVANCED_FACE ( 'NONE', ( #214 ), #328, .T. ) ;
#279 = ORIENTED_EDGE ( 'NONE', *, *, #297, .T. ) ;
#280 = MANIFOLD_SOLID_BREP ( 'Body-Move/Copy2[1]', #205 ) ;
#281 = DIRECTION ( 'NONE',  ( 1.000000000000000000, -6.982962677686262766E-15, 0.000000000000000000 ) ) ;
#282 = SECURITY_CLASSIFICATION_LEVEL ( 'unclassified' ) ;
#283 =( GEOMETRIC_REPRESENTATION_CONTEXT ( 3 ) GLOBAL_UNCERTAINTY_ASSIGNED_CONTEXT ( ( #308 ) ) GLOBAL_UNIT_ASSIGNED_CONTEXT ( ( #104, #81, #53 ) ) REPRESENTATION_CONTEXT ( 'NONE', 'WORKASPACE' ) );
#284 = DIRECTION ( 'NONE',  ( 1.000000000000000000, -6.982962677686262766E-15, 0.000000000000000000 ) ) ;
#285 = ORIENTED_EDGE ( 'NONE', *, *, #144, .T. ) ;
#286 = DIRECTION ( 'NONE',  ( 2.438088387897960049E-29, -3.491481338843145188E-15, -1.000000000000000000 ) ) ;
#287 = ORIENTED_EDGE ( 'NONE', *, *, #319, .T. ) ;
#288 = CARTESIAN_POINT ( 'NONE',  ( 0.000000000000000000, 0.000000000000000000, 0.000000000000000000 ) ) ;
#289 = FACE_OUTER_BOUND ( 'NONE', #52, .T. ) ;
#290 = ORIENTED_EDGE ( 'NONE', *, *, #160, .F. ) ;
#291 = APPLICATION_CONTEXT ( 'configuration controlled 3d designs of mechanical parts and assemblies' ) ;
#292 = CONICAL_SURFACE ( 'NONE', #211, 0.1239999999999999991, 0.7853981633975507526 ) ;
#293 = APPLICATION_PROTOCOL_DEFINITION ( 'international standard', 'config_control_design', 1994, #291 ) ;
#294 = EDGE_CURVE ( 'NONE', #33, #327, #267, .T. ) ;
#295 = FACE_OUTER_BOUND ( 'NONE', #145, .T. ) ;
#296 = CALENDAR_DATE ( 2024, 28, 2 ) ;
#297 = EDGE_CURVE ( 'NONE', #327, #33, #105, .T. ) ;
#298 = LOCAL_TIME ( 23, 59, 8.000000000000000000, #96 ) ;
#299 = COORDINATED_UNIVERSAL_TIME_OFFSET ( 5, 0, .BEHIND. ) ;
#300 = DIRECTION ( 'NONE',  ( -2.445468806185136597E-29, 3.491481338843145583E-15, 1.000000000000000000 ) ) ;
#301 = DIRECTION ( 'NONE',  ( -2.445468806185136597E-29, 3.491481338843145583E-15, 1.000000000000000000 ) ) ;
#302 = MECHANICAL_CONTEXT ( 'NONE', #291, 'mechanical' ) ;
#303 = CYLINDRICAL_SURFACE ( 'NONE', #130, 0.1249999999999999029 ) ;
#304 = AXIS2_PLACEMENT_3D ( 'NONE', #138, #248, #361 ) ;
#305 = EDGE_CURVE ( 'NONE', #156, #257, #76, .T. ) ;
#306 = LINE ( 'NONE', #43, #263 ) ;
#307 = COORDINATED_UNIVERSAL_TIME_OFFSET ( 5, 0, .BEHIND. ) ;
#308 = UNCERTAINTY_MEASURE_WITH_UNIT (LENGTH_MEASURE( 1.000000000000000082E-05 ), #104, 'distance_accuracy_value', 'NONE');
#309 = PERSON_AND_ORGANIZATION ( #36, #268 ) ;
#310 = CIRCLE ( 'NONE', #102, 0.1239999999999999991 ) ;
#311 = DIRECTION ( 'NONE',  ( 2.445468806185136597E-29, -3.491481338843145583E-15, -1.000000000000000000 ) ) ;
#312 = DIRECTION ( 'NONE',  ( -2.445468806185136597E-29, 3.491481338843145583E-15, 1.000000000000000000 ) ) ;
#313 = ORIENTED_EDGE ( 'NONE', *, *, #185, .T. ) ;
#314 = AXIS2_PLACEMENT_3D ( 'NONE', #266, #329, #41 ) ;
#315 = CC_DESIGN_APPROVAL ( #149, ( #37 ) ) ;
#316 = CARTESIAN_POINT ( 'NONE',  ( -0.1239999999999999991, -4.356149015922193953E-15, -1.499999999999999778 ) ) ;
#317 = CARTESIAN_POINT ( 'NONE',  ( -0.1250000000000000000, -6.094784257986165933E-15, -1.500000000000000222 ) ) ;
#318 = ORIENTED_EDGE ( 'NONE', *, *, #294, .F. ) ;
#319 = EDGE_CURVE ( 'NONE', #62, #179, #17, .T. ) ;
#320 = ORIENTED_EDGE ( 'NONE', *, *, #297, .F. ) ;
#321 = VECTOR ( 'NONE', #270, 39.37007874015748143 ) ;
#322 = APPROVAL_PERSON_ORGANIZATION ( #309, #91, #135 ) ;
#323 = EDGE_CURVE ( 'NONE', #30, #187, #161, .T. ) ;
#324 = DATE_TIME_ROLE ( 'creation_date' ) ;
#325 = CARTESIAN_POINT ( 'NONE',  ( 4.175405657340879278E-46, -5.961372681521788801E-32, -1.707404996040164512E-17 ) ) ;
#326 = DIMENSIONAL_EXPONENTS ( 1.000000000000000000, 0.000000000000000000, 0.000000000000000000, 0.000000000000000000, 0.000000000000000000, 0.000000000000000000, 0.000000000000000000 ) ;
#327 = VERTEX_POINT ( 'NONE', #15 ) ;
#328 = PLANE ( 'NONE',  #3 ) ;
#329 = DIRECTION ( 'NONE',  ( -2.445468806185136597E-29, 3.491481338843145583E-15, 1.000000000000000000 ) ) ;
#330 = FACE_OUTER_BOUND ( 'NONE', #202, .T. ) ;
#331 = DIRECTION ( 'NONE',  ( 1.000000000000000000, -6.982962677686262766E-15, 0.000000000000000000 ) ) ;
#332 = DIRECTION ( 'NONE',  ( -1.000000000000000000, 6.982962677686265922E-15, -4.876176775795935793E-29 ) ) ;
#333 = LENGTH_MEASURE_WITH_UNIT ( LENGTH_MEASURE( 0.02539999999999999897 ), #176 );
#334 = DIRECTION ( 'NONE',  ( -2.445468806185136597E-29, 3.491481338843145583E-15, 1.000000000000000000 ) ) ;
#335 = PERSON_AND_ORGANIZATION ( #36, #268 ) ;
#336 = EDGE_CURVE ( 'NONE', #33, #187, #236, .T. ) ;
#337 = DIRECTION ( 'NONE',  ( 1.000000000000000000, -6.982962677686262766E-15, 0.000000000000000000 ) ) ;
#338 = ORIENTED_EDGE ( 'NONE', *, *, #351, .T. ) ;
#339 = CARTESIAN_POINT ( 'NONE',  ( 0.1250000000000000000, -8.728703347107833388E-16, 6.095220969744919741E-30 ) ) ;
#340 = ORIENTED_EDGE ( 'NONE', *, *, #319, .F. ) ;
#341 = CIRCLE ( 'NONE', #277, 0.1250000000000000000 ) ;
#342 = DIRECTION ( 'NONE',  ( 0.7071067811866199593, -2.468850131083015945E-15, 0.7071067811864750752 ) ) ;
#343 = ADVANCED_FACE ( 'NONE', ( #218 ), #350, .T. ) ;
#344 = ORIENTED_EDGE ( 'NONE', *, *, #100, .F. ) ;
#345 = DIRECTION ( 'NONE',  ( -1.000000000000000000, 6.982962677686266711E-15, 0.000000000000000000 ) ) ;
#346 = PLANE ( 'NONE',  #79 ) ;
#347 = ORIENTED_EDGE ( 'NONE', *, *, #160, .T. ) ;
#348 = AXIS2_PLACEMENT_3D ( 'NONE', #357, #301, #273 ) ;
#349 = AXIS2_PLACEMENT_3D ( 'NONE', #288, #154, #45 ) ;
#350 = CYLINDRICAL_SURFACE ( 'NONE', #21, 0.1250000000000000000 ) ;
#351 = EDGE_CURVE ( 'NONE', #187, #30, #341, .T. ) ;
#352 = ADVANCED_BREP_SHAPE_REPRESENTATION ( '72957', ( #280, #165, #349 ), #283 ) ;
#353 = CARTESIAN_POINT ( 'NONE',  ( -0.1250000000000000000, 8.881784197001252323E-16, -6.148668862818632227E-30 ) ) ;
#354 = DIRECTION ( 'NONE',  ( 1.000000000000000000, -6.982962677686262766E-15, 0.000000000000000000 ) ) ;
#355 = CARTESIAN_POINT ( 'NONE',  ( 4.890937612370284544E-31, -6.982962677686307633E-17, -0.02000000000000004552 ) ) ;
#356 = DATE_AND_TIME ( #10, #234 ) ;
#357 = CARTESIAN_POINT ( 'NONE',  ( 0.000000000000000000, 0.000000000000000000, 0.000000000000000000 ) ) ;
#358 = AXIS2_PLACEMENT_3D ( 'NONE', #265, #11, #122 ) ;
#359 = FACE_OUTER_BOUND ( 'NONE', #38, .T. ) ;
#360 = AXIS2_PLACEMENT_3D ( 'NONE', #251, #312, #284 ) ;
#361 = DIRECTION ( 'NONE',  ( -1.000000000000000000, 6.982962677686265922E-15, -4.876176775795935793E-29 ) ) ;
#362 = EDGE_CURVE ( 'NONE', #119, #179, #101, .T. ) ;
#363 = LINE ( 'NONE', #339, #250 ) ;
#364 = APPROVAL_DATE_TIME ( #201, #91 ) ;
#365 = ORIENTED_EDGE ( 'NONE', *, *, #144, .F. ) ;
#366 = CARTESIAN_POINT ( 'NONE',  ( 8.728703347108198236E-16, 0.1249999999999947542, -1.500000000000000666 ) ) ;
ENDSEC;
END-ISO-10303-21;
