ISO-10303-21;
HEADER;
FILE_DESCRIPTION (( 'STEP AP203' ),
    '1' );
FILE_NAME ('72965.STEP',
    '2024-02-29T05:29:07',
    ( '' ),
    ( '' ),
    'SwSTEP 2.0',
    'SolidWorks 2023',
    '' );
FILE_SCHEMA (( 'CONFIG_CONTROL_DESIGN' ));
ENDSEC;

DATA;
#1 = CARTESIAN_POINT ( 'NONE',  ( 3.362519608504562260E-29, -4.800786840909324930E-15, -1.375000000000000000 ) ) ;
#2 = AXIS2_PLACEMENT_3D ( 'NONE', #349, #97, #309 ) ;
#3 = ADVANCED_FACE ( 'NONE', ( #40 ), #270, .F. ) ;
#4 = AXIS2_PLACEMENT_3D ( 'NONE', #36, #272, #269 ) ;
#5 = LOCAL_TIME ( 0, 29, 7.000000000000000000, #344 ) ;
#6 = DIRECTION ( 'NONE',  ( -2.445468806185136597E-29, 3.491481338843145583E-15, 1.000000000000000000 ) ) ;
#7 = ORIENTED_EDGE ( 'NONE', *, *, #120, .T. ) ;
#8 = PERSON_AND_ORGANIZATION ( #345, #185 ) ;
#9 = CALENDAR_DATE ( 2024, 29, 2 ) ;
#10 = CC_DESIGN_SECURITY_CLASSIFICATION ( #123, ( #112 ) ) ;
#11 = APPROVAL ( #271, 'UNSPECIFIED' ) ;
#12 = EDGE_LOOP ( 'NONE', ( #42, #303 ) ) ;
#13 = ORIENTED_EDGE ( 'NONE', *, *, #184, .F. ) ;
#14 = AXIS2_PLACEMENT_3D ( 'NONE', #138, #347, #124 ) ;
#15 = ORIENTED_EDGE ( 'NONE', *, *, #301, .T. ) ;
#16 = COORDINATED_UNIVERSAL_TIME_OFFSET ( 5, 0, .BEHIND. ) ;
#17 = ORIENTED_EDGE ( 'NONE', *, *, #184, .T. ) ;
#18 = CIRCLE ( 'NONE', #286, 0.1875000000000000278 ) ;
#19 = EDGE_CURVE ( 'NONE', #188, #220, #51, .T. ) ;
#20 = DIRECTION ( 'NONE',  ( -2.445468806185136597E-29, 3.491481338843145583E-15, 1.000000000000000000 ) ) ;
#21 = PLANE ( 'NONE',  #58 ) ;
#22 = ADVANCED_FACE ( 'NONE', ( #226 ), #30, .T. ) ;
#23 = CARTESIAN_POINT ( 'NONE',  ( -0.1874999999999999445, 1.332267629550187454E-15, -9.223003294227945188E-30 ) ) ;
#24 = AXIS2_PLACEMENT_3D ( 'NONE', #229, #204, #255 ) ;
#25 = ORIENTED_EDGE ( 'NONE', *, *, #338, .F. ) ;
#26 = DIRECTION ( 'NONE',  ( -1.000000000000000000, 6.982962677686265922E-15, -4.876176775795935793E-29 ) ) ;
#27 = CARTESIAN_POINT ( 'NONE',  ( 0.000000000000000000, 0.000000000000000000, 0.000000000000000000 ) ) ;
#28 = CARTESIAN_POINT ( 'NONE',  ( -0.1864999999999999714, -3.475624638716738484E-15, -1.375000000000000000 ) ) ;
#29 = DIRECTION ( 'NONE',  ( -2.445468806185136597E-29, 3.491481338843145583E-15, 1.000000000000000000 ) ) ;
#30 = CONICAL_SURFACE ( 'NONE', #253, 0.1874999999999998890, 0.7853981633974471688 ) ;
#31 = VECTOR ( 'NONE', #126, 39.37007874015748143 ) ;
#32 = CYLINDRICAL_SURFACE ( 'NONE', #156, 0.1875000000000000278 ) ;
#33 = ORIENTED_EDGE ( 'NONE', *, *, #174, .F. ) ;
#34 = EDGE_CURVE ( 'NONE', #188, #327, #73, .T. ) ;
#35 = PERSON_AND_ORGANIZATION ( #345, #185 ) ;
#36 = CARTESIAN_POINT ( 'NONE',  ( 6.113672015462842613E-29, -8.728703347107864943E-15, -2.500000000000000000 ) ) ;
#37 = ORIENTED_EDGE ( 'NONE', *, *, #278, .T. ) ;
#38 = CIRCLE ( 'NONE', #149, 0.1875000000000000278 ) ;
#39 = LOCAL_TIME ( 0, 29, 7.000000000000000000, #16 ) ;
#40 = FACE_OUTER_BOUND ( 'NONE', #323, .T. ) ;
#41 = EDGE_LOOP ( 'NONE', ( #294, #346 ) ) ;
#42 = ORIENTED_EDGE ( 'NONE', *, *, #225, .T. ) ;
#43 = DATE_TIME_ROLE ( 'classification_date' ) ;
#44 = PRODUCT_DEFINITION ( 'UNKNOWN', '', #112, #98 ) ;
#45 = DATE_AND_TIME ( #239, #254 ) ;
#46 = DIRECTION ( 'NONE',  ( -1.000000000000000000, 6.982962677686265922E-15, -4.876176775795935793E-29 ) ) ;
#47 = CARTESIAN_POINT ( 'NONE',  ( 4.890937612370283668E-31, -6.982962677686305168E-17, -0.02000000000000004205 ) ) ;
#48 = SHAPE_DEFINITION_REPRESENTATION ( #117, #137 ) ;
#49 = ADVANCED_FACE ( 'NONE', ( #223 ), #279, .T. ) ;
#50 = CARTESIAN_POINT ( 'NONE',  ( -0.1875000000000000278, -5.432477464458407482E-15, -2.500000000000000000 ) ) ;
#51 = CIRCLE ( 'NONE', #310, 0.1875000000000000278 ) ;
#52 = CARTESIAN_POINT ( 'NONE',  ( 3.360074139698377778E-29, -4.797295359570481134E-15, -1.373999999999999888 ) ) ;
#53 = CARTESIAN_POINT ( 'NONE',  ( 0.1864999999999999714, -6.103109380297813924E-15, -1.375000000000000000 ) ) ;
#54 = DIRECTION ( 'NONE',  ( 1.000000000000000000, -6.982962677686265922E-15, 4.876176775795935793E-29 ) ) ;
#55 = COORDINATED_UNIVERSAL_TIME_OFFSET ( 5, 0, .BEHIND. ) ;
#56 = DIRECTION ( 'NONE',  ( -1.000000000000000000, 6.982962677686265922E-15, -4.876176775795935793E-29 ) ) ;
#57 = DIRECTION ( 'NONE',  ( -2.445468806185136597E-29, 3.491481338843145583E-15, 1.000000000000000000 ) ) ;
#58 = AXIS2_PLACEMENT_3D ( 'NONE', #361, #233, #56 ) ;
#59 = CARTESIAN_POINT ( 'NONE',  ( 0.000000000000000000, 0.000000000000000000, 0.000000000000000000 ) ) ;
#60 = CARTESIAN_POINT ( 'NONE',  ( -0.1875000000000000278, -1.101294863623483184E-15, -1.373999999999999888 ) ) ;
#61 = APPROVAL_ROLE ( '' ) ;
#62 = AXIS2_PLACEMENT_3D ( 'NONE', #311, #321, #83 ) ;
#63 = PERSON_AND_ORGANIZATION_ROLE ( 'creator' ) ;
#64 = CARTESIAN_POINT ( 'NONE',  ( 0.1875000000000000278, -1.003800884917403995E-14, -2.500000000000000000 ) ) ;
#65 = VERTEX_POINT ( 'NONE', #108 ) ;
#66 = MANIFOLD_SOLID_BREP ( 'Body-Move/Copy2[2]', #298 ) ;
#67 = ORIENTED_EDGE ( 'NONE', *, *, #316, .T. ) ;
#68 = ORIENTED_EDGE ( 'NONE', *, *, #151, .T. ) ;
#69 = EDGE_LOOP ( 'NONE', ( #189, #133, #329, #81 ) ) ;
#70 = CIRCLE ( 'NONE', #282, 0.1864999999999999714 ) ;
#71 = VERTEX_POINT ( 'NONE', #50 ) ;
#72 = EDGE_LOOP ( 'NONE', ( #33, #297, #195, #199 ) ) ;
#73 = LINE ( 'NONE', #359, #351 ) ;
#74 = VERTEX_POINT ( 'NONE', #281 ) ;
#75 = AXIS2_PLACEMENT_3D ( 'NONE', #290, #29, #148 ) ;
#76 = ORIENTED_EDGE ( 'NONE', *, *, #242, .F. ) ;
#77 = APPROVAL_STATUS ( 'not_yet_approved' ) ;
#78 = CC_DESIGN_DATE_AND_TIME_ASSIGNMENT ( #235, #335, ( #44 ) ) ;
#79 = EDGE_LOOP ( 'NONE', ( #7, #164, #252, #132 ) ) ;
#80 = CONICAL_SURFACE ( 'NONE', #322, 0.1874999999999998890, 0.7853981633974471688 ) ;
#81 = ORIENTED_EDGE ( 'NONE', *, *, #34, .F. ) ;
#82 = APPROVAL_DATE_TIME ( #340, #328 ) ;
#83 = DIRECTION ( 'NONE',  ( 1.000000000000000000, -6.982962677686269077E-15, 0.000000000000000000 ) ) ;
#84 = CARTESIAN_POINT ( 'NONE',  ( 0.1874999999999998890, -1.356173001359024480E-15, -0.02000000000000004205 ) ) ;
#85 = LINE ( 'NONE', #288, #172 ) ;
#86 = CARTESIAN_POINT ( 'NONE',  ( -0.1875000000000000278, 1.332267629550188046E-15, -9.223003294227947991E-30 ) ) ;
#87 = CIRCLE ( 'NONE', #224, 0.1875000000000000278 ) ;
#88 = PERSON_AND_ORGANIZATION ( #345, #185 ) ;
#89 = EDGE_CURVE ( 'NONE', #217, #159, #135, .T. ) ;
#90 = DIRECTION ( 'NONE',  ( 1.000000000000000000, -6.982962677686266711E-15, 0.000000000000000000 ) ) ;
#91 = DIRECTION ( 'NONE',  ( 1.000000000000000000, -6.982962677686269077E-15, 0.000000000000000000 ) ) ;
#92 = CALENDAR_DATE ( 2024, 29, 2 ) ;
#93 = SECURITY_CLASSIFICATION_LEVEL ( 'unclassified' ) ;
#94 = ADVANCED_FACE ( 'NONE', ( #166 ), #96, .T. ) ;
#95 = ORIENTED_EDGE ( 'NONE', *, *, #89, .F. ) ;
#96 = CONICAL_SURFACE ( 'NONE', #62, 0.1864999999999999714, 0.7853981633974311816 ) ;
#97 = DIRECTION ( 'NONE',  ( -2.438088387897960049E-29, 3.491481338843145188E-15, 1.000000000000000000 ) ) ;
#98 = DESIGN_CONTEXT ( 'detailed design', #104, 'design' ) ;
#99 = APPLICATION_PROTOCOL_DEFINITION ( 'international standard', 'config_control_design', 1994, #194 ) ;
#100 = ORIENTED_EDGE ( 'NONE', *, *, #278, .F. ) ;
#101 = DIRECTION ( 'NONE',  ( 2.438088387897960049E-29, -3.491481338843145188E-15, -1.000000000000000000 ) ) ;
#102 =( NAMED_UNIT ( * ) SI_UNIT ( $, .STERADIAN. ) SOLID_ANGLE_UNIT ( ) );
#103 = CIRCLE ( 'NONE', #202, 0.1864999999999999714 ) ;
#104 = APPLICATION_CONTEXT ( 'configuration controlled 3d designs of mechanical parts and assemblies' ) ;
#105 = DIRECTION ( 'NONE',  ( -2.445468806185136877E-29, 3.491481338843145188E-15, 1.000000000000000000 ) ) ;
#106 = EDGE_CURVE ( 'NONE', #220, #188, #87, .T. ) ;
#107 = CIRCLE ( 'NONE', #207, 0.1874999999999998890 ) ;
#108 = CARTESIAN_POINT ( 'NONE',  ( 0.1674999999999998990, -1.252653207992877500E-15, 8.469775550109235181E-30 ) ) ;
#109 = CALENDAR_DATE ( 2024, 29, 2 ) ;
#110 = DIRECTION ( 'NONE',  ( -2.445468806185136597E-29, 3.491481338843145583E-15, 1.000000000000000000 ) ) ;
#111 = APPROVAL_PERSON_ORGANIZATION ( #35, #328, #61 ) ;
#112 = PRODUCT_DEFINITION_FORMATION_WITH_SPECIFIED_SOURCE ( 'ANY', '', #177, .NOT_KNOWN. ) ;
#113 = DIRECTION ( 'NONE',  ( 1.000000000000000000, -6.982962677686265922E-15, 0.000000000000000000 ) ) ;
#114 = PERSON_AND_ORGANIZATION_ROLE ( 'creator' ) ;
#115 = ADVANCED_FACE ( 'NONE', ( #334 ), #21, .F. ) ;
#116 = PERSON_AND_ORGANIZATION_ROLE ( 'design_supplier' ) ;
#117 = PRODUCT_DEFINITION_SHAPE ( 'NONE', 'NONE',  #44 ) ;
#118 = COORDINATED_UNIVERSAL_TIME_OFFSET ( 5, 0, .BEHIND. ) ;
#119 = CARTESIAN_POINT ( 'NONE',  ( 4.890937612370283668E-31, -6.982962677686305168E-17, -0.02000000000000004205 ) ) ;
#120 = EDGE_CURVE ( 'NONE', #325, #71, #38, .T. ) ;
#121 = FACE_OUTER_BOUND ( 'NONE', #332, .T. ) ;
#122 = AXIS2_PLACEMENT_3D ( 'NONE', #245, #101, #46 ) ;
#123 = SECURITY_CLASSIFICATION ( '', '', #93 ) ;
#124 = DIRECTION ( 'NONE',  ( 1.000000000000000000, 0.000000000000000000, 0.000000000000000000 ) ) ;
#125 = DIRECTION ( 'NONE',  ( -2.445468806185136877E-29, 3.491481338843145188E-15, 1.000000000000000000 ) ) ;
#126 = DIRECTION ( 'NONE',  ( -2.445468806185136877E-29, 3.491481338843145188E-15, 1.000000000000000000 ) ) ;
#127 = ADVANCED_FACE ( 'NONE', ( #243 ), #284, .T. ) ;
#128 = ORIENTED_EDGE ( 'NONE', *, *, #338, .T. ) ;
#129 = VECTOR ( 'NONE', #131, 39.37007874015748143 ) ;
#130 = APPROVAL_DATE_TIME ( #251, #11 ) ;
#131 = DIRECTION ( 'NONE',  ( -0.7071067811865466846, 2.468850131082247989E-15, -0.7071067811865483499 ) ) ;
#132 = ORIENTED_EDGE ( 'NONE', *, *, #139, .F. ) ;
#133 = ORIENTED_EDGE ( 'NONE', *, *, #174, .T. ) ;
#134 = ORIENTED_EDGE ( 'NONE', *, *, #190, .F. ) ;
#135 = CIRCLE ( 'NONE', #262, 0.1875000000000000278 ) ;
#136 = VECTOR ( 'NONE', #216, 39.37007874015748854 ) ;
#137 = ADVANCED_BREP_SHAPE_REPRESENTATION ( '72965', ( #320, #66, #14 ), #179 ) ;
#138 = CARTESIAN_POINT ( 'NONE',  ( 0.000000000000000000, 0.000000000000000000, 0.000000000000000000 ) ) ;
#139 = EDGE_CURVE ( 'NONE', #325, #159, #85, .T. ) ;
#140 = DIRECTION ( 'NONE',  ( -2.445468806185136597E-29, 3.491481338843145583E-15, 1.000000000000000000 ) ) ;
#141 = LENGTH_MEASURE_WITH_UNIT ( LENGTH_MEASURE( 0.02539999999999999897 ), #258 );
#142 = CLOSED_SHELL ( 'NONE', ( #49, #248, #201, #307 ) ) ;
#143 = AXIS2_PLACEMENT_3D ( 'NONE', #287, #264, #26 ) ;
#144 = CARTESIAN_POINT ( 'NONE',  ( 3.362519608504562260E-29, -4.800786840909324930E-15, -1.375000000000000000 ) ) ;
#145 = DIRECTION ( 'NONE',  ( -1.000000000000000000, 6.982962677686265922E-15, 0.000000000000000000 ) ) ;
#146 = DIRECTION ( 'NONE',  ( 1.000000000000000000, -6.982962677686265922E-15, 4.876176775795935793E-29 ) ) ;
#147 = EDGE_LOOP ( 'NONE', ( #250, #15, #231, #95 ) ) ;
#148 = DIRECTION ( 'NONE',  ( 1.000000000000000000, -6.982962677686266711E-15, 4.876176775795935793E-29 ) ) ;
#149 = AXIS2_PLACEMENT_3D ( 'NONE', #205, #339, #337 ) ;
#150 = CARTESIAN_POINT ( 'NONE',  ( 4.890937612370283668E-31, -6.982962677686305168E-17, -0.02000000000000004205 ) ) ;
#151 = EDGE_CURVE ( 'NONE', #65, #327, #176, .T. ) ;
#152 = FACE_OUTER_BOUND ( 'NONE', #305, .T. ) ;
#153 = DIRECTION ( 'NONE',  ( -0.7071067811865353603, 7.493145998870309984E-15, 0.7071067811865595631 ) ) ;
#154 = FACE_OUTER_BOUND ( 'NONE', #147, .T. ) ;
#155 = CARTESIAN_POINT ( 'NONE',  ( -0.1874999999999998890, 1.239475875289310921E-15, -0.02000000000000004205 ) ) ;
#156 = AXIS2_PLACEMENT_3D ( 'NONE', #213, #291, #186 ) ;
#157 = CARTESIAN_POINT ( 'NONE',  ( 3.362519608504562260E-29, -4.800786840909324930E-15, -1.375000000000000000 ) ) ;
#158 = CARTESIAN_POINT ( 'NONE',  ( 3.362519608504562260E-29, -4.800786840909324930E-15, -1.375000000000000000 ) ) ;
#159 = VERTEX_POINT ( 'NONE', #208 ) ;
#160 = ORIENTED_EDGE ( 'NONE', *, *, #106, .F. ) ;
#161 = ORIENTED_EDGE ( 'NONE', *, *, #242, .T. ) ;
#162 = VECTOR ( 'NONE', #153, 39.37007874015748854 ) ;
#163 = ORIENTED_EDGE ( 'NONE', *, *, #190, .T. ) ;
#164 = ORIENTED_EDGE ( 'NONE', *, *, #358, .T. ) ;
#165 = PERSON_AND_ORGANIZATION ( #345, #185 ) ;
#166 = FACE_OUTER_BOUND ( 'NONE', #350, .T. ) ;
#167 = VERTEX_POINT ( 'NONE', #206 ) ;
#168 = DIRECTION ( 'NONE',  ( 2.445468806185136597E-29, -3.491481338843145583E-15, -1.000000000000000000 ) ) ;
#169 = ORIENTED_EDGE ( 'NONE', *, *, #364, .T. ) ;
#170 = DATE_AND_TIME ( #109, #39 ) ;
#171 = DIRECTION ( 'NONE',  ( 1.000000000000000000, -6.982962677686269077E-15, 0.000000000000000000 ) ) ;
#172 = VECTOR ( 'NONE', #313, 39.37007874015748143 ) ;
#173 = DIRECTION ( 'NONE',  ( 1.000000000000000000, -6.982962677686266711E-15, 0.000000000000000000 ) ) ;
#174 = EDGE_CURVE ( 'NONE', #220, #300, #318, .T. ) ;
#175 = FACE_OUTER_BOUND ( 'NONE', #12, .T. ) ;
#176 = LINE ( 'NONE', #84, #304 ) ;
#177 = PRODUCT ( '72965', '72965', '', ( #237 ) ) ;
#178 = EDGE_CURVE ( 'NONE', #327, #300, #107, .T. ) ;
#179 =( GEOMETRIC_REPRESENTATION_CONTEXT ( 3 ) GLOBAL_UNCERTAINTY_ASSIGNED_CONTEXT ( ( #183 ) ) GLOBAL_UNIT_ASSIGNED_CONTEXT ( ( #283, #333, #102 ) ) REPRESENTATION_CONTEXT ( 'NONE', 'WORKASPACE' ) );
#180 = PLANE ( 'NONE',  #143 ) ;
#181 = CARTESIAN_POINT ( 'NONE',  ( 0.1875000000000000278, -6.106600861636656931E-15, -1.373999999999999888 ) ) ;
#182 = DIRECTION ( 'NONE',  ( 0.7071067811865466846, -7.319954787623252890E-15, -0.7071067811865483499 ) ) ;
#183 = UNCERTAINTY_MEASURE_WITH_UNIT (LENGTH_MEASURE( 1.000000000000000082E-05 ), #283, 'distance_accuracy_value', 'NONE');
#184 = EDGE_CURVE ( 'NONE', #65, #167, #198, .T. ) ;
#185 = ORGANIZATION ( 'UNSPECIFIED', 'UNSPECIFIED', '' ) ;
#186 = DIRECTION ( 'NONE',  ( 1.000000000000000000, -6.982962677686265922E-15, 4.876176775795935793E-29 ) ) ;
#187 = LINE ( 'NONE', #86, #31 ) ;
#188 = VERTEX_POINT ( 'NONE', #181 ) ;
#189 = ORIENTED_EDGE ( 'NONE', *, *, #19, .T. ) ;
#190 = EDGE_CURVE ( 'NONE', #74, #220, #314, .T. ) ;
#191 = ORIENTED_EDGE ( 'NONE', *, *, #364, .F. ) ;
#192 = AXIS2_PLACEMENT_3D ( 'NONE', #150, #263, #365 ) ;
#193 = EDGE_LOOP ( 'NONE', ( #37, #17 ) ) ;
#194 = APPLICATION_CONTEXT ( 'configuration controlled 3d designs of mechanical parts and assemblies' ) ;
#195 = ORIENTED_EDGE ( 'NONE', *, *, #34, .T. ) ;
#196 = EDGE_CURVE ( 'NONE', #300, #327, #299, .T. ) ;
#197 = EDGE_LOOP ( 'NONE', ( #13, #68, #343, #312 ) ) ;
#198 = CIRCLE ( 'NONE', #256, 0.1674999999999998990 ) ;
#199 = ORIENTED_EDGE ( 'NONE', *, *, #196, .F. ) ;
#200 = PERSON_AND_ORGANIZATION_ROLE ( 'design_owner' ) ;
#201 = ADVANCED_FACE ( 'NONE', ( #175 ), #180, .F. ) ;
#202 = AXIS2_PLACEMENT_3D ( 'NONE', #158, #348, #296 ) ;
#203 = VECTOR ( 'NONE', #125, 39.37007874015748143 ) ;
#204 = DIRECTION ( 'NONE',  ( -2.445468806185136597E-29, 3.491481338843145583E-15, 1.000000000000000000 ) ) ;
#205 = CARTESIAN_POINT ( 'NONE',  ( 6.113672015462842613E-29, -8.728703347107864943E-15, -2.500000000000000000 ) ) ;
#206 = CARTESIAN_POINT ( 'NONE',  ( -0.1674999999999998990, 1.204561061900879864E-15, -8.301862719484106184E-30 ) ) ;
#207 = AXIS2_PLACEMENT_3D ( 'NONE', #366, #260, #113 ) ;
#208 = CARTESIAN_POINT ( 'NONE',  ( 0.1875000000000000278, -6.110092342975500727E-15, -1.375000000000000000 ) ) ;
#209 = DIRECTION ( 'NONE',  ( 1.000000000000000000, -6.982962677686266711E-15, 0.000000000000000000 ) ) ;
#210 = CARTESIAN_POINT ( 'NONE',  ( 0.1874999999999998890, -1.356173001359024480E-15, -0.02000000000000004205 ) ) ;
#211 = CALENDAR_DATE ( 2024, 29, 2 ) ;
#212 = CC_DESIGN_APPROVAL ( #328, ( #44 ) ) ;
#213 = CARTESIAN_POINT ( 'NONE',  ( 0.000000000000000000, 0.000000000000000000, 0.000000000000000000 ) ) ;
#214 = APPROVAL_PERSON_ORGANIZATION ( #232, #230, #277 ) ;
#215 = CARTESIAN_POINT ( 'NONE',  ( 3.362519608504562260E-29, -4.800786840909324930E-15, -1.375000000000000000 ) ) ;
#216 = DIRECTION ( 'NONE',  ( 0.7071067811865353603, -2.468850131082130054E-15, 0.7071067811865595631 ) ) ;
#217 = VERTEX_POINT ( 'NONE', #267 ) ;
#218 = ADVANCED_FACE ( 'NONE', ( #152 ), #80, .T. ) ;
#219 = APPROVAL_ROLE ( '' ) ;
#220 = VERTEX_POINT ( 'NONE', #60 ) ;
#221 = LOCAL_TIME ( 0, 29, 7.000000000000000000, #266 ) ;
#222 = ADVANCED_FACE ( 'NONE', ( #121 ), #274, .T. ) ;
#223 = FACE_OUTER_BOUND ( 'NONE', #79, .T. ) ;
#224 = AXIS2_PLACEMENT_3D ( 'NONE', #238, #57, #209 ) ;
#225 = EDGE_CURVE ( 'NONE', #159, #217, #18, .T. ) ;
#226 = FACE_OUTER_BOUND ( 'NONE', #197, .T. ) ;
#227 = FACE_OUTER_BOUND ( 'NONE', #72, .T. ) ;
#228 = DIRECTION ( 'NONE',  ( 1.000000000000000000, -6.982962677686266711E-15, 4.876176775795935793E-29 ) ) ;
#229 = CARTESIAN_POINT ( 'NONE',  ( 0.000000000000000000, 0.000000000000000000, 0.000000000000000000 ) ) ;
#230 = APPROVAL ( #77, 'UNSPECIFIED' ) ;
#231 = ORIENTED_EDGE ( 'NONE', *, *, #139, .T. ) ;
#232 = PERSON_AND_ORGANIZATION ( #345, #185 ) ;
#233 = DIRECTION ( 'NONE',  ( 2.438088387897960049E-29, -3.491481338843145188E-15, -1.000000000000000000 ) ) ;
#234 = CC_DESIGN_DATE_AND_TIME_ASSIGNMENT ( #45, #43, ( #123 ) ) ;
#235 = DATE_AND_TIME ( #211, #221 ) ;
#236 = PERSON_AND_ORGANIZATION ( #345, #185 ) ;
#237 = MECHANICAL_CONTEXT ( 'NONE', #194, 'mechanical' ) ;
#238 = CARTESIAN_POINT ( 'NONE',  ( 3.360074139698377778E-29, -4.797295359570481134E-15, -1.373999999999999888 ) ) ;
#239 = CALENDAR_DATE ( 2024, 29, 2 ) ;
#240 = DIRECTION ( 'NONE',  ( 2.445468806185136597E-29, -3.491481338843145583E-15, -1.000000000000000000 ) ) ;
#241 = DIRECTION ( 'NONE',  ( -1.000000000000000000, 6.982962677686265922E-15, 0.000000000000000000 ) ) ;
#242 = EDGE_CURVE ( 'NONE', #261, #74, #70, .T. ) ;
#243 = FACE_OUTER_BOUND ( 'NONE', #69, .T. ) ;
#244 = DIMENSIONAL_EXPONENTS ( 1.000000000000000000, 0.000000000000000000, 0.000000000000000000, 0.000000000000000000, 0.000000000000000000, 0.000000000000000000, 0.000000000000000000 ) ;
#245 = CARTESIAN_POINT ( 'NONE',  ( 1.309305502066236145E-15, 0.1874999999999912847, -2.500000000000000444 ) ) ;
#246 = PRODUCT_RELATED_PRODUCT_CATEGORY ( 'detail', '', ( #177 ) ) ;
#247 = AXIS2_PLACEMENT_3D ( 'NONE', #27, #20, #146 ) ;
#248 = ADVANCED_FACE ( 'NONE', ( #302 ), #363, .T. ) ;
#249 = CARTESIAN_POINT ( 'NONE',  ( 0.000000000000000000, 0.000000000000000000, 0.000000000000000000 ) ) ;
#250 = ORIENTED_EDGE ( 'NONE', *, *, #358, .F. ) ;
#251 = DATE_AND_TIME ( #9, #5 ) ;
#252 = ORIENTED_EDGE ( 'NONE', *, *, #225, .F. ) ;
#253 = AXIS2_PLACEMENT_3D ( 'NONE', #47, #168, #145 ) ;
#254 = LOCAL_TIME ( 0, 29, 7.000000000000000000, #118 ) ;
#255 = DIRECTION ( 'NONE',  ( 1.000000000000000000, -6.982962677686265922E-15, 4.876176775795935793E-29 ) ) ;
#256 = AXIS2_PLACEMENT_3D ( 'NONE', #59, #6, #54 ) ;
#257 = DIRECTION ( 'NONE',  ( -2.445468806185136597E-29, 3.491481338843145583E-15, 1.000000000000000000 ) ) ;
#258 =( LENGTH_UNIT ( ) NAMED_UNIT ( * ) SI_UNIT ( $, .METRE. ) );
#259 = ADVANCED_FACE ( 'NONE', ( #227 ), #289, .T. ) ;
#260 = DIRECTION ( 'NONE',  ( -2.445468806185136597E-29, 3.491481338843145583E-15, 1.000000000000000000 ) ) ;
#261 = VERTEX_POINT ( 'NONE', #53 ) ;
#262 = AXIS2_PLACEMENT_3D ( 'NONE', #144, #257, #331 ) ;
#263 = DIRECTION ( 'NONE',  ( -2.445468806185136597E-29, 3.491481338843145583E-15, 1.000000000000000000 ) ) ;
#264 = DIRECTION ( 'NONE',  ( 2.438088387897960049E-29, -3.491481338843145188E-15, -1.000000000000000000 ) ) ;
#265 = LINE ( 'NONE', #155, #129 ) ;
#266 = COORDINATED_UNIVERSAL_TIME_OFFSET ( 5, 0, .BEHIND. ) ;
#267 = CARTESIAN_POINT ( 'NONE',  ( -0.1875000000000000278, -5.432477464458407482E-15, -1.375000000000000000 ) ) ;
#268 = LINE ( 'NONE', #293, #136 ) ;
#269 = DIRECTION ( 'NONE',  ( 1.000000000000000000, -6.982962677686266711E-15, 0.000000000000000000 ) ) ;
#270 = PLANE ( 'NONE',  #2 ) ;
#271 = APPROVAL_STATUS ( 'not_yet_approved' ) ;
#272 = DIRECTION ( 'NONE',  ( -2.445468806185136597E-29, 3.491481338843145583E-15, 1.000000000000000000 ) ) ;
#273 = PERSON_AND_ORGANIZATION ( #345, #185 ) ;
#274 = CONICAL_SURFACE ( 'NONE', #352, 0.1864999999999999714, 0.7853981633974311816 ) ;
#275 = APPROVAL_PERSON_ORGANIZATION ( #273, #11, #219 ) ;
#276 = ORIENTED_EDGE ( 'NONE', *, *, #19, .F. ) ;
#277 = APPROVAL_ROLE ( '' ) ;
#278 = EDGE_CURVE ( 'NONE', #167, #65, #315, .T. ) ;
#279 = CYLINDRICAL_SURFACE ( 'NONE', #24, 0.1875000000000000278 ) ;
#280 = CC_DESIGN_PERSON_AND_ORGANIZATION_ASSIGNMENT ( #88, #114, ( #44 ) ) ;
#281 = CARTESIAN_POINT ( 'NONE',  ( -0.1864999999999999714, -3.470326184368516082E-15, -1.375000000000000000 ) ) ;
#282 = AXIS2_PLACEMENT_3D ( 'NONE', #215, #355, #171 ) ;
#283 =( CONVERSION_BASED_UNIT ( 'INCH', #141 ) LENGTH_UNIT ( ) NAMED_UNIT ( #244 ) );
#284 = CYLINDRICAL_SURFACE ( 'NONE', #75, 0.1874999999999999445 ) ;
#285 = CC_DESIGN_PERSON_AND_ORGANIZATION_ASSIGNMENT ( #165, #63, ( #112 ) ) ;
#286 = AXIS2_PLACEMENT_3D ( 'NONE', #157, #330, #90 ) ;
#287 = CARTESIAN_POINT ( 'NONE',  ( 1.309305502066208732E-15, 0.1874999999999951983, -1.375000000000000444 ) ) ;
#288 = CARTESIAN_POINT ( 'NONE',  ( 0.1875000000000000278, -1.309305502066175008E-15, 9.142831454617381013E-30 ) ) ;
#289 = CYLINDRICAL_SURFACE ( 'NONE', #353, 0.1874999999999999445 ) ;
#290 = CARTESIAN_POINT ( 'NONE',  ( 0.000000000000000000, 0.000000000000000000, 0.000000000000000000 ) ) ;
#291 = DIRECTION ( 'NONE',  ( -2.445468806185136597E-29, 3.491481338843145583E-15, 1.000000000000000000 ) ) ;
#292 = CC_DESIGN_PERSON_AND_ORGANIZATION_ASSIGNMENT ( #236, #336, ( #123 ) ) ;
#293 = CARTESIAN_POINT ( 'NONE',  ( 0.1864999999999999714, -6.103109380297813924E-15, -1.375000000000000000 ) ) ;
#294 = ORIENTED_EDGE ( 'NONE', *, *, #120, .F. ) ;
#295 = PERSON_AND_ORGANIZATION ( #345, #185 ) ;
#296 = DIRECTION ( 'NONE',  ( 1.000000000000000000, -6.982962677686269077E-15, 0.000000000000000000 ) ) ;
#297 = ORIENTED_EDGE ( 'NONE', *, *, #106, .T. ) ;
#298 = CLOSED_SHELL ( 'NONE', ( #222, #127, #22, #218, #259, #94, #3, #115 ) ) ;
#299 = CIRCLE ( 'NONE', #192, 0.1874999999999998890 ) ;
#300 = VERTEX_POINT ( 'NONE', #360 ) ;
#301 = EDGE_CURVE ( 'NONE', #71, #325, #326, .T. ) ;
#302 = FACE_OUTER_BOUND ( 'NONE', #41, .T. ) ;
#303 = ORIENTED_EDGE ( 'NONE', *, *, #89, .T. ) ;
#304 = VECTOR ( 'NONE', #182, 39.37007874015748143 ) ;
#305 = EDGE_LOOP ( 'NONE', ( #357, #100, #67, #356 ) ) ;
#306 = APPLICATION_PROTOCOL_DEFINITION ( 'international standard', 'config_control_design', 1994, #104 ) ;
#307 = ADVANCED_FACE ( 'NONE', ( #154 ), #32, .T. ) ;
#308 = APPROVAL_DATE_TIME ( #170, #230 ) ;
#309 = DIRECTION ( 'NONE',  ( 1.000000000000000000, -6.982962677686265922E-15, 4.876176775795935793E-29 ) ) ;
#310 = AXIS2_PLACEMENT_3D ( 'NONE', #52, #140, #173 ) ;
#311 = CARTESIAN_POINT ( 'NONE',  ( 3.362519608504562260E-29, -4.800786840909324930E-15, -1.375000000000000000 ) ) ;
#312 = ORIENTED_EDGE ( 'NONE', *, *, #316, .F. ) ;
#313 = DIRECTION ( 'NONE',  ( -2.445468806185136877E-29, 3.491481338843145188E-15, 1.000000000000000000 ) ) ;
#314 = LINE ( 'NONE', #28, #162 ) ;
#315 = CIRCLE ( 'NONE', #247, 0.1674999999999998990 ) ;
#316 = EDGE_CURVE ( 'NONE', #167, #300, #265, .T. ) ;
#317 = CC_DESIGN_APPROVAL ( #230, ( #123 ) ) ;
#318 = LINE ( 'NONE', #23, #203 ) ;
#319 = CC_DESIGN_PERSON_AND_ORGANIZATION_ASSIGNMENT ( #295, #200, ( #177 ) ) ;
#320 = MANIFOLD_SOLID_BREP ( 'Body-Move/Copy2[1]', #142 ) ;
#321 = DIRECTION ( 'NONE',  ( -2.445468806185136597E-29, 3.491481338843145583E-15, 1.000000000000000000 ) ) ;
#322 = AXIS2_PLACEMENT_3D ( 'NONE', #119, #240, #241 ) ;
#323 = EDGE_LOOP ( 'NONE', ( #76, #25 ) ) ;
#324 = APPROVAL_STATUS ( 'not_yet_approved' ) ;
#325 = VERTEX_POINT ( 'NONE', #64 ) ;
#326 = CIRCLE ( 'NONE', #4, 0.1875000000000000278 ) ;
#327 = VERTEX_POINT ( 'NONE', #210 ) ;
#328 = APPROVAL ( #324, 'UNSPECIFIED' ) ;
#329 = ORIENTED_EDGE ( 'NONE', *, *, #178, .F. ) ;
#330 = DIRECTION ( 'NONE',  ( -2.445468806185136597E-29, 3.491481338843145583E-15, 1.000000000000000000 ) ) ;
#331 = DIRECTION ( 'NONE',  ( 1.000000000000000000, -6.982962677686266711E-15, 0.000000000000000000 ) ) ;
#332 = EDGE_LOOP ( 'NONE', ( #161, #163, #276, #191 ) ) ;
#333 =( NAMED_UNIT ( * ) PLANE_ANGLE_UNIT ( ) SI_UNIT ( $, .RADIAN. ) );
#334 = FACE_OUTER_BOUND ( 'NONE', #193, .T. ) ;
#335 = DATE_TIME_ROLE ( 'creation_date' ) ;
#336 = PERSON_AND_ORGANIZATION_ROLE ( 'classification_officer' ) ;
#337 = DIRECTION ( 'NONE',  ( 1.000000000000000000, -6.982962677686266711E-15, 0.000000000000000000 ) ) ;
#338 = EDGE_CURVE ( 'NONE', #74, #261, #103, .T. ) ;
#339 = DIRECTION ( 'NONE',  ( -2.445468806185136597E-29, 3.491481338843145583E-15, 1.000000000000000000 ) ) ;
#340 = DATE_AND_TIME ( #92, #362 ) ;
#341 = CC_DESIGN_APPROVAL ( #11, ( #112 ) ) ;
#342 = DIRECTION ( 'NONE',  ( -2.445468806185136597E-29, 3.491481338843145583E-15, 1.000000000000000000 ) ) ;
#343 = ORIENTED_EDGE ( 'NONE', *, *, #178, .T. ) ;
#344 = COORDINATED_UNIVERSAL_TIME_OFFSET ( 5, 0, .BEHIND. ) ;
#345 = PERSON ( 'UNSPECIFIED', 'UNSPECIFIED', 'UNSPECIFIED', ('UNSPECIFIED'), ('UNSPECIFIED'), ('UNSPECIFIED') ) ;
#346 = ORIENTED_EDGE ( 'NONE', *, *, #301, .F. ) ;
#347 = DIRECTION ( 'NONE',  ( 0.000000000000000000, 0.000000000000000000, 1.000000000000000000 ) ) ;
#348 = DIRECTION ( 'NONE',  ( -2.445468806185136597E-29, 3.491481338843145583E-15, 1.000000000000000000 ) ) ;
#349 = CARTESIAN_POINT ( 'NONE',  ( 3.362519608504562260E-29, -4.800786840909324930E-15, -1.375000000000000000 ) ) ;
#350 = EDGE_LOOP ( 'NONE', ( #134, #128, #169, #160 ) ) ;
#351 = VECTOR ( 'NONE', #105, 39.37007874015748143 ) ;
#352 = AXIS2_PLACEMENT_3D ( 'NONE', #1, #342, #91 ) ;
#353 = AXIS2_PLACEMENT_3D ( 'NONE', #249, #110, #228 ) ;
#354 = CC_DESIGN_PERSON_AND_ORGANIZATION_ASSIGNMENT ( #8, #116, ( #112 ) ) ;
#355 = DIRECTION ( 'NONE',  ( -2.445468806185136597E-29, 3.491481338843145583E-15, 1.000000000000000000 ) ) ;
#356 = ORIENTED_EDGE ( 'NONE', *, *, #196, .T. ) ;
#357 = ORIENTED_EDGE ( 'NONE', *, *, #151, .F. ) ;
#358 = EDGE_CURVE ( 'NONE', #71, #217, #187, .T. ) ;
#359 = CARTESIAN_POINT ( 'NONE',  ( 0.1874999999999999445, -1.309305502066174614E-15, 9.142831454617376809E-30 ) ) ;
#360 = CARTESIAN_POINT ( 'NONE',  ( -0.1874999999999998890, 1.239475875289310921E-15, -0.02000000000000004205 ) ) ;
#361 = CARTESIAN_POINT ( 'NONE',  ( 1.169646248512448806E-15, 0.1674999999999998990, -5.848231242562264739E-16 ) ) ;
#362 = LOCAL_TIME ( 0, 29, 7.000000000000000000, #55 ) ;
#363 = PLANE ( 'NONE',  #122 ) ;
#364 = EDGE_CURVE ( 'NONE', #261, #188, #268, .T. ) ;
#365 = DIRECTION ( 'NONE',  ( 1.000000000000000000, -6.982962677686265922E-15, 0.000000000000000000 ) ) ;
#366 = CARTESIAN_POINT ( 'NONE',  ( 4.890937612370283668E-31, -6.982962677686305168E-17, -0.02000000000000004205 ) ) ;
ENDSEC;
END-ISO-10303-21;
