ISO-10303-21;
HEADER;
FILE_DESCRIPTION (( 'STEP AP203' ),
    '1' );
FILE_NAME ('74001.STEP',
    '2024-03-04T15:00:54',
    ( '' ),
    ( '' ),
    'SwSTEP 2.0',
    'SolidWorks 2023',
    '' );
FILE_SCHEMA (( 'CONFIG_CONTROL_DESIGN' ));
ENDSEC;

DATA;
#1 = CARTESIAN_POINT ( 'NONE',  ( 3.402250711084771327E-29, -4.857512325560613366E-15, -1.391246824526945147 ) ) ;
#2 = ADVANCED_FACE ( 'NONE', ( #389 ), #193, .T. ) ;
#3 = ORIENTED_EDGE ( 'NONE', *, *, #331, .T. ) ;
#4 = LINE ( 'NONE', #210, #321 ) ;
#5 = AXIS2_PLACEMENT_3D ( 'NONE', #253, #39, #14 ) ;
#6 = VERTEX_POINT ( 'NONE', #83 ) ;
#7 = CARTESIAN_POINT ( 'NONE',  ( -4.253508758618040525E-16, -0.06200000000000531475, -1.391246824526945369 ) ) ;
#8 =( NAMED_UNIT ( * ) SI_UNIT ( $, .STERADIAN. ) SOLID_ANGLE_UNIT ( ) );
#9 = CIRCLE ( 'NONE', #268, 0.06250000000000000000 ) ;
#10 = EDGE_CURVE ( 'NONE', #388, #90, #4, .T. ) ;
#11 = FACE_OUTER_BOUND ( 'NONE', #300, .T. ) ;
#12 = CARTESIAN_POINT ( 'NONE',  ( -4.364351673553620378E-16, -0.06250000000000548173, -1.391746824526945092 ) ) ;
#13 = EDGE_CURVE ( 'NONE', #388, #55, #84, .T. ) ;
#14 = DIRECTION ( 'NONE',  ( -1.000000000000000000, 6.982962677686266711E-15, 0.000000000000000000 ) ) ;
#15 = APPROVAL_DATE_TIME ( #377, #381 ) ;
#16 = DIRECTION ( 'NONE',  ( -6.191037237706779272E-29, -1.872385839611687164E-15, 1.000000000000000000 ) ) ;
#17 = AXIS2_PLACEMENT_3D ( 'NONE', #170, #262, #232 ) ;
#18 = APPROVAL_ROLE ( '' ) ;
#19 = DIRECTION ( 'NONE',  ( -6.191037237706779272E-29, -1.872385839611687164E-15, 1.000000000000000000 ) ) ;
#20 = COORDINATED_UNIVERSAL_TIME_OFFSET ( 5, 0, .BEHIND. ) ;
#21 = DIRECTION ( 'NONE',  ( 1.000000000000000000, -6.982962677686259611E-15, 0.000000000000000000 ) ) ;
#22 = DIRECTION ( 'NONE',  ( 3.552713678800143970E-15, 0.4999999999999557576, 0.8660254037844640207 ) ) ;
#23 = DIRECTION ( 'NONE',  ( 0.7071067811861189156, -2.468850131077767259E-15, 0.7071067811869761188 ) ) ;
#24 = EDGE_LOOP ( 'NONE', ( #111, #296 ) ) ;
#25 = ORIENTED_EDGE ( 'NONE', *, *, #33, .T. ) ;
#26 = ORIENTED_EDGE ( 'NONE', *, *, #44, .T. ) ;
#27 = EDGE_CURVE ( 'NONE', #90, #86, #207, .T. ) ;
#28 = VERTEX_POINT ( 'NONE', #184 ) ;
#29 = EDGE_LOOP ( 'NONE', ( #276, #243, #91, #82 ) ) ;
#30 = ORIENTED_EDGE ( 'NONE', *, *, #168, .F. ) ;
#31 = CARTESIAN_POINT ( 'NONE',  ( 1.871772216193329603E-46, -2.672394653685609529E-32, -7.654042494670960626E-18 ) ) ;
#32 = UNCERTAINTY_MEASURE_WITH_UNIT (LENGTH_MEASURE( 1.000000000000000082E-05 ), #284, 'distance_accuracy_value', 'NONE');
#33 = EDGE_CURVE ( 'NONE', #356, #215, #206, .T. ) ;
#34 = AXIS2_PLACEMENT_3D ( 'NONE', #133, #100, #256 ) ;
#35 =( NAMED_UNIT ( * ) PLANE_ANGLE_UNIT ( ) SI_UNIT ( $, .RADIAN. ) );
#36 = DIRECTION ( 'NONE',  ( -1.000000000000000000, 6.982962677686265922E-15, -4.876176775795935793E-29 ) ) ;
#37 = EDGE_CURVE ( 'NONE', #123, #156, #9, .T. ) ;
#38 = AXIS2_PLACEMENT_3D ( 'NONE', #246, #325, #36 ) ;
#39 = DIRECTION ( 'NONE',  ( 2.445468806185136597E-29, -3.491481338843145583E-15, -1.000000000000000000 ) ) ;
#40 = LOCAL_TIME ( 10, 0, 54.00000000000000000, #194 ) ;
#41 = CARTESIAN_POINT ( 'NONE',  ( -0.06200000000000059630, -4.414326602215237291E-15, -1.391246824526945147 ) ) ;
#42 = ADVANCED_FACE ( 'NONE', ( #157 ), #275, .T. ) ;
#43 = DIRECTION ( 'NONE',  ( 6.982962677686265922E-15, 1.000000000000000000, 0.000000000000000000 ) ) ;
#44 = EDGE_CURVE ( 'NONE', #55, #388, #93, .T. ) ;
#45 = DIRECTION ( 'NONE',  ( 1.000000000000000000, 0.000000000000000000, 0.000000000000000000 ) ) ;
#46 = CIRCLE ( 'NONE', #81, 0.06200000000000045752 ) ;
#47 = CALENDAR_DATE ( 2024, 4, 3 ) ;
#48 = CARTESIAN_POINT ( 'NONE',  ( -4.364351673553615448E-16, -0.06250000000000542622, -1.391746824526945092 ) ) ;
#49 = CARTESIAN_POINT ( 'NONE',  ( 0.06250000000000000000, -5.453693851272985211E-16, -0.03120000000000020673 ) ) ;
#50 = ORIENTED_EDGE ( 'NONE', *, *, #252, .F. ) ;
#51 = VECTOR ( 'NONE', #186, 39.37007874015748143 ) ;
#52 = DIRECTION ( 'NONE',  ( 1.000000000000000000, -6.982962677686266711E-15, 0.000000000000000000 ) ) ;
#53 = DATE_TIME_ROLE ( 'classification_date' ) ;
#54 = ORIENTED_EDGE ( 'NONE', *, *, #331, .F. ) ;
#55 = VERTEX_POINT ( 'NONE', #364 ) ;
#56 = SECURITY_CLASSIFICATION ( '', '', #314 ) ;
#57 = EDGE_LOOP ( 'NONE', ( #271, #363, #203, #30 ) ) ;
#58 = EDGE_LOOP ( 'NONE', ( #330, #304 ) ) ;
#59 = AXIS2_PLACEMENT_3D ( 'NONE', #367, #126, #220 ) ;
#60 = DIRECTION ( 'NONE',  ( 1.000000000000000000, -6.982962677686265922E-15, 0.000000000000000000 ) ) ;
#61 = CC_DESIGN_DATE_AND_TIME_ASSIGNMENT ( #198, #259, ( #297 ) ) ;
#62 = DIRECTION ( 'NONE',  ( -1.000000000000000000, 6.982962677686266711E-15, 0.000000000000000000 ) ) ;
#63 = EDGE_CURVE ( 'NONE', #383, #155, #308, .T. ) ;
#64 = VECTOR ( 'NONE', #23, 39.37007874015748143 ) ;
#65 = DIRECTION ( 'NONE',  ( 6.982962677686265922E-15, 1.000000000000000000, 0.000000000000000000 ) ) ;
#66 = LINE ( 'NONE', #282, #355 ) ;
#67 = EDGE_CURVE ( 'NONE', #28, #119, #332, .T. ) ;
#68 = CARTESIAN_POINT ( 'NONE',  ( 4.329436860165856894E-16, 0.06199999999999560030, -1.391246824526945369 ) ) ;
#69 = CONICAL_SURFACE ( 'NONE', #292, 0.06200000000000045752, 0.7853981633979947308 ) ;
#70 = DIRECTION ( 'NONE',  ( 2.438088387897960049E-29, -3.491481338843145188E-15, -1.000000000000000000 ) ) ;
#71 = COORDINATED_UNIVERSAL_TIME_OFFSET ( 5, 0, .BEHIND. ) ;
#72 = CARTESIAN_POINT ( 'NONE',  ( 3.401027976681677965E-29, -4.855766584891191073E-15, -1.390746824526944980 ) ) ;
#73 = PRODUCT_RELATED_PRODUCT_CATEGORY ( 'detail', '', ( #245 ) ) ;
#74 = AXIS2_PLACEMENT_3D ( 'NONE', #319, #263, #173 ) ;
#75 = DIRECTION ( 'NONE',  ( -6.982962677686265922E-15, -1.000000000000000000, -1.872385839611687164E-15 ) ) ;
#76 = CARTESIAN_POINT ( 'NONE',  ( 0.000000000000000000, 0.000000000000000000, 0.000000000000000000 ) ) ;
#77 = PERSON_AND_ORGANIZATION ( #272, #326 ) ;
#78 = DIRECTION ( 'NONE',  ( -2.445468806185136877E-29, 3.491481338843145188E-15, 1.000000000000000000 ) ) ;
#79 = CARTESIAN_POINT ( 'NONE',  ( -0.06250000000000008327, 4.440892098500632078E-16, -3.074334431409319967E-30 ) ) ;
#80 = ORIENTED_EDGE ( 'NONE', *, *, #13, .T. ) ;
#81 = AXIS2_PLACEMENT_3D ( 'NONE', #132, #285, #166 ) ;
#82 = ORIENTED_EDGE ( 'NONE', *, *, #33, .F. ) ;
#83 = CARTESIAN_POINT ( 'NONE',  ( 9.286555856560171149E-29, 2.808578759417532127E-15, -1.500000000000000444 ) ) ;
#84 = CIRCLE ( 'NONE', #281, 0.06200000000000059630 ) ;
#85 = FACE_OUTER_BOUND ( 'NONE', #209, .T. ) ;
#86 = VERTEX_POINT ( 'NONE', #161 ) ;
#87 = AXIS2_PLACEMENT_3D ( 'NONE', #192, #307, #43 ) ;
#88 = ADVANCED_BREP_SHAPE_REPRESENTATION ( '74001', ( #277, #280, #106 ), #213 ) ;
#89 = DIRECTION ( 'NONE',  ( -0.7071067811861189156, 7.493145998868804837E-15, 0.7071067811869761188 ) ) ;
#90 = VERTEX_POINT ( 'NONE', #360 ) ;
#91 = ORIENTED_EDGE ( 'NONE', *, *, #103, .F. ) ;
#92 = ORIENTED_EDGE ( 'NONE', *, *, #27, .F. ) ;
#93 = CIRCLE ( 'NONE', #179, 0.06200000000000059630 ) ;
#94 = ADVANCED_FACE ( 'NONE', ( #85 ), #148, .T. ) ;
#95 = CARTESIAN_POINT ( 'NONE',  ( 0.000000000000000000, 0.000000000000000000, 0.000000000000000000 ) ) ;
#96 = ORIENTED_EDGE ( 'NONE', *, *, #168, .T. ) ;
#97 = VECTOR ( 'NONE', #201, 39.37007874015748143 ) ;
#98 = DIRECTION ( 'NONE',  ( -1.000000000000000000, 6.982962677686265922E-15, -4.876176775795935793E-29 ) ) ;
#99 = FACE_OUTER_BOUND ( 'NONE', #58, .T. ) ;
#100 = DIRECTION ( 'NONE',  ( 6.191037237706779272E-29, 1.872385839611687164E-15, -1.000000000000000000 ) ) ;
#101 = APPROVAL_DATE_TIME ( #117, #202 ) ;
#102 = CC_DESIGN_PERSON_AND_ORGANIZATION_ASSIGNMENT ( #359, #347, ( #109 ) ) ;
#103 = EDGE_CURVE ( 'NONE', #215, #119, #251, .T. ) ;
#104 = AXIS2_PLACEMENT_3D ( 'NONE', #273, #385, #21 ) ;
#105 = APPLICATION_PROTOCOL_DEFINITION ( 'international standard', 'config_control_design', 1994, #200 ) ;
#106 = AXIS2_PLACEMENT_3D ( 'NONE', #76, #257, #45 ) ;
#107 = PERSON_AND_ORGANIZATION_ROLE ( 'creator' ) ;
#108 = DIRECTION ( 'NONE',  ( -0.7071067811865452413, 2.468850131082233000E-15, -0.7071067811865497932 ) ) ;
#109 = PRODUCT_DEFINITION_FORMATION_WITH_SPECIFIED_SOURCE ( 'ANY', '', #245, .NOT_KNOWN. ) ;
#110 = FACE_OUTER_BOUND ( 'NONE', #278, .T. ) ;
#111 = ORIENTED_EDGE ( 'NONE', *, *, #44, .F. ) ;
#112 = DIRECTION ( 'NONE',  ( -2.445468806185136597E-29, 3.491481338843145583E-15, 1.000000000000000000 ) ) ;
#113 = ORIENTED_EDGE ( 'NONE', *, *, #221, .F. ) ;
#114 = CC_DESIGN_PERSON_AND_ORGANIZATION_ASSIGNMENT ( #240, #208, ( #245 ) ) ;
#115 = DIRECTION ( 'NONE',  ( -2.445468806185136597E-29, 3.491481338843145583E-15, 1.000000000000000000 ) ) ;
#116 = CONICAL_SURFACE ( 'NONE', #387, 0.06250000000000062450, 0.5235987755982496328 ) ;
#117 = DATE_AND_TIME ( #169, #378 ) ;
#118 = LOCAL_TIME ( 10, 0, 54.00000000000000000, #345 ) ;
#119 = VERTEX_POINT ( 'NONE', #48 ) ;
#120 = DIRECTION ( 'NONE',  ( -2.445468806185136597E-29, 3.491481338843145583E-15, 1.000000000000000000 ) ) ;
#121 = ORIENTED_EDGE ( 'NONE', *, *, #357, .T. ) ;
#122 = AXIS2_PLACEMENT_3D ( 'NONE', #250, #183, #62 ) ;
#123 = VERTEX_POINT ( 'NONE', #230 ) ;
#124 = ORIENTED_EDGE ( 'NONE', *, *, #158, .T. ) ;
#125 = AXIS2_PLACEMENT_3D ( 'NONE', #309, #334, #188 ) ;
#126 = DIRECTION ( 'NONE',  ( -2.445468806185136597E-29, 3.491481338843145583E-15, 1.000000000000000000 ) ) ;
#127 = EDGE_CURVE ( 'NONE', #86, #90, #295, .T. ) ;
#128 = ORIENTED_EDGE ( 'NONE', *, *, #137, .T. ) ;
#129 = DIRECTION ( 'NONE',  ( 1.000000000000000000, -6.982962677686259611E-15, 0.000000000000000000 ) ) ;
#130 = ORIENTED_EDGE ( 'NONE', *, *, #224, .F. ) ;
#131 = AXIS2_PLACEMENT_3D ( 'NONE', #72, #290, #379 ) ;
#132 = CARTESIAN_POINT ( 'NONE',  ( 3.402250711084773008E-29, -4.857512325560612577E-15, -1.391246824526945369 ) ) ;
#133 = CARTESIAN_POINT ( 'NONE',  ( 3.402250711084773008E-29, -4.857512325560612577E-15, -1.391246824526945369 ) ) ;
#134 = FACE_OUTER_BOUND ( 'NONE', #274, .T. ) ;
#135 = CC_DESIGN_SECURITY_CLASSIFICATION ( #56, ( #109 ) ) ;
#136 = DIRECTION ( 'NONE',  ( 1.000000000000000000, -6.982962677686266711E-15, 4.875266047494795291E-29 ) ) ;
#137 = EDGE_CURVE ( 'NONE', #383, #123, #380, .T. ) ;
#138 = ADVANCED_FACE ( 'NONE', ( #318 ), #346, .T. ) ;
#139 = DATE_AND_TIME ( #47, #301 ) ;
#140 = AXIS2_PLACEMENT_3D ( 'NONE', #95, #249, #370 ) ;
#141 = APPROVAL_STATUS ( 'not_yet_approved' ) ;
#142 = CARTESIAN_POINT ( 'NONE',  ( 0.03130000000000000143, -3.762244649814383124E-16, -7.654042494668882163E-18 ) ) ;
#143 = VECTOR ( 'NONE', #78, 39.37007874015748143 ) ;
#144 = COORDINATED_UNIVERSAL_TIME_OFFSET ( 5, 0, .BEHIND. ) ;
#145 = CARTESIAN_POINT ( 'NONE',  ( 3.402250711084772448E-29, -4.857512325560613366E-15, -1.391246824526945369 ) ) ;
#146 = CARTESIAN_POINT ( 'NONE',  ( -0.06250000000000000000, 3.275009495834848177E-16, -0.03120000000000020673 ) ) ;
#147 = FACE_OUTER_BOUND ( 'NONE', #320, .T. ) ;
#148 = CONICAL_SURFACE ( 'NONE', #104, 0.06250000000000016653, 0.7853981633968422083 ) ;
#149 = EDGE_LOOP ( 'NONE', ( #54, #181, #128, #182 ) ) ;
#150 = CC_DESIGN_PERSON_AND_ORGANIZATION_ASSIGNMENT ( #299, #228, ( #56 ) ) ;
#151 = APPROVAL_ROLE ( '' ) ;
#152 = ORIENTED_EDGE ( 'NONE', *, *, #158, .F. ) ;
#153 = CONICAL_SURFACE ( 'NONE', #258, 0.06250000000000016653, 0.7853981633968422083 ) ;
#154 = LOCAL_TIME ( 10, 0, 54.00000000000000000, #20 ) ;
#155 = VERTEX_POINT ( 'NONE', #142 ) ;
#156 = VERTEX_POINT ( 'NONE', #49 ) ;
#157 = FACE_OUTER_BOUND ( 'NONE', #24, .T. ) ;
#158 = EDGE_CURVE ( 'NONE', #119, #215, #374, .T. ) ;
#159 = ORIENTED_EDGE ( 'NONE', *, *, #266, .F. ) ;
#160 = ORIENTED_EDGE ( 'NONE', *, *, #137, .F. ) ;
#161 = CARTESIAN_POINT ( 'NONE',  ( 0.06250000000000016653, -5.292201752246583531E-15, -1.390746824526944980 ) ) ;
#162 = APPLICATION_CONTEXT ( 'configuration controlled 3d designs of mechanical parts and assemblies' ) ;
#163 = AXIS2_PLACEMENT_3D ( 'NONE', #145, #19, #75 ) ;
#164 =( LENGTH_UNIT ( ) NAMED_UNIT ( * ) SI_UNIT ( $, .METRE. ) );
#165 = APPROVAL_PERSON_ORGANIZATION ( #372, #202, #18 ) ;
#166 = DIRECTION ( 'NONE',  ( 6.982962677686265922E-15, 1.000000000000000000, 0.000000000000000000 ) ) ;
#167 = CARTESIAN_POINT ( 'NONE',  ( 3.402250711084773008E-29, -4.857512325560612577E-15, -1.391246824526945369 ) ) ;
#168 = EDGE_CURVE ( 'NONE', #86, #156, #195, .T. ) ;
#169 = CALENDAR_DATE ( 2024, 4, 3 ) ;
#170 = CARTESIAN_POINT ( 'NONE',  ( 0.000000000000000000, 0.000000000000000000, 0.000000000000000000 ) ) ;
#171 = CIRCLE ( 'NONE', #337, 0.03130000000000000143 ) ;
#172 = PERSON_AND_ORGANIZATION ( #272, #326 ) ;
#173 = DIRECTION ( 'NONE',  ( 6.982962677686267499E-15, 1.000000000000000000, 0.000000000000000000 ) ) ;
#174 = SHAPE_DEFINITION_REPRESENTATION ( #217, #88 ) ;
#175 = CYLINDRICAL_SURFACE ( 'NONE', #17, 0.06250000000000008327 ) ;
#176 = AXIS2_PLACEMENT_3D ( 'NONE', #368, #219, #223 ) ;
#177 = LINE ( 'NONE', #293, #64 ) ;
#178 = APPROVAL ( #141, 'UNSPECIFIED' ) ;
#179 = AXIS2_PLACEMENT_3D ( 'NONE', #1, #120, #322 ) ;
#180 = ADVANCED_FACE ( 'NONE', ( #199 ), #175, .T. ) ;
#181 = ORIENTED_EDGE ( 'NONE', *, *, #63, .F. ) ;
#182 = ORIENTED_EDGE ( 'NONE', *, *, #37, .T. ) ;
#183 = DIRECTION ( 'NONE',  ( 2.445468806185136597E-29, -3.491481338843145583E-15, -1.000000000000000000 ) ) ;
#184 = CARTESIAN_POINT ( 'NONE',  ( -4.270660003612474978E-16, -0.06200000000000531475, -1.391246824526945369 ) ) ;
#185 = LENGTH_MEASURE_WITH_UNIT ( LENGTH_MEASURE( 0.02539999999999999897 ), #164 );
#186 = DIRECTION ( 'NONE',  ( 4.937700262167271979E-15, 0.7071067811869352626, -0.7071067811861597718 ) ) ;
#187 = CONICAL_SURFACE ( 'NONE', #34, 0.06200000000000045752, 0.7853981633979947308 ) ;
#188 = DIRECTION ( 'NONE',  ( 1.000000000000000000, -6.982962677686266711E-15, 0.000000000000000000 ) ) ;
#189 = FACE_OUTER_BOUND ( 'NONE', #29, .T. ) ;
#190 = CARTESIAN_POINT ( 'NONE',  ( -0.03130000000000000143, 2.730338406975324766E-16, -7.654042494672678556E-18 ) ) ;
#191 = CC_DESIGN_APPROVAL ( #202, ( #297 ) ) ;
#192 = CARTESIAN_POINT ( 'NONE',  ( 3.402250711084773008E-29, -4.857512325560612577E-15, -1.391246824526945369 ) ) ;
#193 = CONICAL_SURFACE ( 'NONE', #122, 0.06250000000000000000, 0.7853981633974450594 ) ;
#194 = COORDINATED_UNIVERSAL_TIME_OFFSET ( 5, 0, .BEHIND. ) ;
#195 = LINE ( 'NONE', #265, #143 ) ;
#196 = PERSON_AND_ORGANIZATION ( #272, #326 ) ;
#197 = APPROVAL_PERSON_ORGANIZATION ( #323, #178, #373 ) ;
#198 = DATE_AND_TIME ( #227, #40 ) ;
#199 = FACE_OUTER_BOUND ( 'NONE', #390, .T. ) ;
#200 = APPLICATION_CONTEXT ( 'configuration controlled 3d designs of mechanical parts and assemblies' ) ;
#201 = DIRECTION ( 'NONE',  ( -2.445468806185136877E-29, 3.491481338843145188E-15, 1.000000000000000000 ) ) ;
#202 = APPROVAL ( #231, 'UNSPECIFIED' ) ;
#203 = ORIENTED_EDGE ( 'NONE', *, *, #384, .F. ) ;
#204 = EDGE_CURVE ( 'NONE', #6, #215, #312, .T. ) ;
#205 = ORIENTED_EDGE ( 'NONE', *, *, #279, .F. ) ;
#206 = LINE ( 'NONE', #305, #51 ) ;
#207 = CIRCLE ( 'NONE', #59, 0.06250000000000016653 ) ;
#208 = PERSON_AND_ORGANIZATION_ROLE ( 'design_owner' ) ;
#209 = EDGE_LOOP ( 'NONE', ( #354, #80, #361, #92 ) ) ;
#210 = CARTESIAN_POINT ( 'NONE',  ( -0.06250000000000016653, -4.411677375041126879E-15, -1.390746824526944980 ) ) ;
#211 = ADVANCED_FACE ( 'NONE', ( #110 ), #116, .T. ) ;
#212 = ORIENTED_EDGE ( 'NONE', *, *, #10, .T. ) ;
#213 =( GEOMETRIC_REPRESENTATION_CONTEXT ( 3 ) GLOBAL_UNCERTAINTY_ASSIGNED_CONTEXT ( ( #32 ) ) GLOBAL_UNIT_ASSIGNED_CONTEXT ( ( #284, #35, #8 ) ) REPRESENTATION_CONTEXT ( 'NONE', 'WORKASPACE' ) );
#214 = ORIENTED_EDGE ( 'NONE', *, *, #279, .T. ) ;
#215 = VERTEX_POINT ( 'NONE', #235 ) ;
#216 = DIRECTION ( 'NONE',  ( 1.000000000000000000, -6.982962677686266711E-15, 4.875266047494795291E-29 ) ) ;
#217 = PRODUCT_DEFINITION_SHAPE ( 'NONE', 'NONE',  #297 ) ;
#218 = ORIENTED_EDGE ( 'NONE', *, *, #27, .T. ) ;
#219 = DIRECTION ( 'NONE',  ( -6.191037237706779272E-29, -1.872385839611687164E-15, 1.000000000000000000 ) ) ;
#220 = DIRECTION ( 'NONE',  ( 1.000000000000000000, -6.982962677686259611E-15, 0.000000000000000000 ) ) ;
#221 = EDGE_CURVE ( 'NONE', #90, #123, #353, .T. ) ;
#222 = PLANE ( 'NONE',  #313 ) ;
#223 = DIRECTION ( 'NONE',  ( -6.982962677686267499E-15, -1.000000000000000000, 0.000000000000000000 ) ) ;
#224 = EDGE_CURVE ( 'NONE', #55, #86, #177, .T. ) ;
#225 = CYLINDRICAL_SURFACE ( 'NONE', #140, 0.06250000000000008327 ) ;
#226 = CIRCLE ( 'NONE', #87, 0.06200000000000045752 ) ;
#227 = CALENDAR_DATE ( 2024, 4, 3 ) ;
#228 = PERSON_AND_ORGANIZATION_ROLE ( 'classification_officer' ) ;
#229 = AXIS2_PLACEMENT_3D ( 'NONE', #31, #242, #216 ) ;
#230 = CARTESIAN_POINT ( 'NONE',  ( -0.06250000000000000000, -2.038261191481484621E-15, -0.03120000000000020673 ) ) ;
#231 = APPROVAL_STATUS ( 'not_yet_approved' ) ;
#232 = DIRECTION ( 'NONE',  ( 1.000000000000000000, -6.982962677686266711E-15, 4.876176775795935793E-29 ) ) ;
#233 = CONICAL_SURFACE ( 'NONE', #176, 0.06250000000000062450, 0.5235987755982496328 ) ;
#234 = CARTESIAN_POINT ( 'NONE',  ( 3.405346229703623848E-29, -4.856576132640807756E-15, -1.391746824526945092 ) ) ;
#235 = CARTESIAN_POINT ( 'NONE',  ( 4.440892098501015662E-16, 0.06249999999999584360, -1.391746824526945092 ) ) ;
#236 = DIMENSIONAL_EXPONENTS ( 1.000000000000000000, 0.000000000000000000, 0.000000000000000000, 0.000000000000000000, 0.000000000000000000, 0.000000000000000000, 0.000000000000000000 ) ;
#237 = ADVANCED_FACE ( 'NONE', ( #147 ), #153, .T. ) ;
#238 = VECTOR ( 'NONE', #22, 39.37007874015748143 ) ;
#239 = ORIENTED_EDGE ( 'NONE', *, *, #103, .T. ) ;
#240 = PERSON_AND_ORGANIZATION ( #272, #326 ) ;
#241 = ORIENTED_EDGE ( 'NONE', *, *, #357, .F. ) ;
#242 = DIRECTION ( 'NONE',  ( -2.445468806185136597E-29, 3.491481338843145583E-15, 1.000000000000000000 ) ) ;
#243 = ORIENTED_EDGE ( 'NONE', *, *, #67, .T. ) ;
#244 = CARTESIAN_POINT ( 'NONE',  ( 3.402250711084771327E-29, -4.857512325560613366E-15, -1.391246824526945147 ) ) ;
#245 = PRODUCT ( '74001', '74001', '', ( #350 ) ) ;
#246 = CARTESIAN_POINT ( 'NONE',  ( 3.402250711084771327E-29, -4.857512325560613366E-15, -1.391246824526945147 ) ) ;
#247 = ORIENTED_EDGE ( 'NONE', *, *, #204, .T. ) ;
#248 = CC_DESIGN_DATE_AND_TIME_ASSIGNMENT ( #139, #53, ( #56 ) ) ;
#249 = DIRECTION ( 'NONE',  ( -2.445468806185136597E-29, 3.491481338843145583E-15, 1.000000000000000000 ) ) ;
#250 = CARTESIAN_POINT ( 'NONE',  ( 7.629862675297676574E-31, -1.089342177719068640E-16, -0.03120000000000020673 ) ) ;
#251 = CIRCLE ( 'NONE', #74, 0.06250000000000062450 ) ;
#252 = EDGE_CURVE ( 'NONE', #155, #383, #171, .T. ) ;
#253 = CARTESIAN_POINT ( 'NONE',  ( 7.629862675297676574E-31, -1.089342177719068640E-16, -0.03120000000000020673 ) ) ;
#254 = FACE_OUTER_BOUND ( 'NONE', #57, .T. ) ;
#255 = ADVANCED_FACE ( 'NONE', ( #134 ), #187, .T. ) ;
#256 = DIRECTION ( 'NONE',  ( 6.982962677686265922E-15, 1.000000000000000000, 0.000000000000000000 ) ) ;
#257 = DIRECTION ( 'NONE',  ( 0.000000000000000000, 0.000000000000000000, 1.000000000000000000 ) ) ;
#258 = AXIS2_PLACEMENT_3D ( 'NONE', #267, #112, #129 ) ;
#259 = DATE_TIME_ROLE ( 'creation_date' ) ;
#260 = DATE_AND_TIME ( #386, #118 ) ;
#261 = AXIS2_PLACEMENT_3D ( 'NONE', #234, #351, #376 ) ;
#262 = DIRECTION ( 'NONE',  ( -2.445468806185136597E-29, 3.491481338843145583E-15, 1.000000000000000000 ) ) ;
#263 = DIRECTION ( 'NONE',  ( 6.191037237706779272E-29, 1.872385839611687164E-15, -1.000000000000000000 ) ) ;
#264 = CIRCLE ( 'NONE', #125, 0.06250000000000000000 ) ;
#265 = CARTESIAN_POINT ( 'NONE',  ( 0.06250000000000008327, -4.364351673553922611E-16, 3.047610484872464074E-30 ) ) ;
#266 = EDGE_CURVE ( 'NONE', #356, #28, #46, .T. ) ;
#267 = CARTESIAN_POINT ( 'NONE',  ( 3.401027976681677965E-29, -4.855766584891191073E-15, -1.390746824526944980 ) ) ;
#268 = AXIS2_PLACEMENT_3D ( 'NONE', #306, #302, #52 ) ;
#269 = APPLICATION_PROTOCOL_DEFINITION ( 'international standard', 'config_control_design', 1994, #162 ) ;
#270 = VECTOR ( 'NONE', #283, 39.37007874015748143 ) ;
#271 = ORIENTED_EDGE ( 'NONE', *, *, #127, .T. ) ;
#272 = PERSON ( 'UNSPECIFIED', 'UNSPECIFIED', 'UNSPECIFIED', ('UNSPECIFIED'), ('UNSPECIFIED'), ('UNSPECIFIED') ) ;
#273 = CARTESIAN_POINT ( 'NONE',  ( 3.401027976681677965E-29, -4.855766584891191073E-15, -1.390746824526944980 ) ) ;
#274 = EDGE_LOOP ( 'NONE', ( #327, #121, #25, #152 ) ) ;
#275 = PLANE ( 'NONE',  #38 ) ;
#276 = ORIENTED_EDGE ( 'NONE', *, *, #266, .T. ) ;
#277 = MANIFOLD_SOLID_BREP ( 'Body-Move/Copy2[1]', #352 ) ;
#278 = EDGE_LOOP ( 'NONE', ( #324, #214, #124 ) ) ;
#279 = EDGE_CURVE ( 'NONE', #6, #119, #369, .T. ) ;
#280 = MANIFOLD_SOLID_BREP ( 'Body-Move/Copy2[2]', #333 ) ;
#281 = AXIS2_PLACEMENT_3D ( 'NONE', #244, #115, #60 ) ;
#282 = CARTESIAN_POINT ( 'NONE',  ( 0.06250000000000000000, -5.377153426326275743E-16, -0.03120000000000020673 ) ) ;
#283 = DIRECTION ( 'NONE',  ( -3.491481338842888808E-15, -0.4999999999999589217, 0.8660254037844624664 ) ) ;
#284 =( CONVERSION_BASED_UNIT ( 'INCH', #185 ) LENGTH_UNIT ( ) NAMED_UNIT ( #236 ) );
#285 = DIRECTION ( 'NONE',  ( 6.191037237706779272E-29, 1.872385839611687164E-15, -1.000000000000000000 ) ) ;
#286 = CC_DESIGN_PERSON_AND_ORGANIZATION_ASSIGNMENT ( #172, #107, ( #297 ) ) ;
#287 = CARTESIAN_POINT ( 'NONE',  ( 3.405346229703623848E-29, -4.856576132640807756E-15, -1.391746824526945092 ) ) ;
#288 = ADVANCED_FACE ( 'NONE', ( #254 ), #225, .T. ) ;
#289 = APPROVAL_STATUS ( 'not_yet_approved' ) ;
#290 = DIRECTION ( 'NONE',  ( -2.445468806185136597E-29, 3.491481338843145583E-15, 1.000000000000000000 ) ) ;
#291 = CARTESIAN_POINT ( 'NONE',  ( 4.440892098501010731E-16, 0.06249999999999577421, -1.391746824526945092 ) ) ;
#292 = AXIS2_PLACEMENT_3D ( 'NONE', #167, #366, #65 ) ;
#293 = CARTESIAN_POINT ( 'NONE',  ( 0.06250000000000016653, -5.292201752246583531E-15, -1.390746824526944980 ) ) ;
#294 = ORIENTED_EDGE ( 'NONE', *, *, #127, .F. ) ;
#295 = CIRCLE ( 'NONE', #131, 0.06250000000000016653 ) ;
#296 = ORIENTED_EDGE ( 'NONE', *, *, #13, .F. ) ;
#297 = PRODUCT_DEFINITION ( 'UNKNOWN', '', #109, #303 ) ;
#298 = DIRECTION ( 'NONE',  ( -4.851104656543588815E-15, -0.7071067811869325981, -0.7071067811861624364 ) ) ;
#299 = PERSON_AND_ORGANIZATION ( #272, #326 ) ;
#300 = EDGE_LOOP ( 'NONE', ( #205, #247, #239 ) ) ;
#301 = LOCAL_TIME ( 10, 0, 54.00000000000000000, #71 ) ;
#302 = DIRECTION ( 'NONE',  ( -2.445468806185136597E-29, 3.491481338843145583E-15, 1.000000000000000000 ) ) ;
#303 = DESIGN_CONTEXT ( 'detailed design', #200, 'design' ) ;
#304 = ORIENTED_EDGE ( 'NONE', *, *, #252, .T. ) ;
#305 = CARTESIAN_POINT ( 'NONE',  ( 4.329436860165856894E-16, 0.06199999999999560030, -1.391246824526945369 ) ) ;
#306 = CARTESIAN_POINT ( 'NONE',  ( 7.629862675297676574E-31, -1.089342177719068640E-16, -0.03120000000000020673 ) ) ;
#307 = DIRECTION ( 'NONE',  ( 6.191037237706779272E-29, 1.872385839611687164E-15, -1.000000000000000000 ) ) ;
#308 = CIRCLE ( 'NONE', #229, 0.03130000000000000143 ) ;
#309 = CARTESIAN_POINT ( 'NONE',  ( 7.629862675297676574E-31, -1.089342177719068640E-16, -0.03120000000000020673 ) ) ;
#310 = DIRECTION ( 'NONE',  ( 0.7071067811865452413, -7.319954787623248157E-15, -0.7071067811865497932 ) ) ;
#311 = CC_DESIGN_PERSON_AND_ORGANIZATION_ASSIGNMENT ( #77, #342, ( #109 ) ) ;
#312 = LINE ( 'NONE', #291, #238 ) ;
#313 = AXIS2_PLACEMENT_3D ( 'NONE', #341, #70, #98 ) ;
#314 = SECURITY_CLASSIFICATION_LEVEL ( 'unclassified' ) ;
#315 = APPROVAL_PERSON_ORGANIZATION ( #196, #381, #151 ) ;
#316 = CALENDAR_DATE ( 2024, 4, 3 ) ;
#317 = ADVANCED_FACE ( 'NONE', ( #99 ), #222, .F. ) ;
#318 = FACE_OUTER_BOUND ( 'NONE', #335, .T. ) ;
#319 = CARTESIAN_POINT ( 'NONE',  ( 3.405346229703623848E-29, -4.856576132640807756E-15, -1.391746824526945092 ) ) ;
#320 = EDGE_LOOP ( 'NONE', ( #26, #212, #294, #130 ) ) ;
#321 = VECTOR ( 'NONE', #89, 39.37007874015748143 ) ;
#322 = DIRECTION ( 'NONE',  ( 1.000000000000000000, -6.982962677686265922E-15, 0.000000000000000000 ) ) ;
#323 = PERSON_AND_ORGANIZATION ( #272, #326 ) ;
#324 = ORIENTED_EDGE ( 'NONE', *, *, #204, .F. ) ;
#325 = DIRECTION ( 'NONE',  ( 2.438088387897960049E-29, -3.491481338843145188E-15, -1.000000000000000000 ) ) ;
#326 = ORGANIZATION ( 'UNSPECIFIED', 'UNSPECIFIED', '' ) ;
#327 = ORIENTED_EDGE ( 'NONE', *, *, #67, .F. ) ;
#328 = ORIENTED_EDGE ( 'NONE', *, *, #384, .T. ) ;
#329 = CC_DESIGN_APPROVAL ( #381, ( #109 ) ) ;
#330 = ORIENTED_EDGE ( 'NONE', *, *, #63, .T. ) ;
#331 = EDGE_CURVE ( 'NONE', #155, #156, #66, .T. ) ;
#332 = LINE ( 'NONE', #7, #382 ) ;
#333 = CLOSED_SHELL ( 'NONE', ( #349, #288, #237, #42, #94, #180, #2, #317 ) ) ;
#334 = DIRECTION ( 'NONE',  ( -2.445468806185136597E-29, 3.491481338843145583E-15, 1.000000000000000000 ) ) ;
#335 = EDGE_LOOP ( 'NONE', ( #159, #241 ) ) ;
#336 = FACE_OUTER_BOUND ( 'NONE', #365, .T. ) ;
#337 = AXIS2_PLACEMENT_3D ( 'NONE', #339, #371, #136 ) ;
#338 = CC_DESIGN_APPROVAL ( #178, ( #56 ) ) ;
#339 = CARTESIAN_POINT ( 'NONE',  ( 1.871772216193329603E-46, -2.672394653685609529E-32, -7.654042494670960626E-18 ) ) ;
#340 = CONICAL_SURFACE ( 'NONE', #5, 0.06250000000000000000, 0.7853981633974450594 ) ;
#341 = CARTESIAN_POINT ( 'NONE',  ( 9.358861080966648015E-47, -1.336197326842804765E-32, -3.827021247335480313E-18 ) ) ;
#342 = PERSON_AND_ORGANIZATION_ROLE ( 'design_supplier' ) ;
#343 = ADVANCED_FACE ( 'NONE', ( #11 ), #233, .T. ) ;
#344 = VECTOR ( 'NONE', #108, 39.37007874015748143 ) ;
#345 = COORDINATED_UNIVERSAL_TIME_OFFSET ( 5, 0, .BEHIND. ) ;
#346 = PLANE ( 'NONE',  #163 ) ;
#347 = PERSON_AND_ORGANIZATION_ROLE ( 'creator' ) ;
#348 = DIRECTION ( 'NONE',  ( -6.982962677686267499E-15, -1.000000000000000000, 0.000000000000000000 ) ) ;
#349 = ADVANCED_FACE ( 'NONE', ( #336 ), #340, .T. ) ;
#350 = MECHANICAL_CONTEXT ( 'NONE', #162, 'mechanical' ) ;
#351 = DIRECTION ( 'NONE',  ( 6.191037237706779272E-29, 1.872385839611687164E-15, -1.000000000000000000 ) ) ;
#352 = CLOSED_SHELL ( 'NONE', ( #362, #343, #211, #255, #138 ) ) ;
#353 = LINE ( 'NONE', #79, #97 ) ;
#354 = ORIENTED_EDGE ( 'NONE', *, *, #10, .F. ) ;
#355 = VECTOR ( 'NONE', #310, 39.37007874015748143 ) ;
#356 = VERTEX_POINT ( 'NONE', #68 ) ;
#357 = EDGE_CURVE ( 'NONE', #28, #356, #226, .T. ) ;
#358 = ORIENTED_EDGE ( 'NONE', *, *, #37, .F. ) ;
#359 = PERSON_AND_ORGANIZATION ( #272, #326 ) ;
#360 = CARTESIAN_POINT ( 'NONE',  ( -0.06250000000000016653, -4.411677375041126879E-15, -1.390746824526944980 ) ) ;
#361 = ORIENTED_EDGE ( 'NONE', *, *, #224, .T. ) ;
#362 = ADVANCED_FACE ( 'NONE', ( #189 ), #69, .T. ) ;
#363 = ORIENTED_EDGE ( 'NONE', *, *, #221, .T. ) ;
#364 = CARTESIAN_POINT ( 'NONE',  ( 0.06200000000000059630, -5.290456011577166761E-15, -1.391246824526945147 ) ) ;
#365 = EDGE_LOOP ( 'NONE', ( #50, #3, #328, #160 ) ) ;
#366 = DIRECTION ( 'NONE',  ( 6.191037237706779272E-29, 1.872385839611687164E-15, -1.000000000000000000 ) ) ;
#367 = CARTESIAN_POINT ( 'NONE',  ( 3.401027976681677965E-29, -4.855766584891191073E-15, -1.390746824526944980 ) ) ;
#368 = CARTESIAN_POINT ( 'NONE',  ( 3.405346229703623848E-29, -4.856576132640807756E-15, -1.391746824526945092 ) ) ;
#369 = LINE ( 'NONE', #12, #270 ) ;
#370 = DIRECTION ( 'NONE',  ( 1.000000000000000000, -6.982962677686266711E-15, 4.876176775795935793E-29 ) ) ;
#371 = DIRECTION ( 'NONE',  ( -2.445468806185136597E-29, 3.491481338843145583E-15, 1.000000000000000000 ) ) ;
#372 = PERSON_AND_ORGANIZATION ( #272, #326 ) ;
#373 = APPROVAL_ROLE ( '' ) ;
#374 = CIRCLE ( 'NONE', #261, 0.06250000000000062450 ) ;
#375 = APPROVAL_DATE_TIME ( #260, #178 ) ;
#376 = DIRECTION ( 'NONE',  ( 6.982962677686267499E-15, 1.000000000000000000, 0.000000000000000000 ) ) ;
#377 = DATE_AND_TIME ( #316, #154 ) ;
#378 = LOCAL_TIME ( 10, 0, 54.00000000000000000, #144 ) ;
#379 = DIRECTION ( 'NONE',  ( 1.000000000000000000, -6.982962677686259611E-15, 0.000000000000000000 ) ) ;
#380 = LINE ( 'NONE', #146, #344 ) ;
#381 = APPROVAL ( #289, 'UNSPECIFIED' ) ;
#382 = VECTOR ( 'NONE', #298, 39.37007874015748143 ) ;
#383 = VERTEX_POINT ( 'NONE', #190 ) ;
#384 = EDGE_CURVE ( 'NONE', #156, #123, #264, .T. ) ;
#385 = DIRECTION ( 'NONE',  ( -2.445468806185136597E-29, 3.491481338843145583E-15, 1.000000000000000000 ) ) ;
#386 = CALENDAR_DATE ( 2024, 4, 3 ) ;
#387 = AXIS2_PLACEMENT_3D ( 'NONE', #287, #16, #348 ) ;
#388 = VERTEX_POINT ( 'NONE', #41 ) ;
#389 = FACE_OUTER_BOUND ( 'NONE', #149, .T. ) ;
#390 = EDGE_LOOP ( 'NONE', ( #113, #218, #96, #358 ) ) ;
ENDSEC;
END-ISO-10303-21;
