ISO-10303-21;
HEADER;
FILE_DESCRIPTION (( 'STEP AP203' ),
    '1' );
FILE_NAME ('74792.STEP',
    '2024-05-03T15:03:52',
    ( '' ),
    ( '' ),
    'SwSTEP 2.0',
    'SolidWorks 2023',
    '' );
FILE_SCHEMA (( 'CONFIG_CONTROL_DESIGN' ));
ENDSEC;

DATA;
#1 = DIRECTION ( 'NONE',  ( 0.000000000000000000, 0.000000000000000000, 1.000000000000000000 ) ) ;
#2 = ORIENTED_EDGE ( 'NONE', *, *, #321, .T. ) ;
#3 = DIRECTION ( 'NONE',  ( -1.000000000000000000, 6.982962677686266711E-15, 0.000000000000000000 ) ) ;
#4 = APPLICATION_PROTOCOL_DEFINITION ( 'international standard', 'config_control_design', 1994, #109 ) ;
#5 = ADVANCED_FACE ( 'NONE', ( #316 ), #346, .T. ) ;
#6 = MANIFOLD_SOLID_BREP ( 'Body-Move/Copy2[2]', #152 ) ;
#7 = DIRECTION ( 'NONE',  ( -2.445468806185136597E-29, 3.491481338843145583E-15, 1.000000000000000000 ) ) ;
#8 = ORIENTED_EDGE ( 'NONE', *, *, #118, .T. ) ;
#9 = DIMENSIONAL_EXPONENTS ( 1.000000000000000000, 0.000000000000000000, 0.000000000000000000, 0.000000000000000000, 0.000000000000000000, 0.000000000000000000, 0.000000000000000000 ) ;
#10 = CARTESIAN_POINT ( 'NONE',  ( -0.3736999999999998101, 2.644447966039787875E-15, 8.537024980182450727E-18 ) ) ;
#11 = DATE_AND_TIME ( #216, #232 ) ;
#12 = DIRECTION ( 'NONE',  ( 1.000000000000000000, -6.982962677686265133E-15, 0.000000000000000000 ) ) ;
#13 = APPROVAL_DATE_TIME ( #11, #336 ) ;
#14 = DIRECTION ( 'NONE',  ( 1.000000000000000000, -6.982962677686265922E-15, 4.876176775795935793E-29 ) ) ;
#15 = VECTOR ( 'NONE', #16, 39.37007874015748143 ) ;
#16 = DIRECTION ( 'NONE',  ( -2.445468806185136877E-29, 3.491481338843145188E-15, 1.000000000000000000 ) ) ;
#17 = EDGE_CURVE ( 'NONE', #20, #114, #210, .T. ) ;
#18 = CARTESIAN_POINT ( 'NONE',  ( 4.813905344975442395E-29, -6.872981015512733285E-15, -1.968500000000000361 ) ) ;
#19 = FACE_OUTER_BOUND ( 'NONE', #160, .T. ) ;
#20 = VERTEX_POINT ( 'NONE', #127 ) ;
#21 = EDGE_CURVE ( 'NONE', #273, #333, #298, .T. ) ;
#22 = CARTESIAN_POINT ( 'NONE',  ( 2.749192406205130943E-15, 0.3936999999999931110, -1.968500000000001471 ) ) ;
#23 = ORIENTED_EDGE ( 'NONE', *, *, #315, .F. ) ;
#24 = DATE_AND_TIME ( #344, #317 ) ;
#25 = CARTESIAN_POINT ( 'NONE',  ( -0.3936999999999998279, 2.679362779428218735E-15, -0.02000000000000008715 ) ) ;
#26 = VERTEX_POINT ( 'NONE', #10 ) ;
#27 = DATE_AND_TIME ( #274, #264 ) ;
#28 = VERTEX_POINT ( 'NONE', #92 ) ;
#29 = MECHANICAL_CONTEXT ( 'NONE', #109, 'mechanical' ) ;
#30 = ORIENTED_EDGE ( 'NONE', *, *, #253, .F. ) ;
#31 = PRODUCT ( '74792', '74792', '', ( #29 ) ) ;
#32 = CARTESIAN_POINT ( 'NONE',  ( 0.000000000000000000, 0.000000000000000000, 0.000000000000000000 ) ) ;
#33 = LOCAL_TIME ( 11, 3, 52.00000000000000000, #119 ) ;
#34 =( NAMED_UNIT ( * ) PLANE_ANGLE_UNIT ( ) SI_UNIT ( $, .RADIAN. ) );
#35 = CC_DESIGN_PERSON_AND_ORGANIZATION_ASSIGNMENT ( #175, #116, ( #170 ) ) ;
#36 = APPROVAL_DATE_TIME ( #254, #156 ) ;
#37 = AXIS2_PLACEMENT_3D ( 'NONE', #301, #192, #51 ) ;
#38 = CARTESIAN_POINT ( 'NONE',  ( 0.000000000000000000, 0.000000000000000000, 0.000000000000000000 ) ) ;
#39 = DIRECTION ( 'NONE',  ( 1.000000000000000000, -6.982962677686267499E-15, 0.000000000000000000 ) ) ;
#40 = DIRECTION ( 'NONE',  ( -2.445468806185136597E-29, 3.491481338843145583E-15, 1.000000000000000000 ) ) ;
#41 = EDGE_CURVE ( 'NONE', #224, #311, #146, .T. ) ;
#42 = AXIS2_PLACEMENT_3D ( 'NONE', #67, #100, #186 ) ;
#43 = ORIENTED_EDGE ( 'NONE', *, *, #158, .T. ) ;
#44 = APPROVAL_STATUS ( 'not_yet_approved' ) ;
#45 = CARTESIAN_POINT ( 'NONE',  ( 4.813905344975441835E-29, -6.872981015512731707E-15, -1.968500000000000139 ) ) ;
#46 = EDGE_CURVE ( 'NONE', #28, #114, #212, .T. ) ;
#47 = LINE ( 'NONE', #132, #335 ) ;
#48 = APPROVAL_ROLE ( '' ) ;
#49 = VECTOR ( 'NONE', #356, 39.37007874015748143 ) ;
#50 = PRODUCT_RELATED_PRODUCT_CATEGORY ( 'detail', '', ( #31 ) ) ;
#51 = DIRECTION ( 'NONE',  ( 1.000000000000000000, -6.982962677686266711E-15, 4.876176775795935793E-29 ) ) ;
#52 = APPROVAL_PERSON_ORGANIZATION ( #341, #156, #282 ) ;
#53 = DIRECTION ( 'NONE',  ( 2.438088387897960049E-29, -3.491481338843145188E-15, -1.000000000000000000 ) ) ;
#54 = DIRECTION ( 'NONE',  ( -0.7071067811864750752, 7.493145998870092258E-15, 0.7071067811866199593 ) ) ;
#55 = EDGE_LOOP ( 'NONE', ( #43, #290, #81, #362 ) ) ;
#56 = DIRECTION ( 'NONE',  ( -2.445468806185136597E-29, 3.491481338843145583E-15, 1.000000000000000000 ) ) ;
#57 = ORIENTED_EDGE ( 'NONE', *, *, #315, .T. ) ;
#58 = CALENDAR_DATE ( 2024, 3, 5 ) ;
#59 = APPROVAL_PERSON_ORGANIZATION ( #151, #336, #48 ) ;
#60 = DIRECTION ( 'NONE',  ( 1.000000000000000000, -6.982962677686265133E-15, 0.000000000000000000 ) ) ;
#61 = ORIENTED_EDGE ( 'NONE', *, *, #185, .T. ) ;
#62 = APPLICATION_CONTEXT ( 'configuration controlled 3d designs of mechanical parts and assemblies' ) ;
#63 = CARTESIAN_POINT ( 'NONE',  ( 4.890937612370294178E-31, -6.982962677686321191E-17, -0.02000000000000008715 ) ) ;
#64 = AXIS2_PLACEMENT_3D ( 'NONE', #293, #286, #129 ) ;
#65 = PERSON_AND_ORGANIZATION ( #121, #115 ) ;
#66 = APPROVAL_STATUS ( 'not_yet_approved' ) ;
#67 = CARTESIAN_POINT ( 'NONE',  ( -2.087702828670439639E-46, 2.980686340760894400E-32, 8.537024980200822558E-18 ) ) ;
#68 = CARTESIAN_POINT ( 'NONE',  ( 0.3936999999999999389, -2.749192406205082822E-15, 1.919750796630859611E-29 ) ) ;
#69 = DIRECTION ( 'NONE',  ( 1.000000000000000000, -6.982962677686265133E-15, 0.000000000000000000 ) ) ;
#70 = DIRECTION ( 'NONE',  ( 1.000000000000000000, -6.982962677686265922E-15, 4.876176775795935793E-29 ) ) ;
#71 = EDGE_CURVE ( 'NONE', #259, #26, #359, .T. ) ;
#72 = DIRECTION ( 'NONE',  ( 2.438088387897960049E-29, -3.491481338843145188E-15, -1.000000000000000000 ) ) ;
#73 = DIRECTION ( 'NONE',  ( -1.000000000000000000, 6.982962677686265922E-15, -4.876176775795935793E-29 ) ) ;
#74 = CIRCLE ( 'NONE', #89, 0.3936999999999998279 ) ;
#75 = FACE_OUTER_BOUND ( 'NONE', #309, .T. ) ;
#76 = CYLINDRICAL_SURFACE ( 'NONE', #37, 0.3936999999999999389 ) ;
#77 = DIRECTION ( 'NONE',  ( -1.000000000000000000, 6.982962677686265922E-15, -4.876176775795935793E-29 ) ) ;
#78 = ORIENTED_EDGE ( 'NONE', *, *, #253, .T. ) ;
#79 = AXIS2_PLACEMENT_3D ( 'NONE', #190, #161, #294 ) ;
#80 = PERSON_AND_ORGANIZATION ( #121, #115 ) ;
#81 = ORIENTED_EDGE ( 'NONE', *, *, #310, .F. ) ;
#82 = CALENDAR_DATE ( 2024, 3, 5 ) ;
#83 = ORIENTED_EDGE ( 'NONE', *, *, #71, .F. ) ;
#84 = CARTESIAN_POINT ( 'NONE',  ( 4.813905344975442395E-29, -6.872981015512733285E-15, -1.968500000000000361 ) ) ;
#85 = ORIENTED_EDGE ( 'NONE', *, *, #191, .F. ) ;
#86 = DIRECTION ( 'NONE',  ( -2.445468806185136597E-29, 3.491481338843145583E-15, 1.000000000000000000 ) ) ;
#87 = CIRCLE ( 'NONE', #352, 0.3937000000000000499 ) ;
#88 = ADVANCED_FACE ( 'NONE', ( #95 ), #256, .T. ) ;
#89 = AXIS2_PLACEMENT_3D ( 'NONE', #63, #7, #130 ) ;
#90 = COORDINATED_UNIVERSAL_TIME_OFFSET ( 5, 0, .BEHIND. ) ;
#91 = PERSON_AND_ORGANIZATION_ROLE ( 'design_supplier' ) ;
#92 = CARTESIAN_POINT ( 'NONE',  ( 0.3937000000000001609, -9.618681940378971917E-15, -1.967500000000000027 ) ) ;
#93 = VECTOR ( 'NONE', #303, 39.37007874015748143 ) ;
#94 = AXIS2_PLACEMENT_3D ( 'NONE', #215, #159, #351 ) ;
#95 = FACE_OUTER_BOUND ( 'NONE', #205, .T. ) ;
#96 = DIRECTION ( 'NONE',  ( -2.445468806185136597E-29, 3.491481338843145583E-15, 1.000000000000000000 ) ) ;
#97 = ORIENTED_EDGE ( 'NONE', *, *, #185, .F. ) ;
#98 = APPROVAL ( #66, 'UNSPECIFIED' ) ;
#99 = AXIS2_PLACEMENT_3D ( 'NONE', #196, #219, #358 ) ;
#100 = DIRECTION ( 'NONE',  ( -2.445468806185136597E-29, 3.491481338843145583E-15, 1.000000000000000000 ) ) ;
#101 = SHAPE_DEFINITION_REPRESENTATION ( #329, #154 ) ;
#102 = FACE_OUTER_BOUND ( 'NONE', #222, .T. ) ;
#103 = CARTESIAN_POINT ( 'NONE',  ( -0.3936999999999999389, 2.797406750687513998E-15, -1.936584745033356455E-29 ) ) ;
#104 = ADVANCED_FACE ( 'NONE', ( #184 ), #347, .T. ) ;
#105 = DIRECTION ( 'NONE',  ( -2.445468806185136877E-29, 3.491481338843145188E-15, 1.000000000000000000 ) ) ;
#106 = ORIENTED_EDGE ( 'NONE', *, *, #310, .T. ) ;
#107 = FACE_OUTER_BOUND ( 'NONE', #144, .T. ) ;
#108 = ORIENTED_EDGE ( 'NONE', *, *, #71, .T. ) ;
#109 = APPLICATION_CONTEXT ( 'configuration controlled 3d designs of mechanical parts and assemblies' ) ;
#110 = CARTESIAN_POINT ( 'NONE',  ( -0.3937000000000001609, -6.722528297878588461E-16, -1.967500000000000027 ) ) ;
#111 = EDGE_CURVE ( 'NONE', #153, #266, #137, .T. ) ;
#112 = EDGE_LOOP ( 'NONE', ( #270, #174 ) ) ;
#113 = FACE_OUTER_BOUND ( 'NONE', #55, .T. ) ;
#114 = VERTEX_POINT ( 'NONE', #211 ) ;
#115 = ORGANIZATION ( 'UNSPECIFIED', 'UNSPECIFIED', '' ) ;
#116 = PERSON_AND_ORGANIZATION_ROLE ( 'creator' ) ;
#117 = ORIENTED_EDGE ( 'NONE', *, *, #164, .F. ) ;
#118 = EDGE_CURVE ( 'NONE', #114, #20, #74, .T. ) ;
#119 = COORDINATED_UNIVERSAL_TIME_OFFSET ( 5, 0, .BEHIND. ) ;
#120 = CC_DESIGN_PERSON_AND_ORGANIZATION_ASSIGNMENT ( #80, #339, ( #284 ) ) ;
#121 = PERSON ( 'UNSPECIFIED', 'UNSPECIFIED', 'UNSPECIFIED', ('UNSPECIFIED'), ('UNSPECIFIED'), ('UNSPECIFIED') ) ;
#122 = PERSON_AND_ORGANIZATION_ROLE ( 'classification_officer' ) ;
#123 = DIRECTION ( 'NONE',  ( -2.445468806185136877E-29, 3.491481338843145188E-15, 1.000000000000000000 ) ) ;
#124 = ORIENTED_EDGE ( 'NONE', *, *, #158, .F. ) ;
#125 = CIRCLE ( 'NONE', #79, 0.3937000000000001609 ) ;
#126 = AXIS2_PLACEMENT_3D ( 'NONE', #261, #237, #12 ) ;
#127 = CARTESIAN_POINT ( 'NONE',  ( -0.3936999999999998279, 2.679362779428218735E-15, -0.02000000000000008715 ) ) ;
#128 = CONICAL_SURFACE ( 'NONE', #300, 0.3926999999999999935, 0.7853981633973459164 ) ;
#129 = DIRECTION ( 'NONE',  ( 1.000000000000000000, -6.982962677686265133E-15, 0.000000000000000000 ) ) ;
#130 = DIRECTION ( 'NONE',  ( 1.000000000000000000, -6.982962677686266711E-15, 0.000000000000000000 ) ) ;
#131 = MANIFOLD_SOLID_BREP ( 'Body-Move/Copy2[1]', #187 ) ;
#132 = CARTESIAN_POINT ( 'NONE',  ( 0.3926999999999999935, -9.615190459040128910E-15, -1.968500000000000361 ) ) ;
#133 = CARTESIAN_POINT ( 'NONE',  ( 4.890937612370294178E-31, -6.982962677686321191E-17, -0.02000000000000008715 ) ) ;
#134 = EDGE_CURVE ( 'NONE', #153, #224, #214, .T. ) ;
#135 = FACE_OUTER_BOUND ( 'NONE', #338, .T. ) ;
#136 = ORIENTED_EDGE ( 'NONE', *, *, #21, .T. ) ;
#137 = CIRCLE ( 'NONE', #245, 0.3937000000000000499 ) ;
#138 = CARTESIAN_POINT ( 'NONE',  ( 0.3736999999999998101, -2.667287895133366781E-15, 8.537024980219274507E-18 ) ) ;
#139 = ORIENTED_EDGE ( 'NONE', *, *, #180, .T. ) ;
#140 = AXIS2_PLACEMENT_3D ( 'NONE', #173, #365, #3 ) ;
#141 = DIRECTION ( 'NONE',  ( 1.000000000000000000, -6.982962677686265922E-15, 0.000000000000000000 ) ) ;
#142 = ORIENTED_EDGE ( 'NONE', *, *, #203, .T. ) ;
#143 = APPLICATION_PROTOCOL_DEFINITION ( 'international standard', 'config_control_design', 1994, #62 ) ;
#144 = EDGE_LOOP ( 'NONE', ( #85, #136, #2, #23 ) ) ;
#145 = AXIS2_PLACEMENT_3D ( 'NONE', #220, #56, #141 ) ;
#146 = CIRCLE ( 'NONE', #126, 0.3937000000000000499 ) ;
#147 = ORIENTED_EDGE ( 'NONE', *, *, #118, .F. ) ;
#148 = CC_DESIGN_APPROVAL ( #98, ( #170 ) ) ;
#149 = APPROVAL_ROLE ( '' ) ;
#150 =( NAMED_UNIT ( * ) SI_UNIT ( $, .STERADIAN. ) SOLID_ANGLE_UNIT ( ) );
#151 = PERSON_AND_ORGANIZATION ( #121, #115 ) ;
#152 = CLOSED_SHELL ( 'NONE', ( #360, #249, #292, #349, #5, #285, #345, #218 ) ) ;
#153 = VERTEX_POINT ( 'NONE', #323 ) ;
#154 = ADVANCED_BREP_SHAPE_REPRESENTATION ( '74792', ( #131, #6, #307 ), #189 ) ;
#155 = ORIENTED_EDGE ( 'NONE', *, *, #41, .F. ) ;
#156 = APPROVAL ( #179, 'UNSPECIFIED' ) ;
#157 = CARTESIAN_POINT ( 'NONE',  ( -0.3937000000000000499, 2.797406750687514786E-15, -1.936584745033356735E-29 ) ) ;
#158 = EDGE_CURVE ( 'NONE', #333, #273, #353, .T. ) ;
#159 = DIRECTION ( 'NONE',  ( -2.445468806185136597E-29, 3.491481338843145583E-15, 1.000000000000000000 ) ) ;
#160 = EDGE_LOOP ( 'NONE', ( #142, #108 ) ) ;
#161 = DIRECTION ( 'NONE',  ( -2.445468806185136597E-29, 3.491481338843145583E-15, 1.000000000000000000 ) ) ;
#162 = AXIS2_PLACEMENT_3D ( 'NONE', #18, #223, #199 ) ;
#163 = LINE ( 'NONE', #194, #15 ) ;
#164 = EDGE_CURVE ( 'NONE', #311, #224, #291, .T. ) ;
#165 = CARTESIAN_POINT ( 'NONE',  ( -0.3926999999999999935, -4.082679692182819507E-15, -1.968500000000000361 ) ) ;
#166 = ORIENTED_EDGE ( 'NONE', *, *, #111, .F. ) ;
#167 = FACE_OUTER_BOUND ( 'NONE', #112, .T. ) ;
#168 = ORIENTED_EDGE ( 'NONE', *, *, #111, .T. ) ;
#169 = AXIS2_PLACEMENT_3D ( 'NONE', #326, #53, #73 ) ;
#170 = PRODUCT_DEFINITION ( 'UNKNOWN', '', #284, #288 ) ;
#171 = CARTESIAN_POINT ( 'NONE',  ( 0.3936999999999998279, -2.770807688499514156E-15, -0.02000000000000008715 ) ) ;
#172 = ORIENTED_EDGE ( 'NONE', *, *, #134, .T. ) ;
#173 = CARTESIAN_POINT ( 'NONE',  ( 4.890937612370294178E-31, -6.982962677686321191E-17, -0.02000000000000008715 ) ) ;
#174 = ORIENTED_EDGE ( 'NONE', *, *, #41, .T. ) ;
#175 = PERSON_AND_ORGANIZATION ( #121, #115 ) ;
#176 = ORIENTED_EDGE ( 'NONE', *, *, #21, .F. ) ;
#177 = DIRECTION ( 'NONE',  ( 1.000000000000000000, -6.982962677686265922E-15, 4.876176775795935793E-29 ) ) ;
#178 = CC_DESIGN_PERSON_AND_ORGANIZATION_ASSIGNMENT ( #204, #91, ( #284 ) ) ;
#179 = APPROVAL_STATUS ( 'not_yet_approved' ) ;
#180 = EDGE_CURVE ( 'NONE', #266, #153, #87, .T. ) ;
#181 = VECTOR ( 'NONE', #54, 39.37007874015748143 ) ;
#182 = DIRECTION ( 'NONE',  ( 1.000000000000000000, -6.982962677686266711E-15, 4.876176775795935793E-29 ) ) ;
#183 = DIRECTION ( 'NONE',  ( 1.000000000000000000, -6.982962677686265133E-15, 0.000000000000000000 ) ) ;
#184 = FACE_OUTER_BOUND ( 'NONE', #302, .T. ) ;
#185 = EDGE_CURVE ( 'NONE', #201, #20, #296, .T. ) ;
#186 = DIRECTION ( 'NONE',  ( 1.000000000000000000, -6.982962677686266711E-15, 4.876212485538977921E-29 ) ) ;
#187 = CLOSED_SHELL ( 'NONE', ( #104, #213, #257, #88 ) ) ;
#188 = DIRECTION ( 'NONE',  ( 1.000000000000000000, -6.982962677686267499E-15, 0.000000000000000000 ) ) ;
#189 =( GEOMETRIC_REPRESENTATION_CONTEXT ( 3 ) GLOBAL_UNCERTAINTY_ASSIGNED_CONTEXT ( ( #207 ) ) GLOBAL_UNIT_ASSIGNED_CONTEXT ( ( #252, #34, #150 ) ) REPRESENTATION_CONTEXT ( 'NONE', 'WORKASPACE' ) );
#190 = CARTESIAN_POINT ( 'NONE',  ( 4.811459876169256232E-29, -6.869489534173888700E-15, -1.967500000000000027 ) ) ;
#191 = EDGE_CURVE ( 'NONE', #273, #201, #247, .T. ) ;
#192 = DIRECTION ( 'NONE',  ( -2.445468806185136597E-29, 3.491481338843145583E-15, 1.000000000000000000 ) ) ;
#193 = CC_DESIGN_DATE_AND_TIME_ASSIGNMENT ( #24, #281, ( #355 ) ) ;
#194 = CARTESIAN_POINT ( 'NONE',  ( 0.3937000000000000499, -2.749192406205083217E-15, 1.919750796630860172E-29 ) ) ;
#195 = CC_DESIGN_SECURITY_CLASSIFICATION ( #355, ( #284 ) ) ;
#196 = CARTESIAN_POINT ( 'NONE',  ( 2.749192406205179063E-15, 0.3936999999999862832, -3.937000000000001609 ) ) ;
#197 = EDGE_CURVE ( 'NONE', #259, #114, #243, .T. ) ;
#198 = EDGE_LOOP ( 'NONE', ( #331, #246, #229, #304 ) ) ;
#199 = DIRECTION ( 'NONE',  ( 1.000000000000000000, -6.982962677686265133E-15, 0.000000000000000000 ) ) ;
#200 = ORIENTED_EDGE ( 'NONE', *, *, #46, .F. ) ;
#201 = VERTEX_POINT ( 'NONE', #110 ) ;
#202 = APPROVAL_DATE_TIME ( #343, #98 ) ;
#203 = EDGE_CURVE ( 'NONE', #26, #259, #268, .T. ) ;
#204 = PERSON_AND_ORGANIZATION ( #121, #115 ) ;
#205 = EDGE_LOOP ( 'NONE', ( #275, #168, #78, #155 ) ) ;
#206 = CARTESIAN_POINT ( 'NONE',  ( 4.813905344975441835E-29, -6.872981015512731707E-15, -1.968500000000000139 ) ) ;
#207 = UNCERTAINTY_MEASURE_WITH_UNIT (LENGTH_MEASURE( 1.000000000000000082E-05 ), #252, 'distance_accuracy_value', 'NONE');
#208 = CC_DESIGN_DATE_AND_TIME_ASSIGNMENT ( #27, #228, ( #170 ) ) ;
#209 = SECURITY_CLASSIFICATION_LEVEL ( 'unclassified' ) ;
#210 = CIRCLE ( 'NONE', #94, 0.3936999999999998279 ) ;
#211 = CARTESIAN_POINT ( 'NONE',  ( 0.3936999999999998279, -2.770807688499514156E-15, -0.02000000000000008715 ) ) ;
#212 = LINE ( 'NONE', #68, #235 ) ;
#213 = ADVANCED_FACE ( 'NONE', ( #102 ), #332, .T. ) ;
#214 = LINE ( 'NONE', #157, #342 ) ;
#215 = CARTESIAN_POINT ( 'NONE',  ( 4.890937612370294178E-31, -6.982962677686321191E-17, -0.02000000000000008715 ) ) ;
#216 = CALENDAR_DATE ( 2024, 3, 5 ) ;
#217 = DIRECTION ( 'NONE',  ( -2.445468806185136597E-29, 3.491481338843145583E-15, 1.000000000000000000 ) ) ;
#218 = ADVANCED_FACE ( 'NONE', ( #19 ), #265, .F. ) ;
#219 = DIRECTION ( 'NONE',  ( 2.438088387897960049E-29, -3.491481338843145188E-15, -1.000000000000000000 ) ) ;
#220 = CARTESIAN_POINT ( 'NONE',  ( 4.811459876169256232E-29, -6.869489534173888700E-15, -1.967500000000000027 ) ) ;
#221 = DIRECTION ( 'NONE',  ( -2.445468806185136597E-29, 3.491481338843145583E-15, 1.000000000000000000 ) ) ;
#222 = EDGE_LOOP ( 'NONE', ( #227, #166 ) ) ;
#223 = DIRECTION ( 'NONE',  ( -2.445468806185136597E-29, 3.491481338843145583E-15, 1.000000000000000000 ) ) ;
#224 = VERTEX_POINT ( 'NONE', #330 ) ;
#225 = COORDINATED_UNIVERSAL_TIME_OFFSET ( 5, 0, .BEHIND. ) ;
#226 = AXIS2_PLACEMENT_3D ( 'NONE', #22, #72, #77 ) ;
#227 = ORIENTED_EDGE ( 'NONE', *, *, #180, .F. ) ;
#228 = DATE_TIME_ROLE ( 'creation_date' ) ;
#229 = ORIENTED_EDGE ( 'NONE', *, *, #305, .T. ) ;
#230 = PERSON_AND_ORGANIZATION_ROLE ( 'design_owner' ) ;
#231 = CC_DESIGN_PERSON_AND_ORGANIZATION_ASSIGNMENT ( #65, #230, ( #31 ) ) ;
#232 = LOCAL_TIME ( 11, 3, 52.00000000000000000, #327 ) ;
#233 = COORDINATED_UNIVERSAL_TIME_OFFSET ( 5, 0, .BEHIND. ) ;
#234 = CARTESIAN_POINT ( 'NONE',  ( 9.627810689950883669E-29, -1.374596203102546341E-14, -3.937000000000000277 ) ) ;
#235 = VECTOR ( 'NONE', #236, 39.37007874015748143 ) ;
#236 = DIRECTION ( 'NONE',  ( -2.445468806185136877E-29, 3.491481338843145188E-15, 1.000000000000000000 ) ) ;
#237 = DIRECTION ( 'NONE',  ( -2.445468806185136597E-29, 3.491481338843145583E-15, 1.000000000000000000 ) ) ;
#238 = ORIENTED_EDGE ( 'NONE', *, *, #46, .T. ) ;
#239 = CARTESIAN_POINT ( 'NONE',  ( 4.813905344975442395E-29, -6.872981015512733285E-15, -1.968500000000000361 ) ) ;
#240 = DIRECTION ( 'NONE',  ( 0.7071067811864750752, -2.468850131081498176E-15, 0.7071067811866199593 ) ) ;
#241 = CONICAL_SURFACE ( 'NONE', #140, 0.3936999999999998279, 0.7853981633974457255 ) ;
#242 = DIRECTION ( 'NONE',  ( 2.445468806185136597E-29, -3.491481338843145583E-15, -1.000000000000000000 ) ) ;
#243 = LINE ( 'NONE', #171, #49 ) ;
#244 = AXIS2_PLACEMENT_3D ( 'NONE', #45, #96, #69 ) ;
#245 = AXIS2_PLACEMENT_3D ( 'NONE', #255, #287, #188 ) ;
#246 = ORIENTED_EDGE ( 'NONE', *, *, #203, .F. ) ;
#247 = LINE ( 'NONE', #165, #181 ) ;
#248 = DIRECTION ( 'NONE',  ( 1.000000000000000000, -6.982962677686266711E-15, 4.876212485538977921E-29 ) ) ;
#249 = ADVANCED_FACE ( 'NONE', ( #135 ), #76, .T. ) ;
#250 = EDGE_LOOP ( 'NONE', ( #97, #57, #238, #366 ) ) ;
#251 = AXIS2_PLACEMENT_3D ( 'NONE', #283, #260, #182 ) ;
#252 =( CONVERSION_BASED_UNIT ( 'INCH', #280 ) LENGTH_UNIT ( ) NAMED_UNIT ( #9 ) );
#253 = EDGE_CURVE ( 'NONE', #266, #311, #163, .T. ) ;
#254 = DATE_AND_TIME ( #58, #279 ) ;
#255 = CARTESIAN_POINT ( 'NONE',  ( 9.627810689950883669E-29, -1.374596203102546341E-14, -3.937000000000000277 ) ) ;
#256 = CYLINDRICAL_SURFACE ( 'NONE', #269, 0.3937000000000000499 ) ;
#257 = ADVANCED_FACE ( 'NONE', ( #167 ), #267, .F. ) ;
#258 = CIRCLE ( 'NONE', #145, 0.3937000000000001609 ) ;
#259 = VERTEX_POINT ( 'NONE', #138 ) ;
#260 = DIRECTION ( 'NONE',  ( -2.445468806185136597E-29, 3.491481338843145583E-15, 1.000000000000000000 ) ) ;
#261 = CARTESIAN_POINT ( 'NONE',  ( 4.813905344975441835E-29, -6.872981015512731707E-15, -1.968500000000000139 ) ) ;
#262 = CARTESIAN_POINT ( 'NONE',  ( -2.087702828670439639E-46, 2.980686340760894400E-32, 8.537024980200822558E-18 ) ) ;
#263 = CARTESIAN_POINT ( 'NONE',  ( 0.3937000000000000499, -1.649515443723054663E-14, -3.937000000000000277 ) ) ;
#264 = LOCAL_TIME ( 11, 3, 52.00000000000000000, #90 ) ;
#265 = PLANE ( 'NONE',  #169 ) ;
#266 = VERTEX_POINT ( 'NONE', #263 ) ;
#267 = PLANE ( 'NONE',  #226 ) ;
#268 = CIRCLE ( 'NONE', #322, 0.3736999999999998101 ) ;
#269 = AXIS2_PLACEMENT_3D ( 'NONE', #350, #40, #14 ) ;
#270 = ORIENTED_EDGE ( 'NONE', *, *, #164, .T. ) ;
#271 = FACE_OUTER_BOUND ( 'NONE', #364, .T. ) ;
#272 = APPROVAL_PERSON_ORGANIZATION ( #337, #98, #149 ) ;
#273 = VERTEX_POINT ( 'NONE', #361 ) ;
#274 = CALENDAR_DATE ( 2024, 3, 5 ) ;
#275 = ORIENTED_EDGE ( 'NONE', *, *, #134, .F. ) ;
#276 = DIRECTION ( 'NONE',  ( 1.000000000000000000, 0.000000000000000000, 0.000000000000000000 ) ) ;
#277 = AXIS2_PLACEMENT_3D ( 'NONE', #38, #319, #70 ) ;
#278 =( LENGTH_UNIT ( ) NAMED_UNIT ( * ) SI_UNIT ( $, .METRE. ) );
#279 = LOCAL_TIME ( 11, 3, 52.00000000000000000, #225 ) ;
#280 = LENGTH_MEASURE_WITH_UNIT ( LENGTH_MEASURE( 0.02539999999999999897 ), #278 );
#281 = DATE_TIME_ROLE ( 'classification_date' ) ;
#282 = APPROVAL_ROLE ( '' ) ;
#283 = CARTESIAN_POINT ( 'NONE',  ( 0.000000000000000000, 0.000000000000000000, 0.000000000000000000 ) ) ;
#284 = PRODUCT_DEFINITION_FORMATION_WITH_SPECIFIED_SOURCE ( 'ANY', '', #31, .NOT_KNOWN. ) ;
#285 = ADVANCED_FACE ( 'NONE', ( #107 ), #314, .T. ) ;
#286 = DIRECTION ( 'NONE',  ( -2.445468806185136597E-29, 3.491481338843145583E-15, 1.000000000000000000 ) ) ;
#287 = DIRECTION ( 'NONE',  ( -2.445468806185136597E-29, 3.491481338843145583E-15, 1.000000000000000000 ) ) ;
#288 = DESIGN_CONTEXT ( 'detailed design', #62, 'design' ) ;
#289 = VECTOR ( 'NONE', #105, 39.37007874015748143 ) ;
#290 = ORIENTED_EDGE ( 'NONE', *, *, #191, .T. ) ;
#291 = CIRCLE ( 'NONE', #244, 0.3937000000000000499 ) ;
#292 = ADVANCED_FACE ( 'NONE', ( #271 ), #297, .T. ) ;
#293 = CARTESIAN_POINT ( 'NONE',  ( 4.813905344975442395E-29, -6.872981015512733285E-15, -1.968500000000000361 ) ) ;
#294 = DIRECTION ( 'NONE',  ( 1.000000000000000000, -6.982962677686265922E-15, 0.000000000000000000 ) ) ;
#295 = AXIS2_PLACEMENT_3D ( 'NONE', #133, #242, #325 ) ;
#296 = LINE ( 'NONE', #103, #289 ) ;
#297 = CONICAL_SURFACE ( 'NONE', #295, 0.3936999999999998279, 0.7853981633974457255 ) ;
#298 = CIRCLE ( 'NONE', #312, 0.3926999999999999935 ) ;
#299 = PLANE ( 'NONE',  #334 ) ;
#300 = AXIS2_PLACEMENT_3D ( 'NONE', #84, #86, #60 ) ;
#301 = CARTESIAN_POINT ( 'NONE',  ( 0.000000000000000000, 0.000000000000000000, 0.000000000000000000 ) ) ;
#302 = EDGE_LOOP ( 'NONE', ( #139, #172, #117, #30 ) ) ;
#303 = DIRECTION ( 'NONE',  ( -0.7071067811865456854, 2.468850131082237733E-15, -0.7071067811865493491 ) ) ;
#304 = ORIENTED_EDGE ( 'NONE', *, *, #17, .T. ) ;
#305 = EDGE_CURVE ( 'NONE', #26, #20, #357, .T. ) ;
#306 = DIRECTION ( 'NONE',  ( -2.438088387897960049E-29, 3.491481338843145188E-15, 1.000000000000000000 ) ) ;
#307 = AXIS2_PLACEMENT_3D ( 'NONE', #32, #1, #276 ) ;
#308 = FACE_OUTER_BOUND ( 'NONE', #198, .T. ) ;
#309 = EDGE_LOOP ( 'NONE', ( #124, #176 ) ) ;
#310 = EDGE_CURVE ( 'NONE', #28, #201, #258, .T. ) ;
#311 = VERTEX_POINT ( 'NONE', #363 ) ;
#312 = AXIS2_PLACEMENT_3D ( 'NONE', #239, #217, #183 ) ;
#313 = PERSON_AND_ORGANIZATION ( #121, #115 ) ;
#314 = CONICAL_SURFACE ( 'NONE', #162, 0.3926999999999999935, 0.7853981633973459164 ) ;
#315 = EDGE_CURVE ( 'NONE', #201, #28, #125, .T. ) ;
#316 = FACE_OUTER_BOUND ( 'NONE', #250, .T. ) ;
#317 = LOCAL_TIME ( 11, 3, 52.00000000000000000, #233 ) ;
#318 = CC_DESIGN_PERSON_AND_ORGANIZATION_ASSIGNMENT ( #313, #122, ( #355 ) ) ;
#319 = DIRECTION ( 'NONE',  ( -2.445468806185136597E-29, 3.491481338843145583E-15, 1.000000000000000000 ) ) ;
#320 = DIRECTION ( 'NONE',  ( -2.445468806185136597E-29, 3.491481338843145583E-15, 1.000000000000000000 ) ) ;
#321 = EDGE_CURVE ( 'NONE', #333, #28, #47, .T. ) ;
#322 = AXIS2_PLACEMENT_3D ( 'NONE', #262, #221, #248 ) ;
#323 = CARTESIAN_POINT ( 'NONE',  ( -0.3937000000000000499, -7.512064772581583563E-15, -3.937000000000000277 ) ) ;
#324 = CC_DESIGN_APPROVAL ( #156, ( #284 ) ) ;
#325 = DIRECTION ( 'NONE',  ( -1.000000000000000000, 6.982962677686266711E-15, 0.000000000000000000 ) ) ;
#326 = CARTESIAN_POINT ( 'NONE',  ( 2.609533152651356226E-15, 0.3736999999999998101, -1.300498063835582617E-15 ) ) ;
#327 = COORDINATED_UNIVERSAL_TIME_OFFSET ( 5, 0, .BEHIND. ) ;
#328 = CARTESIAN_POINT ( 'NONE',  ( 0.3926999999999999935, -9.615190459040128910E-15, -1.968500000000000361 ) ) ;
#329 = PRODUCT_DEFINITION_SHAPE ( 'NONE', 'NONE',  #170 ) ;
#330 = CARTESIAN_POINT ( 'NONE',  ( -0.3937000000000000499, -7.512064772581583563E-15, -1.968500000000000139 ) ) ;
#331 = ORIENTED_EDGE ( 'NONE', *, *, #197, .F. ) ;
#332 = PLANE ( 'NONE',  #99 ) ;
#333 = VERTEX_POINT ( 'NONE', #328 ) ;
#334 = AXIS2_PLACEMENT_3D ( 'NONE', #206, #306, #177 ) ;
#335 = VECTOR ( 'NONE', #240, 39.37007874015748143 ) ;
#336 = APPROVAL ( #44, 'UNSPECIFIED' ) ;
#337 = PERSON_AND_ORGANIZATION ( #121, #115 ) ;
#338 = EDGE_LOOP ( 'NONE', ( #106, #61, #147, #200 ) ) ;
#339 = PERSON_AND_ORGANIZATION_ROLE ( 'creator' ) ;
#340 = ORIENTED_EDGE ( 'NONE', *, *, #197, .T. ) ;
#341 = PERSON_AND_ORGANIZATION ( #121, #115 ) ;
#342 = VECTOR ( 'NONE', #123, 39.37007874015748143 ) ;
#343 = DATE_AND_TIME ( #82, #33 ) ;
#344 = CALENDAR_DATE ( 2024, 3, 5 ) ;
#345 = ADVANCED_FACE ( 'NONE', ( #75 ), #299, .F. ) ;
#346 = CYLINDRICAL_SURFACE ( 'NONE', #251, 0.3936999999999999389 ) ;
#347 = CYLINDRICAL_SURFACE ( 'NONE', #277, 0.3937000000000000499 ) ;
#348 = CC_DESIGN_APPROVAL ( #336, ( #355 ) ) ;
#349 = ADVANCED_FACE ( 'NONE', ( #308 ), #241, .T. ) ;
#350 = CARTESIAN_POINT ( 'NONE',  ( 0.000000000000000000, 0.000000000000000000, 0.000000000000000000 ) ) ;
#351 = DIRECTION ( 'NONE',  ( 1.000000000000000000, -6.982962677686266711E-15, 0.000000000000000000 ) ) ;
#352 = AXIS2_PLACEMENT_3D ( 'NONE', #234, #320, #39 ) ;
#353 = CIRCLE ( 'NONE', #64, 0.3926999999999999935 ) ;
#354 = ORIENTED_EDGE ( 'NONE', *, *, #305, .F. ) ;
#355 = SECURITY_CLASSIFICATION ( '', '', #209 ) ;
#356 = DIRECTION ( 'NONE',  ( 0.7071067811865456854, -7.319954787623249734E-15, -0.7071067811865493491 ) ) ;
#357 = LINE ( 'NONE', #25, #93 ) ;
#358 = DIRECTION ( 'NONE',  ( -1.000000000000000000, 6.982962677686265922E-15, -4.876176775795935793E-29 ) ) ;
#359 = CIRCLE ( 'NONE', #42, 0.3736999999999998101 ) ;
#360 = ADVANCED_FACE ( 'NONE', ( #113 ), #128, .T. ) ;
#361 = CARTESIAN_POINT ( 'NONE',  ( -0.3926999999999999935, -4.077381237834596316E-15, -1.968500000000000361 ) ) ;
#362 = ORIENTED_EDGE ( 'NONE', *, *, #321, .F. ) ;
#363 = CARTESIAN_POINT ( 'NONE',  ( 0.3937000000000000499, -9.622173421717814924E-15, -1.968500000000000139 ) ) ;
#364 = EDGE_LOOP ( 'NONE', ( #83, #340, #8, #354 ) ) ;
#365 = DIRECTION ( 'NONE',  ( 2.445468806185136597E-29, -3.491481338843145583E-15, -1.000000000000000000 ) ) ;
#366 = ORIENTED_EDGE ( 'NONE', *, *, #17, .F. ) ;
ENDSEC;
END-ISO-10303-21;
