ISO-10303-21;
HEADER;
FILE_DESCRIPTION (( 'STEP AP203' ),
    '1' );
FILE_NAME ('77232.STEP',
    '2024-02-29T17:00:22',
    ( '' ),
    ( '' ),
    'SwSTEP 2.0',
    'SolidWorks 2023',
    '' );
FILE_SCHEMA (( 'CONFIG_CONTROL_DESIGN' ));
ENDSEC;

DATA;
#1 = CC_DESIGN_PERSON_AND_ORGANIZATION_ASSIGNMENT ( #363, #19, ( #179 ) ) ;
#2 = DATE_AND_TIME ( #143, #95 ) ;
#3 = ORIENTED_EDGE ( 'NONE', *, *, #114, .F. ) ;
#4 = CIRCLE ( 'NONE', #31, 0.3114999999999999991 ) ;
#5 = ORIENTED_EDGE ( 'NONE', *, *, #213, .F. ) ;
#6 = PERSON_AND_ORGANIZATION ( #28, #27 ) ;
#7 = ORIENTED_EDGE ( 'NONE', *, *, #150, .F. ) ;
#8 = DIRECTION ( 'NONE',  ( 1.000000000000000000, -6.982962677686265133E-15, 0.000000000000000000 ) ) ;
#9 = CARTESIAN_POINT ( 'NONE',  ( 4.890937612370287172E-31, -6.982962677686310098E-17, -0.02000000000000005593 ) ) ;
#10 = AXIS2_PLACEMENT_3D ( 'NONE', #343, #149, #202 ) ;
#11 = DIRECTION ( 'NONE',  ( -2.445468806185136877E-29, 3.491481338843145188E-15, 1.000000000000000000 ) ) ;
#12 = DIRECTION ( 'NONE',  ( -2.445468806185136597E-29, 3.491481338843145583E-15, 1.000000000000000000 ) ) ;
#13 = DIRECTION ( 'NONE',  ( 2.438088387897960049E-29, -3.491481338843145188E-15, -1.000000000000000000 ) ) ;
#14 = DIRECTION ( 'NONE',  ( -2.445468806185136877E-29, 3.491481338843145188E-15, 1.000000000000000000 ) ) ;
#15 = CONICAL_SURFACE ( 'NONE', #227, 0.3124999999999998335, 0.7853981633974473908 ) ;
#16 = DIRECTION ( 'NONE',  ( -2.445468806185136597E-29, 3.491481338843145583E-15, 1.000000000000000000 ) ) ;
#17 = DIRECTION ( 'NONE',  ( 1.000000000000000000, -6.982962677686266711E-15, 4.876067333457693400E-29 ) ) ;
#18 = ADVANCED_FACE ( 'NONE', ( #177 ), #348, .F. ) ;
#19 = PERSON_AND_ORGANIZATION_ROLE ( 'creator' ) ;
#20 = CARTESIAN_POINT ( 'NONE',  ( 4.890937612370287172E-31, -6.982962677686310098E-17, -0.02000000000000005593 ) ) ;
#21 = APPLICATION_PROTOCOL_DEFINITION ( 'international standard', 'config_control_design', 1994, #57 ) ;
#22 = AXIS2_PLACEMENT_3D ( 'NONE', #70, #72, #187 ) ;
#23 = EDGE_LOOP ( 'NONE', ( #59, #278, #123, #152 ) ) ;
#24 = APPROVAL_DATE_TIME ( #115, #148 ) ;
#25 = LINE ( 'NONE', #330, #178 ) ;
#26 = CIRCLE ( 'NONE', #157, 0.2924999999999997602 ) ;
#27 = ORGANIZATION ( 'UNSPECIFIED', 'UNSPECIFIED', '' ) ;
#28 = PERSON ( 'UNSPECIFIED', 'UNSPECIFIED', 'UNSPECIFIED', ('UNSPECIFIED'), ('UNSPECIFIED'), ('UNSPECIFIED') ) ;
#29 = ORIENTED_EDGE ( 'NONE', *, *, #349, .F. ) ;
#30 = DATE_AND_TIME ( #312, #255 ) ;
#31 = AXIS2_PLACEMENT_3D ( 'NONE', #298, #44, #236 ) ;
#32 = VERTEX_POINT ( 'NONE', #189 ) ;
#33 = AXIS2_PLACEMENT_3D ( 'NONE', #266, #13, #129 ) ;
#34 = EDGE_LOOP ( 'NONE', ( #5, #3 ) ) ;
#35 = VERTEX_POINT ( 'NONE', #40 ) ;
#36 = DIRECTION ( 'NONE',  ( -1.000000000000000000, 6.982962677686265922E-15, -4.876176775795935793E-29 ) ) ;
#37 = DIRECTION ( 'NONE',  ( -2.445468806185136597E-29, 3.491481338843145583E-15, 1.000000000000000000 ) ) ;
#38 = VECTOR ( 'NONE', #161, 39.37007874015748143 ) ;
#39 = DIRECTION ( 'NONE',  ( 1.000000000000000000, -6.982962677686265133E-15, 0.000000000000000000 ) ) ;
#40 = CARTESIAN_POINT ( 'NONE',  ( 0.3125000000000000000, -1.789384186157111367E-14, -4.500000000000000000 ) ) ;
#41 = DIRECTION ( 'NONE',  ( -2.445468806185136597E-29, 3.491481338843145583E-15, 1.000000000000000000 ) ) ;
#42 = CYLINDRICAL_SURFACE ( 'NONE', #168, 0.3124999999999998890 ) ;
#43 = DIRECTION ( 'NONE',  ( 1.000000000000000000, -6.982962677686269077E-15, 0.000000000000000000 ) ) ;
#44 = DIRECTION ( 'NONE',  ( -2.445468806185136597E-29, 3.491481338843145583E-15, 1.000000000000000000 ) ) ;
#45 = ADVANCED_FACE ( 'NONE', ( #127 ), #42, .T. ) ;
#46 = CC_DESIGN_APPROVAL ( #166, ( #179 ) ) ;
#47 = APPLICATION_PROTOCOL_DEFINITION ( 'international standard', 'config_control_design', 1994, #56 ) ;
#48 = FACE_OUTER_BOUND ( 'NONE', #121, .T. ) ;
#49 = CALENDAR_DATE ( 2024, 29, 2 ) ;
#50 = COORDINATED_UNIVERSAL_TIME_OFFSET ( 5, 0, .BEHIND. ) ;
#51 = CARTESIAN_POINT ( 'NONE',  ( 1.100460962783311469E-28, -1.571166602479415690E-14, -4.500000000000000000 ) ) ;
#52 = APPROVAL_STATUS ( 'not_yet_approved' ) ;
#53 = VECTOR ( 'NONE', #190, 39.37007874015748854 ) ;
#54 = ORIENTED_EDGE ( 'NONE', *, *, #140, .T. ) ;
#55 = CIRCLE ( 'NONE', #364, 0.3125000000000000000 ) ;
#56 = APPLICATION_CONTEXT ( 'configuration controlled 3d designs of mechanical parts and assemblies' ) ;
#57 = APPLICATION_CONTEXT ( 'configuration controlled 3d designs of mechanical parts and assemblies' ) ;
#58 = EDGE_LOOP ( 'NONE', ( #221, #144 ) ) ;
#59 = ORIENTED_EDGE ( 'NONE', *, *, #213, .T. ) ;
#60 = DATE_TIME_ROLE ( 'classification_date' ) ;
#61 = DIMENSIONAL_EXPONENTS ( 1.000000000000000000, 0.000000000000000000, 0.000000000000000000, 0.000000000000000000, 0.000000000000000000, 0.000000000000000000, 0.000000000000000000 ) ;
#62 = VECTOR ( 'NONE', #323, 39.37007874015748143 ) ;
#63 = ORIENTED_EDGE ( 'NONE', *, *, #340, .T. ) ;
#64 = CARTESIAN_POINT ( 'NONE',  ( -0.3125000000000000000, -9.126868301989911345E-15, -4.500000000000000000 ) ) ;
#65 = ORIENTED_EDGE ( 'NONE', *, *, #116, .F. ) ;
#66 = CARTESIAN_POINT ( 'NONE',  ( 2.182175836777007256E-15, 0.3124999999999930611, -2.000000000000000888 ) ) ;
#67 = CARTESIAN_POINT ( 'NONE',  ( 0.3124999999999998335, -2.213735251080465334E-15, -0.02000000000000005593 ) ) ;
#68 = ADVANCED_FACE ( 'NONE', ( #48 ), #220, .T. ) ;
#69 = PRODUCT_RELATED_PRODUCT_CATEGORY ( 'detail', '', ( #338 ) ) ;
#70 = CARTESIAN_POINT ( 'NONE',  ( 4.890937612370287172E-31, -6.982962677686310098E-17, -0.02000000000000005593 ) ) ;
#71 = DIRECTION ( 'NONE',  ( -2.445468806185136877E-29, 3.491481338843145188E-15, 1.000000000000000000 ) ) ;
#72 = DIRECTION ( 'NONE',  ( 2.445468806185136597E-29, -3.491481338843145583E-15, -1.000000000000000000 ) ) ;
#73 = FACE_OUTER_BOUND ( 'NONE', #58, .T. ) ;
#74 = DIRECTION ( 'NONE',  ( 2.438088387897960049E-29, -3.491481338843145188E-15, -1.000000000000000000 ) ) ;
#75 =( NAMED_UNIT ( * ) PLANE_ANGLE_UNIT ( ) SI_UNIT ( $, .RADIAN. ) );
#76 = LINE ( 'NONE', #105, #88 ) ;
#77 = APPROVAL_PERSON_ORGANIZATION ( #253, #166, #163 ) ;
#78 = COORDINATED_UNIVERSAL_TIME_OFFSET ( 5, 0, .BEHIND. ) ;
#79 = PERSON_AND_ORGANIZATION ( #28, #27 ) ;
#80 = EDGE_CURVE ( 'NONE', #176, #155, #351, .T. ) ;
#81 = APPROVAL_STATUS ( 'not_yet_approved' ) ;
#82 = CYLINDRICAL_SURFACE ( 'NONE', #282, 0.3124999999999998890 ) ;
#83 = ORIENTED_EDGE ( 'NONE', *, *, #170, .T. ) ;
#84 = AXIS2_PLACEMENT_3D ( 'NONE', #185, #267, #239 ) ;
#85 = DIRECTION ( 'NONE',  ( -0.7071067811865232589, 7.493145998870265808E-15, 0.7071067811865715536 ) ) ;
#86 = ORIENTED_EDGE ( 'NONE', *, *, #198, .F. ) ;
#87 = CARTESIAN_POINT ( 'NONE',  ( -0.3125000000000000000, -9.126868301989911345E-15, -2.000000000000000000 ) ) ;
#88 = VECTOR ( 'NONE', #14, 39.37007874015748143 ) ;
#89 = SECURITY_CLASSIFICATION ( '', '', #139 ) ;
#90 = EDGE_CURVE ( 'NONE', #337, #155, #132, .T. ) ;
#91 = ORIENTED_EDGE ( 'NONE', *, *, #90, .F. ) ;
#92 = APPROVAL_DATE_TIME ( #30, #324 ) ;
#93 = ORIENTED_EDGE ( 'NONE', *, *, #280, .F. ) ;
#94 = EDGE_LOOP ( 'NONE', ( #317, #199, #334, #112 ) ) ;
#95 = LOCAL_TIME ( 12, 0, 22.00000000000000000, #50 ) ;
#96 = DIRECTION ( 'NONE',  ( 1.000000000000000000, -6.982962677686265133E-15, 0.000000000000000000 ) ) ;
#97 = CC_DESIGN_PERSON_AND_ORGANIZATION_ASSIGNMENT ( #137, #272, ( #179 ) ) ;
#98 = CARTESIAN_POINT ( 'NONE',  ( 0.000000000000000000, 0.000000000000000000, 0.000000000000000000 ) ) ;
#99 = DIRECTION ( 'NONE',  ( -2.445468806185136597E-29, 3.491481338843145583E-15, 1.000000000000000000 ) ) ;
#100 = CARTESIAN_POINT ( 'NONE',  ( -0.3125000000000000000, -1.304204362311840281E-15, -1.998999999999999888 ) ) ;
#101 = AXIS2_PLACEMENT_3D ( 'NONE', #320, #16, #8 ) ;
#102 = AXIS2_PLACEMENT_3D ( 'NONE', #243, #332, #110 ) ;
#103 = PLANE ( 'NONE',  #174 ) ;
#104 = CARTESIAN_POINT ( 'NONE',  ( 4.890937612370287172E-31, -6.982962677686310098E-17, -0.02000000000000005593 ) ) ;
#105 = CARTESIAN_POINT ( 'NONE',  ( -0.3125000000000000000, 2.220446049250313081E-15, -1.537167215704658232E-29 ) ) ;
#106 = ORIENTED_EDGE ( 'NONE', *, *, #292, .F. ) ;
#107 = LENGTH_MEASURE_WITH_UNIT ( LENGTH_MEASURE( 0.02539999999999999897 ), #251 );
#108 = COORDINATED_UNIVERSAL_TIME_OFFSET ( 5, 0, .BEHIND. ) ;
#109 = EDGE_CURVE ( 'NONE', #209, #285, #26, .T. ) ;
#110 = DIRECTION ( 'NONE',  ( 1.000000000000000000, 0.000000000000000000, 0.000000000000000000 ) ) ;
#111 = EDGE_LOOP ( 'NONE', ( #230, #228, #54, #93 ) ) ;
#112 = ORIENTED_EDGE ( 'NONE', *, *, #140, .F. ) ;
#113 = CIRCLE ( 'NONE', #262, 0.3125000000000000000 ) ;
#114 = EDGE_CURVE ( 'NONE', #206, #153, #4, .T. ) ;
#115 = DATE_AND_TIME ( #329, #205 ) ;
#116 = EDGE_CURVE ( 'NONE', #259, #35, #275, .T. ) ;
#117 = SHAPE_DEFINITION_REPRESENTATION ( #296, #136 ) ;
#118 = APPROVAL_STATUS ( 'not_yet_approved' ) ;
#119 = AXIS2_PLACEMENT_3D ( 'NONE', #138, #244, #307 ) ;
#120 =( GEOMETRIC_REPRESENTATION_CONTEXT ( 3 ) GLOBAL_UNCERTAINTY_ASSIGNED_CONTEXT ( ( #281 ) ) GLOBAL_UNIT_ASSIGNED_CONTEXT ( ( #279, #75, #276 ) ) REPRESENTATION_CONTEXT ( 'NONE', 'WORKASPACE' ) );
#121 = EDGE_LOOP ( 'NONE', ( #261, #65 ) ) ;
#122 = EDGE_LOOP ( 'NONE', ( #86, #260, #319, #29 ) ) ;
#123 = ORIENTED_EDGE ( 'NONE', *, *, #340, .F. ) ;
#124 = EDGE_CURVE ( 'NONE', #259, #252, #76, .T. ) ;
#125 = CARTESIAN_POINT ( 'NONE',  ( -0.3124999999999998335, 2.112346210000093866E-15, -0.02000000000000005593 ) ) ;
#126 = CIRCLE ( 'NONE', #101, 0.3125000000000000000 ) ;
#127 = FACE_OUTER_BOUND ( 'NONE', #341, .T. ) ;
#128 = DIRECTION ( 'NONE',  ( 1.000000000000000000, -6.982962677686269077E-15, 0.000000000000000000 ) ) ;
#129 = DIRECTION ( 'NONE',  ( -1.000000000000000000, 6.982962677686265922E-15, -4.876176775795935793E-29 ) ) ;
#130 = DIRECTION ( 'NONE',  ( 1.000000000000000000, -6.982962677686266711E-15, 4.876176775795935232E-29 ) ) ;
#131 = LINE ( 'NONE', #265, #318 ) ;
#132 = LINE ( 'NONE', #160, #240 ) ;
#133 = AXIS2_PLACEMENT_3D ( 'NONE', #181, #41, #223 ) ;
#134 = FACE_OUTER_BOUND ( 'NONE', #23, .T. ) ;
#135 = CARTESIAN_POINT ( 'NONE',  ( 0.3114999999999999991, -9.158155551785564287E-15, -2.000000000000000000 ) ) ;
#136 = ADVANCED_BREP_SHAPE_REPRESENTATION ( '77232', ( #248, #249, #102 ), #120 ) ;
#137 = PERSON_AND_ORGANIZATION ( #28, #27 ) ;
#138 = CARTESIAN_POINT ( 'NONE',  ( 4.890937612370273194E-29, -6.982962677686291165E-15, -2.000000000000000000 ) ) ;
#139 = SECURITY_CLASSIFICATION_LEVEL ( 'unclassified' ) ;
#140 = EDGE_CURVE ( 'NONE', #35, #32, #350, .T. ) ;
#141 = CC_DESIGN_DATE_AND_TIME_ASSIGNMENT ( #2, #60, ( #89 ) ) ;
#142 = CIRCLE ( 'NONE', #162, 0.3114999999999999991 ) ;
#143 = CALENDAR_DATE ( 2024, 29, 2 ) ;
#144 = ORIENTED_EDGE ( 'NONE', *, *, #280, .T. ) ;
#145 = DATE_TIME_ROLE ( 'creation_date' ) ;
#146 = DIRECTION ( 'NONE',  ( 1.000000000000000000, -6.982962677686269077E-15, 0.000000000000000000 ) ) ;
#147 = CLOSED_SHELL ( 'NONE', ( #358, #68, #304, #159 ) ) ;
#148 = APPROVAL ( #81, 'UNSPECIFIED' ) ;
#149 = DIRECTION ( 'NONE',  ( -2.445468806185136597E-29, 3.491481338843145583E-15, 1.000000000000000000 ) ) ;
#150 = EDGE_CURVE ( 'NONE', #285, #209, #184, .T. ) ;
#151 = VERTEX_POINT ( 'NONE', #100 ) ;
#152 = ORIENTED_EDGE ( 'NONE', *, *, #154, .F. ) ;
#153 = VERTEX_POINT ( 'NONE', #135 ) ;
#154 = EDGE_CURVE ( 'NONE', #153, #337, #215, .T. ) ;
#155 = VERTEX_POINT ( 'NONE', #67 ) ;
#156 = CARTESIAN_POINT ( 'NONE',  ( 0.3125000000000000000, -9.161647033124407294E-15, -1.998999999999999888 ) ) ;
#157 = AXIS2_PLACEMENT_3D ( 'NONE', #158, #328, #321 ) ;
#158 = CARTESIAN_POINT ( 'NONE',  ( -1.043851414335219820E-46, 1.490343170380447200E-32, 4.268512490100411279E-18 ) ) ;
#159 = ADVANCED_FACE ( 'NONE', ( #294 ), #263, .T. ) ;
#160 = CARTESIAN_POINT ( 'NONE',  ( 0.3124999999999998890, -2.182175836776957558E-15, 1.523805242436229235E-29 ) ) ;
#161 = DIRECTION ( 'NONE',  ( -2.445468806185136877E-29, 3.491481338843145188E-15, 1.000000000000000000 ) ) ;
#162 = AXIS2_PLACEMENT_3D ( 'NONE', #246, #229, #146 ) ;
#163 = APPROVAL_ROLE ( '' ) ;
#164 = DIRECTION ( 'NONE',  ( -2.445468806185136597E-29, 3.491481338843145583E-15, 1.000000000000000000 ) ) ;
#165 = COORDINATED_UNIVERSAL_TIME_OFFSET ( 5, 0, .BEHIND. ) ;
#166 = APPROVAL ( #52, 'UNSPECIFIED' ) ;
#167 = DIRECTION ( 'NONE',  ( -1.000000000000000000, 6.982962677686265133E-15, 0.000000000000000000 ) ) ;
#168 = AXIS2_PLACEMENT_3D ( 'NONE', #242, #354, #130 ) ;
#169 = APPROVAL_DATE_TIME ( #245, #166 ) ;
#170 = EDGE_CURVE ( 'NONE', #155, #176, #335, .T. ) ;
#171 = ORIENTED_EDGE ( 'NONE', *, *, #349, .T. ) ;
#172 = PERSON_AND_ORGANIZATION ( #28, #27 ) ;
#173 = CARTESIAN_POINT ( 'NONE',  ( 0.2924999999999997602, -2.110215457714318353E-15, 4.268512490114932791E-18 ) ) ;
#174 = AXIS2_PLACEMENT_3D ( 'NONE', #66, #186, #36 ) ;
#175 = ADVANCED_FACE ( 'NONE', ( #322 ), #360, .T. ) ;
#176 = VERTEX_POINT ( 'NONE', #218 ) ;
#177 = FACE_OUTER_BOUND ( 'NONE', #308, .T. ) ;
#178 = VECTOR ( 'NONE', #85, 39.37007874015748854 ) ;
#179 = PRODUCT_DEFINITION_FORMATION_WITH_SPECIFIED_SOURCE ( 'ANY', '', #338, .NOT_KNOWN. ) ;
#180 = ORIENTED_EDGE ( 'NONE', *, *, #292, .T. ) ;
#181 = CARTESIAN_POINT ( 'NONE',  ( 4.890937612370273194E-29, -6.982962677686291165E-15, -2.000000000000000000 ) ) ;
#182 = ORIENTED_EDGE ( 'NONE', *, *, #277, .F. ) ;
#183 = CARTESIAN_POINT ( 'NONE',  ( 4.890937612370273194E-29, -6.982962677686291165E-15, -2.000000000000000000 ) ) ;
#184 = CIRCLE ( 'NONE', #295, 0.2924999999999997602 ) ;
#185 = CARTESIAN_POINT ( 'NONE',  ( 1.100460962783311469E-28, -1.571166602479415690E-14, -4.500000000000000000 ) ) ;
#186 = DIRECTION ( 'NONE',  ( 2.438088387897960049E-29, -3.491481338843145188E-15, -1.000000000000000000 ) ) ;
#187 = DIRECTION ( 'NONE',  ( -1.000000000000000000, 6.982962677686265133E-15, 0.000000000000000000 ) ) ;
#188 = CARTESIAN_POINT ( 'NONE',  ( 4.888492143564087591E-29, -6.979471196347447369E-15, -1.998999999999999888 ) ) ;
#189 = CARTESIAN_POINT ( 'NONE',  ( 0.3125000000000000000, -9.165138514463248723E-15, -2.000000000000000000 ) ) ;
#190 = DIRECTION ( 'NONE',  ( 0.7071067811865232589, -2.468850131082003836E-15, 0.7071067811865715536 ) ) ;
#191 = AXIS2_PLACEMENT_3D ( 'NONE', #98, #164, #327 ) ;
#192 = CC_DESIGN_PERSON_AND_ORGANIZATION_ASSIGNMENT ( #172, #195, ( #286 ) ) ;
#193 = MECHANICAL_CONTEXT ( 'NONE', #56, 'mechanical' ) ;
#194 = DIRECTION ( 'NONE',  ( 1.000000000000000000, -6.982962677686269077E-15, 0.000000000000000000 ) ) ;
#195 = PERSON_AND_ORGANIZATION_ROLE ( 'creator' ) ;
#196 = DIRECTION ( 'NONE',  ( 2.445468806185136597E-29, -3.491481338843145583E-15, -1.000000000000000000 ) ) ;
#197 = DATE_AND_TIME ( #49, #233 ) ;
#198 = EDGE_CURVE ( 'NONE', #206, #151, #25, .T. ) ;
#199 = ORIENTED_EDGE ( 'NONE', *, *, #124, .T. ) ;
#200 = ORIENTED_EDGE ( 'NONE', *, *, #257, .F. ) ;
#201 = FACE_OUTER_BOUND ( 'NONE', #207, .T. ) ;
#202 = DIRECTION ( 'NONE',  ( 1.000000000000000000, -6.982962677686269077E-15, 0.000000000000000000 ) ) ;
#203 = AXIS2_PLACEMENT_3D ( 'NONE', #51, #359, #194 ) ;
#204 = COORDINATED_UNIVERSAL_TIME_OFFSET ( 5, 0, .BEHIND. ) ;
#205 = LOCAL_TIME ( 12, 0, 22.00000000000000000, #108 ) ;
#206 = VERTEX_POINT ( 'NONE', #365 ) ;
#207 = EDGE_LOOP ( 'NONE', ( #182, #7, #309, #316 ) ) ;
#208 = AXIS2_PLACEMENT_3D ( 'NONE', #217, #99, #43 ) ;
#209 = VERTEX_POINT ( 'NONE', #173 ) ;
#210 = CARTESIAN_POINT ( 'NONE',  ( 0.3125000000000000000, -2.182175836776958347E-15, 1.523805242436230075E-29 ) ) ;
#211 = DIRECTION ( 'NONE',  ( -2.445468806185136597E-29, 3.491481338843145583E-15, 1.000000000000000000 ) ) ;
#212 = DIRECTION ( 'NONE',  ( 1.000000000000000000, -6.982962677686265133E-15, 0.000000000000000000 ) ) ;
#213 = EDGE_CURVE ( 'NONE', #153, #206, #142, .T. ) ;
#214 = DIRECTION ( 'NONE',  ( 1.000000000000000000, -6.982962677686266711E-15, 4.876176775795936353E-29 ) ) ;
#215 = LINE ( 'NONE', #346, #53 ) ;
#216 = APPROVAL_PERSON_ORGANIZATION ( #357, #148, #302 ) ;
#217 = CARTESIAN_POINT ( 'NONE',  ( 4.888492143564087591E-29, -6.979471196347447369E-15, -1.998999999999999888 ) ) ;
#218 = CARTESIAN_POINT ( 'NONE',  ( -0.3124999999999998335, 2.112346210000093866E-15, -0.02000000000000005593 ) ) ;
#219 = ADVANCED_FACE ( 'NONE', ( #201 ), #15, .T. ) ;
#220 = PLANE ( 'NONE',  #33 ) ;
#221 = ORIENTED_EDGE ( 'NONE', *, *, #284, .T. ) ;
#222 = AXIS2_PLACEMENT_3D ( 'NONE', #9, #37, #212 ) ;
#223 = DIRECTION ( 'NONE',  ( 1.000000000000000000, -6.982962677686269077E-15, 0.000000000000000000 ) ) ;
#224 = ADVANCED_FACE ( 'NONE', ( #306 ), #303, .F. ) ;
#225 = FACE_OUTER_BOUND ( 'NONE', #362, .T. ) ;
#226 = ORIENTED_EDGE ( 'NONE', *, *, #80, .F. ) ;
#227 = AXIS2_PLACEMENT_3D ( 'NONE', #20, #196, #167 ) ;
#228 = ORIENTED_EDGE ( 'NONE', *, *, #116, .T. ) ;
#229 = DIRECTION ( 'NONE',  ( -2.445468806185136597E-29, 3.491481338843145583E-15, 1.000000000000000000 ) ) ;
#230 = ORIENTED_EDGE ( 'NONE', *, *, #124, .F. ) ;
#231 = ORIENTED_EDGE ( 'NONE', *, *, #277, .T. ) ;
#232 = CIRCLE ( 'NONE', #203, 0.3125000000000000000 ) ;
#233 = LOCAL_TIME ( 12, 0, 22.00000000000000000, #78 ) ;
#234 = CARTESIAN_POINT ( 'NONE',  ( 0.3124999999999998335, -2.213735251080465334E-15, -0.02000000000000005593 ) ) ;
#235 = FACE_OUTER_BOUND ( 'NONE', #94, .T. ) ;
#236 = DIRECTION ( 'NONE',  ( 1.000000000000000000, -6.982962677686269077E-15, 0.000000000000000000 ) ) ;
#237 = EDGE_CURVE ( 'NONE', #35, #259, #232, .T. ) ;
#238 = DIRECTION ( 'NONE',  ( -0.7071067811865469066, 2.468850131082250355E-15, -0.7071067811865481278 ) ) ;
#239 = DIRECTION ( 'NONE',  ( 1.000000000000000000, -6.982962677686269077E-15, 0.000000000000000000 ) ) ;
#240 = VECTOR ( 'NONE', #11, 39.37007874015748143 ) ;
#241 = CARTESIAN_POINT ( 'NONE',  ( -1.043851414335219820E-46, 1.490343170380447200E-32, 4.268512490100411279E-18 ) ) ;
#242 = CARTESIAN_POINT ( 'NONE',  ( 0.000000000000000000, 0.000000000000000000, 0.000000000000000000 ) ) ;
#243 = CARTESIAN_POINT ( 'NONE',  ( 0.000000000000000000, 0.000000000000000000, 0.000000000000000000 ) ) ;
#244 = DIRECTION ( 'NONE',  ( -2.438088387897960049E-29, 3.491481338843145188E-15, 1.000000000000000000 ) ) ;
#245 = DATE_AND_TIME ( #271, #247 ) ;
#246 = CARTESIAN_POINT ( 'NONE',  ( 4.890937612370273194E-29, -6.982962677686291165E-15, -2.000000000000000000 ) ) ;
#247 = LOCAL_TIME ( 12, 0, 22.00000000000000000, #165 ) ;
#248 = MANIFOLD_SOLID_BREP ( 'Body-Move/Copy2[1]', #147 ) ;
#249 = MANIFOLD_SOLID_BREP ( 'Body-Move/Copy2[2]', #345 ) ;
#250 = ADVANCED_FACE ( 'NONE', ( #225 ), #82, .T. ) ;
#251 =( LENGTH_UNIT ( ) NAMED_UNIT ( * ) SI_UNIT ( $, .METRE. ) );
#252 = VERTEX_POINT ( 'NONE', #87 ) ;
#253 = PERSON_AND_ORGANIZATION ( #28, #27 ) ;
#254 = AXIS2_PLACEMENT_3D ( 'NONE', #104, #355, #96 ) ;
#255 = LOCAL_TIME ( 12, 0, 22.00000000000000000, #204 ) ;
#256 = ADVANCED_FACE ( 'NONE', ( #314 ), #269, .T. ) ;
#257 = EDGE_CURVE ( 'NONE', #285, #176, #310, .T. ) ;
#258 = VECTOR ( 'NONE', #238, 39.37007874015748143 ) ;
#259 = VERTEX_POINT ( 'NONE', #64 ) ;
#260 = ORIENTED_EDGE ( 'NONE', *, *, #114, .T. ) ;
#261 = ORIENTED_EDGE ( 'NONE', *, *, #237, .F. ) ;
#262 = AXIS2_PLACEMENT_3D ( 'NONE', #183, #297, #39 ) ;
#263 = CYLINDRICAL_SURFACE ( 'NONE', #191, 0.3125000000000000000 ) ;
#264 = CC_DESIGN_PERSON_AND_ORGANIZATION_ASSIGNMENT ( #79, #273, ( #338 ) ) ;
#265 = CARTESIAN_POINT ( 'NONE',  ( -0.3124999999999998890, 2.220446049250312292E-15, -1.537167215704657391E-29 ) ) ;
#266 = CARTESIAN_POINT ( 'NONE',  ( 2.182175836777068393E-15, 0.3124999999999842903, -4.500000000000000888 ) ) ;
#267 = DIRECTION ( 'NONE',  ( -2.445468806185136597E-29, 3.491481338843145583E-15, 1.000000000000000000 ) ) ;
#268 = CARTESIAN_POINT ( 'NONE',  ( -0.2924999999999997602, 2.077431396611662611E-15, 4.268512490086005323E-18 ) ) ;
#269 = CONICAL_SURFACE ( 'NONE', #10, 0.3114999999999999991, 0.7853981633974141952 ) ;
#270 = CARTESIAN_POINT ( 'NONE',  ( 2.042516583223231356E-15, 0.2924999999999997602, -1.019124035366569212E-15 ) ) ;
#271 = CALENDAR_DATE ( 2024, 29, 2 ) ;
#272 = PERSON_AND_ORGANIZATION_ROLE ( 'design_supplier' ) ;
#273 = PERSON_AND_ORGANIZATION_ROLE ( 'design_owner' ) ;
#274 = CARTESIAN_POINT ( 'NONE',  ( 0.000000000000000000, 0.000000000000000000, 0.000000000000000000 ) ) ;
#275 = CIRCLE ( 'NONE', #84, 0.3125000000000000000 ) ;
#276 =( NAMED_UNIT ( * ) SI_UNIT ( $, .STERADIAN. ) SOLID_ANGLE_UNIT ( ) );
#277 = EDGE_CURVE ( 'NONE', #209, #155, #353, .T. ) ;
#278 = ORIENTED_EDGE ( 'NONE', *, *, #198, .T. ) ;
#279 =( CONVERSION_BASED_UNIT ( 'INCH', #107 ) LENGTH_UNIT ( ) NAMED_UNIT ( #61 ) );
#280 = EDGE_CURVE ( 'NONE', #252, #32, #126, .T. ) ;
#281 = UNCERTAINTY_MEASURE_WITH_UNIT (LENGTH_MEASURE( 1.000000000000000082E-05 ), #279, 'distance_accuracy_value', 'NONE');
#282 = AXIS2_PLACEMENT_3D ( 'NONE', #274, #333, #315 ) ;
#283 = APPROVAL_PERSON_ORGANIZATION ( #6, #324, #287 ) ;
#284 = EDGE_CURVE ( 'NONE', #32, #252, #113, .T. ) ;
#285 = VERTEX_POINT ( 'NONE', #268 ) ;
#286 = PRODUCT_DEFINITION ( 'UNKNOWN', '', #179, #366 ) ;
#287 = APPROVAL_ROLE ( '' ) ;
#288 = EDGE_LOOP ( 'NONE', ( #291, #231, #83, #200 ) ) ;
#289 = CONICAL_SURFACE ( 'NONE', #133, 0.3114999999999999991, 0.7853981633974141952 ) ;
#290 = ORIENTED_EDGE ( 'NONE', *, *, #90, .T. ) ;
#291 = ORIENTED_EDGE ( 'NONE', *, *, #109, .F. ) ;
#292 = EDGE_CURVE ( 'NONE', #151, #176, #131, .T. ) ;
#293 = CC_DESIGN_DATE_AND_TIME_ASSIGNMENT ( #197, #145, ( #286 ) ) ;
#294 = FACE_OUTER_BOUND ( 'NONE', #111, .T. ) ;
#295 = AXIS2_PLACEMENT_3D ( 'NONE', #241, #301, #17 ) ;
#296 = PRODUCT_DEFINITION_SHAPE ( 'NONE', 'NONE',  #286 ) ;
#297 = DIRECTION ( 'NONE',  ( -2.445468806185136597E-29, 3.491481338843145583E-15, 1.000000000000000000 ) ) ;
#298 = CARTESIAN_POINT ( 'NONE',  ( 4.890937612370273194E-29, -6.982962677686291165E-15, -2.000000000000000000 ) ) ;
#299 = AXIS2_PLACEMENT_3D ( 'NONE', #326, #12, #214 ) ;
#300 = CC_DESIGN_SECURITY_CLASSIFICATION ( #89, ( #179 ) ) ;
#301 = DIRECTION ( 'NONE',  ( -2.445468806185136597E-29, 3.491481338843145583E-15, 1.000000000000000000 ) ) ;
#302 = APPROVAL_ROLE ( '' ) ;
#303 = PLANE ( 'NONE',  #119 ) ;
#304 = ADVANCED_FACE ( 'NONE', ( #73 ), #103, .F. ) ;
#305 = PERSON_AND_ORGANIZATION_ROLE ( 'classification_officer' ) ;
#306 = FACE_OUTER_BOUND ( 'NONE', #34, .T. ) ;
#307 = DIRECTION ( 'NONE',  ( 1.000000000000000000, -6.982962677686265922E-15, 4.876176775795935793E-29 ) ) ;
#308 = EDGE_LOOP ( 'NONE', ( #342, #356 ) ) ;
#309 = ORIENTED_EDGE ( 'NONE', *, *, #257, .T. ) ;
#310 = LINE ( 'NONE', #125, #258 ) ;
#311 = CIRCLE ( 'NONE', #208, 0.3125000000000000000 ) ;
#312 = CALENDAR_DATE ( 2024, 29, 2 ) ;
#313 = CC_DESIGN_PERSON_AND_ORGANIZATION_ASSIGNMENT ( #331, #305, ( #89 ) ) ;
#314 = FACE_OUTER_BOUND ( 'NONE', #122, .T. ) ;
#315 = DIRECTION ( 'NONE',  ( 1.000000000000000000, -6.982962677686266711E-15, 4.876176775795935232E-29 ) ) ;
#316 = ORIENTED_EDGE ( 'NONE', *, *, #80, .T. ) ;
#317 = ORIENTED_EDGE ( 'NONE', *, *, #237, .T. ) ;
#318 = VECTOR ( 'NONE', #71, 39.37007874015748143 ) ;
#319 = ORIENTED_EDGE ( 'NONE', *, *, #154, .T. ) ;
#320 = CARTESIAN_POINT ( 'NONE',  ( 4.890937612370273194E-29, -6.982962677686291165E-15, -2.000000000000000000 ) ) ;
#321 = DIRECTION ( 'NONE',  ( 1.000000000000000000, -6.982962677686266711E-15, 4.876067333457693400E-29 ) ) ;
#322 = FACE_OUTER_BOUND ( 'NONE', #288, .T. ) ;
#323 = DIRECTION ( 'NONE',  ( 0.7071067811865469066, -7.319954787623254468E-15, -0.7071067811865481278 ) ) ;
#324 = APPROVAL ( #118, 'UNSPECIFIED' ) ;
#325 = DIRECTION ( 'NONE',  ( -1.000000000000000000, 6.982962677686265922E-15, -4.876176775795935793E-29 ) ) ;
#326 = CARTESIAN_POINT ( 'NONE',  ( 0.000000000000000000, 0.000000000000000000, 0.000000000000000000 ) ) ;
#327 = DIRECTION ( 'NONE',  ( 1.000000000000000000, -6.982962677686266711E-15, 4.876176775795936353E-29 ) ) ;
#328 = DIRECTION ( 'NONE',  ( -2.445468806185136597E-29, 3.491481338843145583E-15, 1.000000000000000000 ) ) ;
#329 = CALENDAR_DATE ( 2024, 29, 2 ) ;
#330 = CARTESIAN_POINT ( 'NONE',  ( -0.3114999999999999991, -4.769622055793578304E-15, -2.000000000000000000 ) ) ;
#331 = PERSON_AND_ORGANIZATION ( #28, #27 ) ;
#332 = DIRECTION ( 'NONE',  ( 0.000000000000000000, 0.000000000000000000, 1.000000000000000000 ) ) ;
#333 = DIRECTION ( 'NONE',  ( -2.445468806185136597E-29, 3.491481338843145583E-15, 1.000000000000000000 ) ) ;
#334 = ORIENTED_EDGE ( 'NONE', *, *, #284, .F. ) ;
#335 = CIRCLE ( 'NONE', #222, 0.3124999999999998335 ) ;
#336 = CC_DESIGN_APPROVAL ( #324, ( #89 ) ) ;
#337 = VERTEX_POINT ( 'NONE', #156 ) ;
#338 = PRODUCT ( '77232', '77232', '', ( #193 ) ) ;
#339 = AXIS2_PLACEMENT_3D ( 'NONE', #270, #74, #325 ) ;
#340 = EDGE_CURVE ( 'NONE', #337, #151, #55, .T. ) ;
#341 = EDGE_LOOP ( 'NONE', ( #63, #180, #344, #91 ) ) ;
#342 = ORIENTED_EDGE ( 'NONE', *, *, #150, .T. ) ;
#343 = CARTESIAN_POINT ( 'NONE',  ( 4.890937612370273194E-29, -6.982962677686291165E-15, -2.000000000000000000 ) ) ;
#344 = ORIENTED_EDGE ( 'NONE', *, *, #170, .F. ) ;
#345 = CLOSED_SHELL ( 'NONE', ( #361, #45, #175, #219, #250, #256, #224, #18 ) ) ;
#346 = CARTESIAN_POINT ( 'NONE',  ( 0.3114999999999999991, -9.158155551785564287E-15, -2.000000000000000000 ) ) ;
#347 = CYLINDRICAL_SURFACE ( 'NONE', #299, 0.3125000000000000000 ) ;
#348 = PLANE ( 'NONE',  #339 ) ;
#349 = EDGE_CURVE ( 'NONE', #151, #337, #311, .T. ) ;
#350 = LINE ( 'NONE', #210, #38 ) ;
#351 = CIRCLE ( 'NONE', #254, 0.3124999999999998335 ) ;
#352 = CC_DESIGN_APPROVAL ( #148, ( #286 ) ) ;
#353 = LINE ( 'NONE', #234, #62 ) ;
#354 = DIRECTION ( 'NONE',  ( -2.445468806185136597E-29, 3.491481338843145583E-15, 1.000000000000000000 ) ) ;
#355 = DIRECTION ( 'NONE',  ( -2.445468806185136597E-29, 3.491481338843145583E-15, 1.000000000000000000 ) ) ;
#356 = ORIENTED_EDGE ( 'NONE', *, *, #109, .T. ) ;
#357 = PERSON_AND_ORGANIZATION ( #28, #27 ) ;
#358 = ADVANCED_FACE ( 'NONE', ( #235 ), #347, .T. ) ;
#359 = DIRECTION ( 'NONE',  ( -2.445468806185136597E-29, 3.491481338843145583E-15, 1.000000000000000000 ) ) ;
#360 = CONICAL_SURFACE ( 'NONE', #22, 0.3124999999999998335, 0.7853981633974473908 ) ;
#361 = ADVANCED_FACE ( 'NONE', ( #134 ), #289, .T. ) ;
#362 = EDGE_LOOP ( 'NONE', ( #106, #171, #290, #226 ) ) ;
#363 = PERSON_AND_ORGANIZATION ( #28, #27 ) ;
#364 = AXIS2_PLACEMENT_3D ( 'NONE', #188, #211, #128 ) ;
#365 = CARTESIAN_POINT ( 'NONE',  ( -0.3114999999999999991, -4.764323601445356690E-15, -2.000000000000000000 ) ) ;
#366 = DESIGN_CONTEXT ( 'detailed design', #57, 'design' ) ;
ENDSEC;
END-ISO-10303-21;
