ISO-10303-21;
HEADER;
FILE_DESCRIPTION (( 'STEP AP203' ),
    '1' );
FILE_NAME ('77308.STEP',
    '2024-02-29T18:29:36',
    ( '' ),
    ( '' ),
    'SwSTEP 2.0',
    'SolidWorks 2023',
    '' );
FILE_SCHEMA (( 'CONFIG_CONTROL_DESIGN' ));
ENDSEC;

DATA;
#1 = ORIENTED_EDGE ( 'NONE', *, *, #311, .T. ) ;
#2 = ORIENTED_EDGE ( 'NONE', *, *, #90, .T. ) ;
#3 = CIRCLE ( 'NONE', #261, 0.4999999999999997224 ) ;
#4 = DIRECTION ( 'NONE',  ( 1.000000000000000000, -6.982962677686265922E-15, 4.876176775795935793E-29 ) ) ;
#5 = CC_DESIGN_PERSON_AND_ORGANIZATION_ASSIGNMENT ( #103, #180, ( #132 ) ) ;
#6 = CARTESIAN_POINT ( 'NONE',  ( 6.725039217009123399E-29, -9.601573681818648281E-15, -2.749999999999999556 ) ) ;
#7 = FACE_OUTER_BOUND ( 'NONE', #37, .T. ) ;
#8 = ORIENTED_EDGE ( 'NONE', *, *, #294, .T. ) ;
#9 = CALENDAR_DATE ( 2024, 29, 2 ) ;
#10 = VECTOR ( 'NONE', #41, 39.37007874015748143 ) ;
#11 = CC_DESIGN_PERSON_AND_ORGANIZATION_ASSIGNMENT ( #175, #260, ( #132 ) ) ;
#12 = APPROVAL_PERSON_ORGANIZATION ( #38, #72, #148 ) ;
#13 = DIRECTION ( 'NONE',  ( -0.7071067811865461294, 2.468850131082242072E-15, -0.7071067811865489050 ) ) ;
#14 = ORIENTED_EDGE ( 'NONE', *, *, #311, .F. ) ;
#15 = DIRECTION ( 'NONE',  ( 1.000000000000000000, -6.982962677686266711E-15, 0.000000000000000000 ) ) ;
#16 = CC_DESIGN_PERSON_AND_ORGANIZATION_ASSIGNMENT ( #319, #18, ( #227 ) ) ;
#17 = MANIFOLD_SOLID_BREP ( 'Body-Move/Copy2[1]', #69 ) ;
#18 = PERSON_AND_ORGANIZATION_ROLE ( 'design_owner' ) ;
#19 = LOCAL_TIME ( 13, 29, 36.00000000000000000, #229 ) ;
#20 = CALENDAR_DATE ( 2024, 29, 2 ) ;
#21 = ORIENTED_EDGE ( 'NONE', *, *, #96, .F. ) ;
#22 = AXIS2_PLACEMENT_3D ( 'NONE', #276, #366, #238 ) ;
#23 = ORIENTED_EDGE ( 'NONE', *, *, #96, .T. ) ;
#24 = ADVANCED_FACE ( 'NONE', ( #39 ), #94, .T. ) ;
#25 = DIRECTION ( 'NONE',  ( -2.445468806185136877E-29, 3.491481338843145188E-15, 1.000000000000000000 ) ) ;
#26 = DIRECTION ( 'NONE',  ( -1.000000000000000000, 6.982962677686265922E-15, -4.876176775795935793E-29 ) ) ;
#27 = MECHANICAL_CONTEXT ( 'NONE', #202, 'mechanical' ) ;
#28 = CC_DESIGN_DATE_AND_TIME_ASSIGNMENT ( #193, #176, ( #128 ) ) ;
#29 = CARTESIAN_POINT ( 'NONE',  ( 4.890937612370304688E-31, -6.982962677686335982E-17, -0.02000000000000012879 ) ) ;
#30 = EDGE_CURVE ( 'NONE', #87, #109, #123, .T. ) ;
#31 = AXIS2_PLACEMENT_3D ( 'NONE', #63, #172, #199 ) ;
#32 = DIRECTION ( 'NONE',  ( -1.000000000000000000, 6.982962677686266711E-15, 0.000000000000000000 ) ) ;
#33 = VECTOR ( 'NONE', #47, 39.37007874015748143 ) ;
#34 = ORIENTED_EDGE ( 'NONE', *, *, #144, .F. ) ;
#35 = LOCAL_TIME ( 13, 29, 36.00000000000000000, #215 ) ;
#36 = DIRECTION ( 'NONE',  ( -2.438088387897960049E-29, 3.491481338843145188E-15, 1.000000000000000000 ) ) ;
#37 = EDGE_LOOP ( 'NONE', ( #240, #170, #335, #313 ) ) ;
#38 = PERSON_AND_ORGANIZATION ( #358, #169 ) ;
#39 = FACE_OUTER_BOUND ( 'NONE', #220, .T. ) ;
#40 = CARTESIAN_POINT ( 'NONE',  ( 6.725039217009123399E-29, -9.601573681818648281E-15, -2.749999999999999556 ) ) ;
#41 = DIRECTION ( 'NONE',  ( 0.7071067811866199593, -2.468850131083015945E-15, 0.7071067811864750752 ) ) ;
#42 = EDGE_LOOP ( 'NONE', ( #138, #197, #76, #246 ) ) ;
#43 = PRODUCT_DEFINITION_SHAPE ( 'NONE', 'NONE',  #128 ) ;
#44 = CARTESIAN_POINT ( 'NONE',  ( 0.5000000000000000000, -2.356749903719122272E-14, -5.750000000000000000 ) ) ;
#45 = EDGE_CURVE ( 'NONE', #109, #145, #95, .T. ) ;
#46 = PLANE ( 'NONE',  #285 ) ;
#47 = DIRECTION ( 'NONE',  ( -2.445468806185136877E-29, 3.491481338843145188E-15, 1.000000000000000000 ) ) ;
#48 = EDGE_LOOP ( 'NONE', ( #268, #214, #350, #62 ) ) ;
#49 = EDGE_CURVE ( 'NONE', #87, #336, #265, .T. ) ;
#50 = DIMENSIONAL_EXPONENTS ( 1.000000000000000000, 0.000000000000000000, 0.000000000000000000, 0.000000000000000000, 0.000000000000000000, 0.000000000000000000, 0.000000000000000000 ) ;
#51 = APPROVAL_PERSON_ORGANIZATION ( #354, #75, #140 ) ;
#52 =( NAMED_UNIT ( * ) PLANE_ANGLE_UNIT ( ) SI_UNIT ( $, .RADIAN. ) );
#53 = EDGE_CURVE ( 'NONE', #145, #329, #296, .T. ) ;
#54 = DIRECTION ( 'NONE',  ( 2.438088387897960049E-29, -3.491481338843145188E-15, -1.000000000000000000 ) ) ;
#55 =( NAMED_UNIT ( * ) SI_UNIT ( $, .STERADIAN. ) SOLID_ANGLE_UNIT ( ) );
#56 = LOCAL_TIME ( 13, 29, 36.00000000000000000, #204 ) ;
#57 = DIRECTION ( 'NONE',  ( 1.000000000000000000, -6.982962677686270655E-15, 0.000000000000000000 ) ) ;
#58 = AXIS2_PLACEMENT_3D ( 'NONE', #235, #79, #15 ) ;
#59 = EDGE_CURVE ( 'NONE', #329, #314, #3, .T. ) ;
#60 = VERTEX_POINT ( 'NONE', #153 ) ;
#61 = AXIS2_PLACEMENT_3D ( 'NONE', #107, #113, #321 ) ;
#62 = ORIENTED_EDGE ( 'NONE', *, *, #127, .F. ) ;
#63 = CARTESIAN_POINT ( 'NONE',  ( 0.000000000000000000, 0.000000000000000000, 0.000000000000000000 ) ) ;
#64 = AXIS2_PLACEMENT_3D ( 'NONE', #305, #142, #363 ) ;
#65 = COORDINATED_UNIVERSAL_TIME_OFFSET ( 5, 0, .BEHIND. ) ;
#66 = VERTEX_POINT ( 'NONE', #44 ) ;
#67 = DATE_AND_TIME ( #9, #19 ) ;
#68 = CARTESIAN_POINT ( 'NONE',  ( 0.5000000000000000000, -1.308956353932293863E-14, -2.748999999999999666 ) ) ;
#69 = CLOSED_SHELL ( 'NONE', ( #347, #225, #171, #136 ) ) ;
#70 = AXIS2_PLACEMENT_3D ( 'NONE', #278, #192, #26 ) ;
#71 = AXIS2_PLACEMENT_3D ( 'NONE', #364, #359, #263 ) ;
#72 = APPROVAL ( #119, 'UNSPECIFIED' ) ;
#73 = PERSON_AND_ORGANIZATION ( #358, #169 ) ;
#74 = CARTESIAN_POINT ( 'NONE',  ( 1.406144563556453543E-28, -2.007601769834808621E-14, -5.750000000000000000 ) ) ;
#75 = APPROVAL ( #241, 'UNSPECIFIED' ) ;
#76 = ORIENTED_EDGE ( 'NONE', *, *, #345, .F. ) ;
#77 = CC_DESIGN_APPROVAL ( #75, ( #128 ) ) ;
#78 = EDGE_CURVE ( 'NONE', #323, #297, #183, .T. ) ;
#79 = DIRECTION ( 'NONE',  ( -2.445468806185136597E-29, 3.491481338843145583E-15, 1.000000000000000000 ) ) ;
#80 = FACE_OUTER_BOUND ( 'NONE', #196, .T. ) ;
#81 = PERSON_AND_ORGANIZATION_ROLE ( 'creator' ) ;
#82 = EDGE_LOOP ( 'NONE', ( #111, #118, #216, #288 ) ) ;
#83 = AXIS2_PLACEMENT_3D ( 'NONE', #207, #259, #267 ) ;
#84 = CARTESIAN_POINT ( 'NONE',  ( -0.5000000000000000000, -1.281242234827832765E-15, -2.748999999999999666 ) ) ;
#85 = LOCAL_TIME ( 13, 29, 36.00000000000000000, #181 ) ;
#86 = CARTESIAN_POINT ( 'NONE',  ( 0.4999999999999997224, -3.500078625662627502E-15, -0.02000000000000012879 ) ) ;
#87 = VERTEX_POINT ( 'NONE', #97 ) ;
#88 = PLANE ( 'NONE',  #70 ) ;
#89 = ADVANCED_BREP_SHAPE_REPRESENTATION ( '77308', ( #17, #251, #100 ), #308 ) ;
#90 = EDGE_CURVE ( 'NONE', #165, #221, #299, .T. ) ;
#91 = VECTOR ( 'NONE', #25, 39.37007874015748143 ) ;
#92 = ORIENTED_EDGE ( 'NONE', *, *, #236, .T. ) ;
#93 = DIRECTION ( 'NONE',  ( -1.000000000000000000, 6.982962677686265922E-15, -4.876176775795935793E-29 ) ) ;
#94 = CYLINDRICAL_SURFACE ( 'NONE', #31, 0.4999999999999998335 ) ;
#95 = LINE ( 'NONE', #154, #10 ) ;
#96 = EDGE_CURVE ( 'NONE', #165, #314, #233, .T. ) ;
#97 = CARTESIAN_POINT ( 'NONE',  ( -0.4989999999999999991, -6.050666976027525958E-15, -2.749999999999999556 ) ) ;
#98 = APPROVAL_ROLE ( '' ) ;
#99 = CARTESIAN_POINT ( 'NONE',  ( 6.725039217009123399E-29, -9.601573681818648281E-15, -2.749999999999999556 ) ) ;
#100 = AXIS2_PLACEMENT_3D ( 'NONE', #110, #361, #160 ) ;
#101 = DIRECTION ( 'NONE',  ( -2.445468806185136597E-29, 3.491481338843145583E-15, 1.000000000000000000 ) ) ;
#102 = CARTESIAN_POINT ( 'NONE',  ( 6.725039217009123399E-29, -9.601573681818648281E-15, -2.749999999999999556 ) ) ;
#103 = PERSON_AND_ORGANIZATION ( #358, #169 ) ;
#104 = DATE_AND_TIME ( #20, #35 ) ;
#105 = ORIENTED_EDGE ( 'NONE', *, *, #274, .F. ) ;
#106 = FACE_OUTER_BOUND ( 'NONE', #48, .T. ) ;
#107 = CARTESIAN_POINT ( 'NONE',  ( 4.890937612370304688E-31, -6.982962677686335982E-17, -0.02000000000000012879 ) ) ;
#108 = DIRECTION ( 'NONE',  ( 0.7071067811865461294, -7.319954787623251312E-15, -0.7071067811865489050 ) ) ;
#109 = VERTEX_POINT ( 'NONE', #122 ) ;
#110 = CARTESIAN_POINT ( 'NONE',  ( 0.000000000000000000, 0.000000000000000000, 0.000000000000000000 ) ) ;
#111 = ORIENTED_EDGE ( 'NONE', *, *, #155, .F. ) ;
#112 = CARTESIAN_POINT ( 'NONE',  ( 1.406144563556453543E-28, -2.007601769834808621E-14, -5.750000000000000000 ) ) ;
#113 = DIRECTION ( 'NONE',  ( 2.445468806185136597E-29, -3.491481338843145583E-15, -1.000000000000000000 ) ) ;
#114 = AXIS2_PLACEMENT_3D ( 'NONE', #112, #309, #57 ) ;
#115 = AXIS2_PLACEMENT_3D ( 'NONE', #326, #54, #93 ) ;
#116 = ORIENTED_EDGE ( 'NONE', *, *, #186, .F. ) ;
#117 = CLOSED_SHELL ( 'NONE', ( #249, #121, #266, #281, #24, #135, #232, #211 ) ) ;
#118 = ORIENTED_EDGE ( 'NONE', *, *, #144, .T. ) ;
#119 = APPROVAL_STATUS ( 'not_yet_approved' ) ;
#120 = DIRECTION ( 'NONE',  ( -2.445468806185136597E-29, 3.491481338843145583E-15, 1.000000000000000000 ) ) ;
#121 = ADVANCED_FACE ( 'NONE', ( #7 ), #317, .T. ) ;
#122 = CARTESIAN_POINT ( 'NONE',  ( 0.4989999999999999991, -1.308607205798409720E-14, -2.749999999999999556 ) ) ;
#123 = CIRCLE ( 'NONE', #306, 0.4989999999999999991 ) ;
#124 = PERSON_AND_ORGANIZATION ( #358, #169 ) ;
#125 = CIRCLE ( 'NONE', #147, 0.5000000000000000000 ) ;
#126 = CARTESIAN_POINT ( 'NONE',  ( 0.4999999999999998335, -3.491481338843132566E-15, 2.438088387897967336E-29 ) ) ;
#127 = EDGE_CURVE ( 'NONE', #66, #297, #341, .T. ) ;
#128 = PRODUCT_DEFINITION ( 'UNKNOWN', '', #132, #324 ) ;
#129 = DIRECTION ( 'NONE',  ( -2.445468806185136597E-29, 3.491481338843145583E-15, 1.000000000000000000 ) ) ;
#130 = ORIENTED_EDGE ( 'NONE', *, *, #30, .F. ) ;
#131 = VECTOR ( 'NONE', #203, 39.37007874015748143 ) ;
#132 = PRODUCT_DEFINITION_FORMATION_WITH_SPECIFIED_SOURCE ( 'ANY', '', #227, .NOT_KNOWN. ) ;
#133 = CC_DESIGN_PERSON_AND_ORGANIZATION_ASSIGNMENT ( #206, #337, ( #333 ) ) ;
#134 = CALENDAR_DATE ( 2024, 29, 2 ) ;
#135 = ADVANCED_FACE ( 'NONE', ( #315 ), #331, .T. ) ;
#136 = ADVANCED_FACE ( 'NONE', ( #320 ), #194, .T. ) ;
#137 = CONICAL_SURFACE ( 'NONE', #245, 0.4989999999999999991, 0.7853981633975507526 ) ;
#138 = ORIENTED_EDGE ( 'NONE', *, *, #146, .T. ) ;
#139 = ORIENTED_EDGE ( 'NONE', *, *, #146, .F. ) ;
#140 = APPROVAL_ROLE ( '' ) ;
#141 = DIRECTION ( 'NONE',  ( -2.445468806185136597E-29, 3.491481338843145583E-15, 1.000000000000000000 ) ) ;
#142 = DIRECTION ( 'NONE',  ( -2.445468806185136597E-29, 3.491481338843145583E-15, 1.000000000000000000 ) ) ;
#143 = AXIS2_PLACEMENT_3D ( 'NONE', #205, #149, #179 ) ;
#144 = EDGE_CURVE ( 'NONE', #60, #66, #217, .T. ) ;
#145 = VERTEX_POINT ( 'NONE', #68 ) ;
#146 = EDGE_CURVE ( 'NONE', #109, #87, #339, .T. ) ;
#147 = AXIS2_PLACEMENT_3D ( 'NONE', #74, #300, #224 ) ;
#148 = APPROVAL_ROLE ( '' ) ;
#149 = DIRECTION ( 'NONE',  ( -2.445468806185136597E-29, 3.491481338843145583E-15, 1.000000000000000000 ) ) ;
#150 = ORIENTED_EDGE ( 'NONE', *, *, #53, .T. ) ;
#151 = CARTESIAN_POINT ( 'NONE',  ( -0.4999999999999997224, 3.421651712066268085E-15, -0.02000000000000012879 ) ) ;
#152 = CIRCLE ( 'NONE', #239, 0.5000000000000000000 ) ;
#153 = CARTESIAN_POINT ( 'NONE',  ( -0.5000000000000000000, -1.128608201128286632E-14, -5.750000000000000000 ) ) ;
#154 = CARTESIAN_POINT ( 'NONE',  ( 0.4989999999999999991, -1.308607205798409720E-14, -2.749999999999999556 ) ) ;
#155 = EDGE_CURVE ( 'NONE', #60, #323, #243, .T. ) ;
#156 = CARTESIAN_POINT ( 'NONE',  ( 0.000000000000000000, 0.000000000000000000, 0.000000000000000000 ) ) ;
#157 = AXIS2_PLACEMENT_3D ( 'NONE', #342, #270, #32 ) ;
#158 = CARTESIAN_POINT ( 'NONE',  ( 6.725039217009123399E-29, -9.601573681818648281E-15, -2.749999999999999556 ) ) ;
#159 = CARTESIAN_POINT ( 'NONE',  ( -0.4799999999999996492, 3.386736898677836830E-15, 1.280553747027767124E-17 ) ) ;
#160 = DIRECTION ( 'NONE',  ( 1.000000000000000000, 0.000000000000000000, 0.000000000000000000 ) ) ;
#161 = LOCAL_TIME ( 13, 29, 36.00000000000000000, #65 ) ;
#162 = AXIS2_PLACEMENT_3D ( 'NONE', #29, #365, #218 ) ;
#163 = FACE_OUTER_BOUND ( 'NONE', #312, .T. ) ;
#164 = DIRECTION ( 'NONE',  ( 1.000000000000000000, -6.982962677686266711E-15, 0.000000000000000000 ) ) ;
#165 = VERTEX_POINT ( 'NONE', #159 ) ;
#166 = FACE_OUTER_BOUND ( 'NONE', #219, .T. ) ;
#167 = DIRECTION ( 'NONE',  ( 1.000000000000000000, -6.982962677686269077E-15, 0.000000000000000000 ) ) ;
#168 = EDGE_LOOP ( 'NONE', ( #105, #34 ) ) ;
#169 = ORGANIZATION ( 'UNSPECIFIED', 'UNSPECIFIED', '' ) ;
#170 = ORIENTED_EDGE ( 'NONE', *, *, #186, .T. ) ;
#171 = ADVANCED_FACE ( 'NONE', ( #80 ), #187, .F. ) ;
#172 = DIRECTION ( 'NONE',  ( -2.445468806185136597E-29, 3.491481338843145583E-15, 1.000000000000000000 ) ) ;
#173 = FACE_OUTER_BOUND ( 'NONE', #168, .T. ) ;
#174 = AXIS2_PLACEMENT_3D ( 'NONE', #102, #178, #349 ) ;
#175 = PERSON_AND_ORGANIZATION ( #358, #169 ) ;
#176 = DATE_TIME_ROLE ( 'creation_date' ) ;
#177 = SECURITY_CLASSIFICATION_LEVEL ( 'unclassified' ) ;
#178 = DIRECTION ( 'NONE',  ( -2.445468806185136597E-29, 3.491481338843145583E-15, 1.000000000000000000 ) ) ;
#179 = DIRECTION ( 'NONE',  ( 1.000000000000000000, -6.982962677686267499E-15, 4.876036955247132767E-29 ) ) ;
#180 = PERSON_AND_ORGANIZATION_ROLE ( 'creator' ) ;
#181 = COORDINATED_UNIVERSAL_TIME_OFFSET ( 5, 0, .BEHIND. ) ;
#182 = CARTESIAN_POINT ( 'NONE',  ( -0.4989999999999999991, -6.055965430375748360E-15, -2.749999999999999556 ) ) ;
#183 = CIRCLE ( 'NONE', #83, 0.5000000000000000000 ) ;
#184 = DIRECTION ( 'NONE',  ( 2.438088387897960049E-29, -3.491481338843145188E-15, -1.000000000000000000 ) ) ;
#185 =( LENGTH_UNIT ( ) NAMED_UNIT ( * ) SI_UNIT ( $, .METRE. ) );
#186 = EDGE_CURVE ( 'NONE', #336, #314, #330, .T. ) ;
#187 = PLANE ( 'NONE',  #115 ) ;
#188 = DIRECTION ( 'NONE',  ( 1.000000000000000000, -6.982962677686266711E-15, 4.876176775795935793E-29 ) ) ;
#189 = FACE_OUTER_BOUND ( 'NONE', #42, .T. ) ;
#190 = CIRCLE ( 'NONE', #22, 0.4799999999999996492 ) ;
#191 = CARTESIAN_POINT ( 'NONE',  ( 0.4999999999999997224, -3.500078625662627502E-15, -0.02000000000000012879 ) ) ;
#192 = DIRECTION ( 'NONE',  ( 2.438088387897960049E-29, -3.491481338843145188E-15, -1.000000000000000000 ) ) ;
#193 = DATE_AND_TIME ( #134, #85 ) ;
#194 = CYLINDRICAL_SURFACE ( 'NONE', #64, 0.5000000000000000000 ) ;
#195 = CONICAL_SURFACE ( 'NONE', #157, 0.4999999999999997224, 0.7853981633974463916 ) ;
#196 = EDGE_LOOP ( 'NONE', ( #92, #301 ) ) ;
#197 = ORIENTED_EDGE ( 'NONE', *, *, #49, .T. ) ;
#198 = EDGE_LOOP ( 'NONE', ( #283, #223, #23, #1 ) ) ;
#199 = DIRECTION ( 'NONE',  ( 1.000000000000000000, -6.982962677686267499E-15, 4.876176775795936353E-29 ) ) ;
#200 = DIRECTION ( 'NONE',  ( 1.000000000000000000, -6.982962677686266711E-15, 0.000000000000000000 ) ) ;
#201 = VECTOR ( 'NONE', #108, 39.37007874015748143 ) ;
#202 = APPLICATION_CONTEXT ( 'configuration controlled 3d designs of mechanical parts and assemblies' ) ;
#203 = DIRECTION ( 'NONE',  ( -2.445468806185136877E-29, 3.491481338843145188E-15, 1.000000000000000000 ) ) ;
#204 = COORDINATED_UNIVERSAL_TIME_OFFSET ( 5, 0, .BEHIND. ) ;
#205 = CARTESIAN_POINT ( 'NONE',  ( -3.131554243005659264E-46, 4.471029511141341874E-32, 1.280553747030123384E-17 ) ) ;
#206 = PERSON_AND_ORGANIZATION ( #358, #169 ) ;
#207 = CARTESIAN_POINT ( 'NONE',  ( 6.725039217009123399E-29, -9.601573681818648281E-15, -2.749999999999999556 ) ) ;
#208 = APPROVAL ( #290, 'UNSPECIFIED' ) ;
#209 = LINE ( 'NONE', #191, #201 ) ;
#210 = CC_DESIGN_APPROVAL ( #72, ( #132 ) ) ;
#211 = ADVANCED_FACE ( 'NONE', ( #166 ), #88, .F. ) ;
#212 = ORIENTED_EDGE ( 'NONE', *, *, #59, .T. ) ;
#213 = CARTESIAN_POINT ( 'NONE',  ( -0.4999999999999997224, 3.421651712066268085E-15, -0.02000000000000012879 ) ) ;
#214 = ORIENTED_EDGE ( 'NONE', *, *, #155, .T. ) ;
#215 = COORDINATED_UNIVERSAL_TIME_OFFSET ( 5, 0, .BEHIND. ) ;
#216 = ORIENTED_EDGE ( 'NONE', *, *, #127, .T. ) ;
#217 = CIRCLE ( 'NONE', #114, 0.5000000000000000000 ) ;
#218 = DIRECTION ( 'NONE',  ( 1.000000000000000000, -6.982962677686266711E-15, 0.000000000000000000 ) ) ;
#219 = EDGE_LOOP ( 'NONE', ( #2, #343 ) ) ;
#220 = EDGE_LOOP ( 'NONE', ( #116, #8, #150, #14 ) ) ;
#221 = VERTEX_POINT ( 'NONE', #362 ) ;
#222 = CC_DESIGN_PERSON_AND_ORGANIZATION_ASSIGNMENT ( #73, #81, ( #128 ) ) ;
#223 = ORIENTED_EDGE ( 'NONE', *, *, #90, .F. ) ;
#224 = DIRECTION ( 'NONE',  ( 1.000000000000000000, -6.982962677686270655E-15, 0.000000000000000000 ) ) ;
#225 = ADVANCED_FACE ( 'NONE', ( #173 ), #46, .T. ) ;
#226 = DIRECTION ( 'NONE',  ( 1.000000000000000000, -6.982962677686269077E-15, 0.000000000000000000 ) ) ;
#227 = PRODUCT ( '77308', '77308', '', ( #27 ) ) ;
#228 = DIRECTION ( 'NONE',  ( 1.000000000000000000, -6.982962677686267499E-15, 4.876176775795936353E-29 ) ) ;
#229 = COORDINATED_UNIVERSAL_TIME_OFFSET ( 5, 0, .BEHIND. ) ;
#230 = PRODUCT_RELATED_PRODUCT_CATEGORY ( 'detail', '', ( #227 ) ) ;
#231 = AXIS2_PLACEMENT_3D ( 'NONE', #40, #303, #355 ) ;
#232 = ADVANCED_FACE ( 'NONE', ( #163 ), #340, .F. ) ;
#233 = LINE ( 'NONE', #151, #252 ) ;
#234 = SHAPE_DEFINITION_REPRESENTATION ( #43, #89 ) ;
#235 = CARTESIAN_POINT ( 'NONE',  ( 6.725039217009123399E-29, -9.601573681818648281E-15, -2.749999999999999556 ) ) ;
#236 = EDGE_CURVE ( 'NONE', #297, #323, #293, .T. ) ;
#237 = DIRECTION ( 'NONE',  ( -0.7071067811866199593, 7.493145998870616062E-15, 0.7071067811864750752 ) ) ;
#238 = DIRECTION ( 'NONE',  ( 1.000000000000000000, -6.982962677686267499E-15, 4.876036955247132767E-29 ) ) ;
#239 = AXIS2_PLACEMENT_3D ( 'NONE', #322, #310, #164 ) ;
#240 = ORIENTED_EDGE ( 'NONE', *, *, #345, .T. ) ;
#241 = APPROVAL_STATUS ( 'not_yet_approved' ) ;
#242 = ORIENTED_EDGE ( 'NONE', *, *, #49, .F. ) ;
#243 = LINE ( 'NONE', #325, #91 ) ;
#244 = APPLICATION_PROTOCOL_DEFINITION ( 'international standard', 'config_control_design', 1994, #327 ) ;
#245 = AXIS2_PLACEMENT_3D ( 'NONE', #158, #141, #167 ) ;
#246 = ORIENTED_EDGE ( 'NONE', *, *, #45, .F. ) ;
#247 = CARTESIAN_POINT ( 'NONE',  ( -0.5000000000000000000, -1.128608201128286632E-14, -2.749999999999999556 ) ) ;
#248 = CC_DESIGN_APPROVAL ( #208, ( #333 ) ) ;
#249 = ADVANCED_FACE ( 'NONE', ( #189 ), #137, .T. ) ;
#250 = EDGE_LOOP ( 'NONE', ( #242, #253, #302, #273 ) ) ;
#251 = MANIFOLD_SOLID_BREP ( 'Body-Move/Copy2[2]', #117 ) ;
#252 = VECTOR ( 'NONE', #13, 39.37007874015748143 ) ;
#253 = ORIENTED_EDGE ( 'NONE', *, *, #30, .T. ) ;
#254 = APPROVAL_PERSON_ORGANIZATION ( #124, #208, #98 ) ;
#255 = DATE_AND_TIME ( #257, #161 ) ;
#256 = EDGE_CURVE ( 'NONE', #221, #165, #190, .T. ) ;
#257 = CALENDAR_DATE ( 2024, 29, 2 ) ;
#258 = CONICAL_SURFACE ( 'NONE', #61, 0.4999999999999997224, 0.7853981633974463916 ) ;
#259 = DIRECTION ( 'NONE',  ( -2.445468806185136597E-29, 3.491481338843145583E-15, 1.000000000000000000 ) ) ;
#260 = PERSON_AND_ORGANIZATION_ROLE ( 'design_supplier' ) ;
#261 = AXIS2_PLACEMENT_3D ( 'NONE', #348, #101, #200 ) ;
#262 = APPROVAL_DATE_TIME ( #292, #208 ) ;
#263 = DIRECTION ( 'NONE',  ( 1.000000000000000000, -6.982962677686266711E-15, 0.000000000000000000 ) ) ;
#264 = CARTESIAN_POINT ( 'NONE',  ( 3.491481338843273773E-15, 0.4999999999999799050, -5.750000000000001776 ) ) ;
#265 = LINE ( 'NONE', #182, #316 ) ;
#266 = ADVANCED_FACE ( 'NONE', ( #353 ), #258, .T. ) ;
#267 = DIRECTION ( 'NONE',  ( 1.000000000000000000, -6.982962677686266711E-15, 0.000000000000000000 ) ) ;
#268 = ORIENTED_EDGE ( 'NONE', *, *, #274, .T. ) ;
#269 = CC_DESIGN_SECURITY_CLASSIFICATION ( #333, ( #132 ) ) ;
#270 = DIRECTION ( 'NONE',  ( 2.445468806185136597E-29, -3.491481338843145583E-15, -1.000000000000000000 ) ) ;
#271 = CARTESIAN_POINT ( 'NONE',  ( -0.4999999999999998335, 3.552713678800499746E-15, -2.459467545127452330E-29 ) ) ;
#272 = LENGTH_MEASURE_WITH_UNIT ( LENGTH_MEASURE( 0.02539999999999999897 ), #185 );
#273 = ORIENTED_EDGE ( 'NONE', *, *, #294, .F. ) ;
#274 = EDGE_CURVE ( 'NONE', #66, #60, #125, .T. ) ;
#275 = CARTESIAN_POINT ( 'NONE',  ( 0.5000000000000000000, -1.309305502066178164E-14, -2.749999999999999556 ) ) ;
#276 = CARTESIAN_POINT ( 'NONE',  ( -3.131554243005659264E-46, 4.471029511141341874E-32, 1.280553747030123384E-17 ) ) ;
#277 = ORIENTED_EDGE ( 'NONE', *, *, #360, .T. ) ;
#278 = CARTESIAN_POINT ( 'NONE',  ( 3.351822085289405181E-15, 0.4799999999999996492, -1.669508273909558064E-15 ) ) ;
#279 = AXIS2_PLACEMENT_3D ( 'NONE', #99, #36, #4 ) ;
#280 = ORIENTED_EDGE ( 'NONE', *, *, #256, .F. ) ;
#281 = ADVANCED_FACE ( 'NONE', ( #286 ), #195, .T. ) ;
#282 = DIRECTION ( 'NONE',  ( -1.000000000000000000, 6.982962677686265922E-15, -4.876176775795935793E-29 ) ) ;
#283 = ORIENTED_EDGE ( 'NONE', *, *, #360, .F. ) ;
#284 = AXIS2_PLACEMENT_3D ( 'NONE', #291, #129, #228 ) ;
#285 = AXIS2_PLACEMENT_3D ( 'NONE', #264, #184, #282 ) ;
#286 = FACE_OUTER_BOUND ( 'NONE', #198, .T. ) ;
#287 = CIRCLE ( 'NONE', #71, 0.5000000000000000000 ) ;
#288 = ORIENTED_EDGE ( 'NONE', *, *, #78, .F. ) ;
#289 = APPROVAL_DATE_TIME ( #255, #72 ) ;
#290 = APPROVAL_STATUS ( 'not_yet_approved' ) ;
#291 = CARTESIAN_POINT ( 'NONE',  ( 0.000000000000000000, 0.000000000000000000, 0.000000000000000000 ) ) ;
#292 = DATE_AND_TIME ( #344, #56 ) ;
#293 = CIRCLE ( 'NONE', #58, 0.5000000000000000000 ) ;
#294 = EDGE_CURVE ( 'NONE', #336, #145, #152, .T. ) ;
#295 = APPLICATION_PROTOCOL_DEFINITION ( 'international standard', 'config_control_design', 1994, #202 ) ;
#296 = LINE ( 'NONE', #126, #33 ) ;
#297 = VERTEX_POINT ( 'NONE', #275 ) ;
#298 = CYLINDRICAL_SURFACE ( 'NONE', #318, 0.5000000000000000000 ) ;
#299 = CIRCLE ( 'NONE', #143, 0.4799999999999996492 ) ;
#300 = DIRECTION ( 'NONE',  ( -2.445468806185136597E-29, 3.491481338843145583E-15, 1.000000000000000000 ) ) ;
#301 = ORIENTED_EDGE ( 'NONE', *, *, #78, .T. ) ;
#302 = ORIENTED_EDGE ( 'NONE', *, *, #45, .T. ) ;
#303 = DIRECTION ( 'NONE',  ( -2.445468806185136597E-29, 3.491481338843145583E-15, 1.000000000000000000 ) ) ;
#304 =( CONVERSION_BASED_UNIT ( 'INCH', #272 ) LENGTH_UNIT ( ) NAMED_UNIT ( #50 ) );
#305 = CARTESIAN_POINT ( 'NONE',  ( 0.000000000000000000, 0.000000000000000000, 0.000000000000000000 ) ) ;
#306 = AXIS2_PLACEMENT_3D ( 'NONE', #6, #120, #226 ) ;
#307 = VECTOR ( 'NONE', #332, 39.37007874015748143 ) ;
#308 =( GEOMETRIC_REPRESENTATION_CONTEXT ( 3 ) GLOBAL_UNCERTAINTY_ASSIGNED_CONTEXT ( ( #334 ) ) GLOBAL_UNIT_ASSIGNED_CONTEXT ( ( #304, #52, #55 ) ) REPRESENTATION_CONTEXT ( 'NONE', 'WORKASPACE' ) );
#309 = DIRECTION ( 'NONE',  ( -2.445468806185136597E-29, 3.491481338843145583E-15, 1.000000000000000000 ) ) ;
#310 = DIRECTION ( 'NONE',  ( -2.445468806185136597E-29, 3.491481338843145583E-15, 1.000000000000000000 ) ) ;
#311 = EDGE_CURVE ( 'NONE', #314, #329, #352, .T. ) ;
#312 = EDGE_LOOP ( 'NONE', ( #139, #130 ) ) ;
#313 = ORIENTED_EDGE ( 'NONE', *, *, #53, .F. ) ;
#314 = VERTEX_POINT ( 'NONE', #213 ) ;
#315 = FACE_OUTER_BOUND ( 'NONE', #250, .T. ) ;
#316 = VECTOR ( 'NONE', #237, 39.37007874015748143 ) ;
#317 = CYLINDRICAL_SURFACE ( 'NONE', #284, 0.4999999999999998335 ) ;
#318 = AXIS2_PLACEMENT_3D ( 'NONE', #156, #356, #188 ) ;
#319 = PERSON_AND_ORGANIZATION ( #358, #169 ) ;
#320 = FACE_OUTER_BOUND ( 'NONE', #82, .T. ) ;
#321 = DIRECTION ( 'NONE',  ( -1.000000000000000000, 6.982962677686266711E-15, 0.000000000000000000 ) ) ;
#322 = CARTESIAN_POINT ( 'NONE',  ( 6.722593748202938917E-29, -9.598082200479805274E-15, -2.748999999999999666 ) ) ;
#323 = VERTEX_POINT ( 'NONE', #247 ) ;
#324 = DESIGN_CONTEXT ( 'detailed design', #327, 'design' ) ;
#325 = CARTESIAN_POINT ( 'NONE',  ( -0.5000000000000000000, 3.552713678800500929E-15, -2.459467545127452891E-29 ) ) ;
#326 = CARTESIAN_POINT ( 'NONE',  ( 3.491481338843200408E-15, 0.4999999999999903411, -2.750000000000000888 ) ) ;
#327 = APPLICATION_CONTEXT ( 'configuration controlled 3d designs of mechanical parts and assemblies' ) ;
#328 = APPROVAL_DATE_TIME ( #104, #75 ) ;
#329 = VERTEX_POINT ( 'NONE', #86 ) ;
#330 = LINE ( 'NONE', #271, #307 ) ;
#331 = CONICAL_SURFACE ( 'NONE', #174, 0.4989999999999999991, 0.7853981633975507526 ) ;
#332 = DIRECTION ( 'NONE',  ( -2.445468806185136877E-29, 3.491481338843145188E-15, 1.000000000000000000 ) ) ;
#333 = SECURITY_CLASSIFICATION ( '', '', #177 ) ;
#334 = UNCERTAINTY_MEASURE_WITH_UNIT (LENGTH_MEASURE( 1.000000000000000082E-05 ), #304, 'distance_accuracy_value', 'NONE');
#335 = ORIENTED_EDGE ( 'NONE', *, *, #59, .F. ) ;
#336 = VERTEX_POINT ( 'NONE', #84 ) ;
#337 = PERSON_AND_ORGANIZATION_ROLE ( 'classification_officer' ) ;
#338 = DATE_TIME_ROLE ( 'classification_date' ) ;
#339 = CIRCLE ( 'NONE', #231, 0.4989999999999999991 ) ;
#340 = PLANE ( 'NONE',  #279 ) ;
#341 = LINE ( 'NONE', #346, #131 ) ;
#342 = CARTESIAN_POINT ( 'NONE',  ( 4.890937612370304688E-31, -6.982962677686335982E-17, -0.02000000000000012879 ) ) ;
#343 = ORIENTED_EDGE ( 'NONE', *, *, #256, .T. ) ;
#344 = CALENDAR_DATE ( 2024, 29, 2 ) ;
#345 = EDGE_CURVE ( 'NONE', #145, #336, #287, .T. ) ;
#346 = CARTESIAN_POINT ( 'NONE',  ( 0.5000000000000000000, -3.491481338843133355E-15, 2.438088387897967896E-29 ) ) ;
#347 = ADVANCED_FACE ( 'NONE', ( #106 ), #298, .T. ) ;
#348 = CARTESIAN_POINT ( 'NONE',  ( 4.890937612370304688E-31, -6.982962677686335982E-17, -0.02000000000000012879 ) ) ;
#349 = DIRECTION ( 'NONE',  ( 1.000000000000000000, -6.982962677686269077E-15, 0.000000000000000000 ) ) ;
#350 = ORIENTED_EDGE ( 'NONE', *, *, #236, .F. ) ;
#351 = CC_DESIGN_DATE_AND_TIME_ASSIGNMENT ( #67, #338, ( #333 ) ) ;
#352 = CIRCLE ( 'NONE', #162, 0.4999999999999997224 ) ;
#353 = FACE_OUTER_BOUND ( 'NONE', #357, .T. ) ;
#354 = PERSON_AND_ORGANIZATION ( #358, #169 ) ;
#355 = DIRECTION ( 'NONE',  ( 1.000000000000000000, -6.982962677686269077E-15, 0.000000000000000000 ) ) ;
#356 = DIRECTION ( 'NONE',  ( -2.445468806185136597E-29, 3.491481338843145583E-15, 1.000000000000000000 ) ) ;
#357 = EDGE_LOOP ( 'NONE', ( #280, #277, #212, #21 ) ) ;
#358 = PERSON ( 'UNSPECIFIED', 'UNSPECIFIED', 'UNSPECIFIED', ('UNSPECIFIED'), ('UNSPECIFIED'), ('UNSPECIFIED') ) ;
#359 = DIRECTION ( 'NONE',  ( -2.445468806185136597E-29, 3.491481338843145583E-15, 1.000000000000000000 ) ) ;
#360 = EDGE_CURVE ( 'NONE', #221, #329, #209, .T. ) ;
#361 = DIRECTION ( 'NONE',  ( 0.000000000000000000, 0.000000000000000000, 1.000000000000000000 ) ) ;
#362 = CARTESIAN_POINT ( 'NONE',  ( 0.4799999999999996492, -3.396558832296480127E-15, 1.280553747032483033E-17 ) ) ;
#363 = DIRECTION ( 'NONE',  ( 1.000000000000000000, -6.982962677686266711E-15, 4.876176775795935793E-29 ) ) ;
#364 = CARTESIAN_POINT ( 'NONE',  ( 6.722593748202938917E-29, -9.598082200479805274E-15, -2.748999999999999666 ) ) ;
#365 = DIRECTION ( 'NONE',  ( -2.445468806185136597E-29, 3.491481338843145583E-15, 1.000000000000000000 ) ) ;
#366 = DIRECTION ( 'NONE',  ( -2.445468806185136597E-29, 3.491481338843145583E-15, 1.000000000000000000 ) ) ;
ENDSEC;
END-ISO-10303-21;
