ISO-10303-21;
HEADER;
FILE_DESCRIPTION (( 'STEP AP203' ),
    '1' );
FILE_NAME ('77403.STEP',
    '2024-05-03T15:06:08',
    ( '' ),
    ( '' ),
    'SwSTEP 2.0',
    'SolidWorks 2023',
    '' );
FILE_SCHEMA (( 'CONFIG_CONTROL_DESIGN' ));
ENDSEC;

DATA;
#1 = VECTOR ( 'NONE', #57, 39.37007874015748143 ) ;
#2 = CIRCLE ( 'NONE', #331, 0.3124999999999998335 ) ;
#3 = AXIS2_PLACEMENT_3D ( 'NONE', #128, #16, #34 ) ;
#4 = CARTESIAN_POINT ( 'NONE',  ( 0.000000000000000000, 0.000000000000000000, 0.000000000000000000 ) ) ;
#5 = DIRECTION ( 'NONE',  ( 1.000000000000000000, -6.982962677686265133E-15, 0.000000000000000000 ) ) ;
#6 = DIRECTION ( 'NONE',  ( 1.000000000000000000, -6.982962677686266711E-15, 4.876067333457693400E-29 ) ) ;
#7 = ORIENTED_EDGE ( 'NONE', *, *, #277, .T. ) ;
#8 = DIRECTION ( 'NONE',  ( 0.7071067811865232589, -2.468850131082003836E-15, 0.7071067811865715536 ) ) ;
#9 = LINE ( 'NONE', #11, #1 ) ;
#10 = PRODUCT_RELATED_PRODUCT_CATEGORY ( 'detail', '', ( #91 ) ) ;
#11 = CARTESIAN_POINT ( 'NONE',  ( -0.3125000000000000000, 2.220446049250313081E-15, -1.537167215704658232E-29 ) ) ;
#12 = AXIS2_PLACEMENT_3D ( 'NONE', #361, #49, #162 ) ;
#13 = CC_DESIGN_APPROVAL ( #192, ( #222 ) ) ;
#14 = EDGE_LOOP ( 'NONE', ( #238, #21 ) ) ;
#15 = PERSON_AND_ORGANIZATION ( #365, #137 ) ;
#16 = DIRECTION ( 'NONE',  ( -2.445468806185136597E-29, 3.491481338843145583E-15, 1.000000000000000000 ) ) ;
#17 = DIRECTION ( 'NONE',  ( -2.445468806185136597E-29, 3.491481338843145583E-15, 1.000000000000000000 ) ) ;
#18 = APPLICATION_CONTEXT ( 'configuration controlled 3d designs of mechanical parts and assemblies' ) ;
#19 = PERSON_AND_ORGANIZATION_ROLE ( 'creator' ) ;
#20 = CARTESIAN_POINT ( 'NONE',  ( 0.3125000000000000000, -1.789384186157111367E-14, -4.500000000000000000 ) ) ;
#21 = ORIENTED_EDGE ( 'NONE', *, *, #297, .F. ) ;
#22 = CARTESIAN_POINT ( 'NONE',  ( 0.3124999999999998890, -2.182175836776957558E-15, 1.523805242436229235E-29 ) ) ;
#23 = DIRECTION ( 'NONE',  ( -2.445468806185136597E-29, 3.491481338843145583E-15, 1.000000000000000000 ) ) ;
#24 = VERTEX_POINT ( 'NONE', #217 ) ;
#25 = DIRECTION ( 'NONE',  ( -0.7071067811865232589, 7.493145998870265808E-15, 0.7071067811865715536 ) ) ;
#26 = CARTESIAN_POINT ( 'NONE',  ( 0.000000000000000000, 0.000000000000000000, 0.000000000000000000 ) ) ;
#27 = ORIENTED_EDGE ( 'NONE', *, *, #163, .T. ) ;
#28 = VERTEX_POINT ( 'NONE', #234 ) ;
#29 = EDGE_CURVE ( 'NONE', #62, #138, #46, .T. ) ;
#30 = VERTEX_POINT ( 'NONE', #20 ) ;
#31 = PLANE ( 'NONE',  #198 ) ;
#32 = DIRECTION ( 'NONE',  ( 1.000000000000000000, -6.982962677686269077E-15, 0.000000000000000000 ) ) ;
#33 = VERTEX_POINT ( 'NONE', #159 ) ;
#34 = DIRECTION ( 'NONE',  ( 1.000000000000000000, -6.982962677686269077E-15, 0.000000000000000000 ) ) ;
#35 = CARTESIAN_POINT ( 'NONE',  ( 2.182175836777068393E-15, 0.3124999999999842903, -4.500000000000000888 ) ) ;
#36 = EDGE_CURVE ( 'NONE', #311, #33, #191, .T. ) ;
#37 = FACE_OUTER_BOUND ( 'NONE', #182, .T. ) ;
#38 = ORIENTED_EDGE ( 'NONE', *, *, #145, .T. ) ;
#39 = APPROVAL_ROLE ( '' ) ;
#40 = CARTESIAN_POINT ( 'NONE',  ( 4.890937612370293302E-31, -6.982962677686318726E-17, -0.02000000000000008021 ) ) ;
#41 = AXIS2_PLACEMENT_3D ( 'NONE', #26, #360, #109 ) ;
#42 = CARTESIAN_POINT ( 'NONE',  ( 0.3125000000000000000, -9.161647033124407294E-15, -1.998999999999999888 ) ) ;
#43 = EDGE_CURVE ( 'NONE', #45, #62, #199, .T. ) ;
#44 = PERSON_AND_ORGANIZATION ( #365, #137 ) ;
#45 = VERTEX_POINT ( 'NONE', #42 ) ;
#46 = LINE ( 'NONE', #177, #283 ) ;
#47 = CARTESIAN_POINT ( 'NONE',  ( 4.890937612370293302E-31, -6.982962677686318726E-17, -0.02000000000000008021 ) ) ;
#48 = LENGTH_MEASURE_WITH_UNIT ( LENGTH_MEASURE( 0.02539999999999999897 ), #271 );
#49 = DIRECTION ( 'NONE',  ( -2.445468806185136597E-29, 3.491481338843145583E-15, 1.000000000000000000 ) ) ;
#50 = PERSON_AND_ORGANIZATION ( #365, #137 ) ;
#51 = AXIS2_PLACEMENT_3D ( 'NONE', #40, #262, #340 ) ;
#52 = CIRCLE ( 'NONE', #302, 0.2924999999999997602 ) ;
#53 = EDGE_CURVE ( 'NONE', #138, #24, #2, .T. ) ;
#54 = EDGE_LOOP ( 'NONE', ( #352, #133 ) ) ;
#55 = CC_DESIGN_PERSON_AND_ORGANIZATION_ASSIGNMENT ( #155, #132, ( #222 ) ) ;
#56 = EDGE_CURVE ( 'NONE', #45, #24, #239, .T. ) ;
#57 = DIRECTION ( 'NONE',  ( -2.445468806185136877E-29, 3.491481338843145188E-15, 1.000000000000000000 ) ) ;
#58 = ORIENTED_EDGE ( 'NONE', *, *, #56, .T. ) ;
#59 = CARTESIAN_POINT ( 'NONE',  ( 0.000000000000000000, 0.000000000000000000, 0.000000000000000000 ) ) ;
#60 = DATE_AND_TIME ( #63, #276 ) ;
#61 = DIRECTION ( 'NONE',  ( 1.000000000000000000, -6.982962677686266711E-15, 4.876176775795935232E-29 ) ) ;
#62 = VERTEX_POINT ( 'NONE', #300 ) ;
#63 = CALENDAR_DATE ( 2024, 3, 5 ) ;
#64 = LINE ( 'NONE', #179, #183 ) ;
#65 = CARTESIAN_POINT ( 'NONE',  ( 0.3124999999999998335, -2.213735251080465334E-15, -0.02000000000000008021 ) ) ;
#66 = DIRECTION ( 'NONE',  ( 1.000000000000000000, -6.982962677686269077E-15, 0.000000000000000000 ) ) ;
#67 = CALENDAR_DATE ( 2024, 3, 5 ) ;
#68 = DIRECTION ( 'NONE',  ( 2.438088387897960049E-29, -3.491481338843145188E-15, -1.000000000000000000 ) ) ;
#69 = AXIS2_PLACEMENT_3D ( 'NONE', #4, #17, #148 ) ;
#70 = ORIENTED_EDGE ( 'NONE', *, *, #81, .T. ) ;
#71 = EDGE_CURVE ( 'NONE', #62, #45, #136, .T. ) ;
#72 = DIRECTION ( 'NONE',  ( -2.445468806185136877E-29, 3.491481338843145188E-15, 1.000000000000000000 ) ) ;
#73 = APPROVAL_STATUS ( 'not_yet_approved' ) ;
#74 = ORIENTED_EDGE ( 'NONE', *, *, #362, .F. ) ;
#75 = CARTESIAN_POINT ( 'NONE',  ( 4.888492143564087591E-29, -6.979471196347447369E-15, -1.998999999999999888 ) ) ;
#76 = CC_DESIGN_PERSON_AND_ORGANIZATION_ASSIGNMENT ( #100, #212, ( #104 ) ) ;
#77 = PERSON_AND_ORGANIZATION ( #365, #137 ) ;
#78 = CARTESIAN_POINT ( 'NONE',  ( -2.087702828670439639E-46, 2.980686340760894400E-32, 8.537024980200822558E-18 ) ) ;
#79 = CC_DESIGN_PERSON_AND_ORGANIZATION_ASSIGNMENT ( #50, #333, ( #91 ) ) ;
#80 = DIRECTION ( 'NONE',  ( -2.445468806185136597E-29, 3.491481338843145583E-15, 1.000000000000000000 ) ) ;
#81 = EDGE_CURVE ( 'NONE', #332, #355, #218, .T. ) ;
#82 = LOCAL_TIME ( 11, 6, 8.000000000000000000, #364 ) ;
#83 = ORIENTED_EDGE ( 'NONE', *, *, #29, .T. ) ;
#84 = AXIS2_PLACEMENT_3D ( 'NONE', #118, #251, #149 ) ;
#85 = APPROVAL_PERSON_ORGANIZATION ( #44, #192, #39 ) ;
#86 = CALENDAR_DATE ( 2024, 3, 5 ) ;
#87 = PERSON_AND_ORGANIZATION ( #365, #137 ) ;
#88 = ADVANCED_FACE ( 'NONE', ( #312 ), #256, .T. ) ;
#89 = FACE_OUTER_BOUND ( 'NONE', #344, .T. ) ;
#90 = DIRECTION ( 'NONE',  ( -2.445468806185136597E-29, 3.491481338843145583E-15, 1.000000000000000000 ) ) ;
#91 = PRODUCT ( '77403', '77403', '', ( #219 ) ) ;
#92 = DATE_AND_TIME ( #86, #82 ) ;
#93 = LINE ( 'NONE', #330, #363 ) ;
#94 = CARTESIAN_POINT ( 'NONE',  ( 0.3114999999999999991, -9.158155551785564287E-15, -2.000000000000000000 ) ) ;
#95 = CARTESIAN_POINT ( 'NONE',  ( 2.182175836777007256E-15, 0.3124999999999930611, -2.000000000000000888 ) ) ;
#96 = DIRECTION ( 'NONE',  ( -2.438088387897960049E-29, 3.491481338843145188E-15, 1.000000000000000000 ) ) ;
#97 = DATE_AND_TIME ( #235, #225 ) ;
#98 = DIRECTION ( 'NONE',  ( -2.445468806185136597E-29, 3.491481338843145583E-15, 1.000000000000000000 ) ) ;
#99 = ORIENTED_EDGE ( 'NONE', *, *, #297, .T. ) ;
#100 = PERSON_AND_ORGANIZATION ( #365, #137 ) ;
#101 = CARTESIAN_POINT ( 'NONE',  ( -2.087702828670439639E-46, 2.980686340760894400E-32, 8.537024980200822558E-18 ) ) ;
#102 = ORIENTED_EDGE ( 'NONE', *, *, #362, .T. ) ;
#103 = ORIENTED_EDGE ( 'NONE', *, *, #53, .F. ) ;
#104 = SECURITY_CLASSIFICATION ( '', '', #353 ) ;
#105 = ORIENTED_EDGE ( 'NONE', *, *, #277, .F. ) ;
#106 = ORIENTED_EDGE ( 'NONE', *, *, #284, .F. ) ;
#107 = CIRCLE ( 'NONE', #275, 0.3125000000000000000 ) ;
#108 = CC_DESIGN_APPROVAL ( #341, ( #126 ) ) ;
#109 = DIRECTION ( 'NONE',  ( 1.000000000000000000, 0.000000000000000000, 0.000000000000000000 ) ) ;
#110 = VECTOR ( 'NONE', #72, 39.37007874015748143 ) ;
#111 = EDGE_CURVE ( 'NONE', #28, #311, #9, .T. ) ;
#112 = AXIS2_PLACEMENT_3D ( 'NONE', #35, #316, #151 ) ;
#113 = CYLINDRICAL_SURFACE ( 'NONE', #221, 0.3125000000000000000 ) ;
#114 = CARTESIAN_POINT ( 'NONE',  ( 4.890937612370273194E-29, -6.982962677686291165E-15, -2.000000000000000000 ) ) ;
#115 = DIRECTION ( 'NONE',  ( -2.445468806185136597E-29, 3.491481338843145583E-15, 1.000000000000000000 ) ) ;
#116 = EDGE_CURVE ( 'NONE', #28, #30, #107, .T. ) ;
#117 = CARTESIAN_POINT ( 'NONE',  ( 4.890937612370293302E-31, -6.982962677686318726E-17, -0.02000000000000008021 ) ) ;
#118 = CARTESIAN_POINT ( 'NONE',  ( 2.042516583223230962E-15, 0.2924999999999997602, -1.016989779121518801E-15 ) ) ;
#119 = EDGE_LOOP ( 'NONE', ( #274, #248, #106, #74 ) ) ;
#120 = CC_DESIGN_PERSON_AND_ORGANIZATION_ASSIGNMENT ( #15, #127, ( #222 ) ) ;
#121 = AXIS2_PLACEMENT_3D ( 'NONE', #75, #292, #66 ) ;
#122 = APPROVAL_DATE_TIME ( #92, #240 ) ;
#123 = CARTESIAN_POINT ( 'NONE',  ( 1.100460962783311469E-28, -1.571166602479415690E-14, -4.500000000000000000 ) ) ;
#124 = VERTEX_POINT ( 'NONE', #94 ) ;
#125 = ORIENTED_EDGE ( 'NONE', *, *, #71, .F. ) ;
#126 = PRODUCT_DEFINITION ( 'UNKNOWN', '', #222, #181 ) ;
#127 = PERSON_AND_ORGANIZATION_ROLE ( 'design_supplier' ) ;
#128 = CARTESIAN_POINT ( 'NONE',  ( 4.890937612370273194E-29, -6.982962677686291165E-15, -2.000000000000000000 ) ) ;
#129 = DIRECTION ( 'NONE',  ( -2.445468806185136597E-29, 3.491481338843145583E-15, 1.000000000000000000 ) ) ;
#130 = ORIENTED_EDGE ( 'NONE', *, *, #111, .F. ) ;
#131 = ORIENTED_EDGE ( 'NONE', *, *, #36, .F. ) ;
#132 = PERSON_AND_ORGANIZATION_ROLE ( 'creator' ) ;
#133 = ORIENTED_EDGE ( 'NONE', *, *, #36, .T. ) ;
#134 = EDGE_CURVE ( 'NONE', #30, #28, #206, .T. ) ;
#135 = CARTESIAN_POINT ( 'NONE',  ( 4.890937612370273194E-29, -6.982962677686291165E-15, -2.000000000000000000 ) ) ;
#136 = CIRCLE ( 'NONE', #12, 0.3125000000000000000 ) ;
#137 = ORGANIZATION ( 'UNSPECIFIED', 'UNSPECIFIED', '' ) ;
#138 = VERTEX_POINT ( 'NONE', #146 ) ;
#139 =( NAMED_UNIT ( * ) PLANE_ANGLE_UNIT ( ) SI_UNIT ( $, .RADIAN. ) );
#140 = ADVANCED_FACE ( 'NONE', ( #37 ), #267, .F. ) ;
#141 = AXIS2_PLACEMENT_3D ( 'NONE', #176, #285, #286 ) ;
#142 = APPLICATION_PROTOCOL_DEFINITION ( 'international standard', 'config_control_design', 1994, #18 ) ;
#143 = CC_DESIGN_APPROVAL ( #240, ( #104 ) ) ;
#144 = APPLICATION_CONTEXT ( 'configuration controlled 3d designs of mechanical parts and assemblies' ) ;
#145 = EDGE_CURVE ( 'NONE', #124, #171, #334, .T. ) ;
#146 = CARTESIAN_POINT ( 'NONE',  ( -0.3124999999999998335, 2.112346210000093866E-15, -0.02000000000000008021 ) ) ;
#147 = AXIS2_PLACEMENT_3D ( 'NONE', #339, #230, #281 ) ;
#148 = DIRECTION ( 'NONE',  ( 1.000000000000000000, -6.982962677686266711E-15, 4.876176775795936353E-29 ) ) ;
#149 = DIRECTION ( 'NONE',  ( -1.000000000000000000, 6.982962677686265922E-15, -4.876176775795935793E-29 ) ) ;
#150 = DIRECTION ( 'NONE',  ( 1.000000000000000000, -6.982962677686266711E-15, 4.876176775795935232E-29 ) ) ;
#151 = DIRECTION ( 'NONE',  ( -1.000000000000000000, 6.982962677686265922E-15, -4.876176775795935793E-29 ) ) ;
#152 = ORIENTED_EDGE ( 'NONE', *, *, #356, .T. ) ;
#153 = CLOSED_SHELL ( 'NONE', ( #188, #220, #345, #196 ) ) ;
#154 = AXIS2_PLACEMENT_3D ( 'NONE', #269, #295, #5 ) ;
#155 = PERSON_AND_ORGANIZATION ( #365, #137 ) ;
#156 = DIRECTION ( 'NONE',  ( -0.7071067811865469066, 2.468850131082251144E-15, -0.7071067811865479058 ) ) ;
#157 = DIRECTION ( 'NONE',  ( 1.000000000000000000, -6.982962677686265133E-15, 0.000000000000000000 ) ) ;
#158 = DIRECTION ( 'NONE',  ( -2.445468806185136597E-29, 3.491481338843145583E-15, 1.000000000000000000 ) ) ;
#159 = CARTESIAN_POINT ( 'NONE',  ( 0.3125000000000000000, -9.165138514463248723E-15, -2.000000000000000000 ) ) ;
#160 = LINE ( 'NONE', #273, #110 ) ;
#161 = AXIS2_PLACEMENT_3D ( 'NONE', #114, #158, #227 ) ;
#162 = DIRECTION ( 'NONE',  ( 1.000000000000000000, -6.982962677686269077E-15, 0.000000000000000000 ) ) ;
#163 = EDGE_CURVE ( 'NONE', #355, #24, #205, .T. ) ;
#164 = EDGE_LOOP ( 'NONE', ( #38, #152, #321, #105 ) ) ;
#165 = AXIS2_PLACEMENT_3D ( 'NONE', #135, #359, #329 ) ;
#166 = SHAPE_DEFINITION_REPRESENTATION ( #336, #255 ) ;
#167 = ORIENTED_EDGE ( 'NONE', *, *, #134, .F. ) ;
#168 = DIRECTION ( 'NONE',  ( -1.000000000000000000, 6.982962677686265133E-15, 0.000000000000000000 ) ) ;
#169 = FACE_OUTER_BOUND ( 'NONE', #229, .T. ) ;
#170 = CONICAL_SURFACE ( 'NONE', #51, 0.3124999999999998335, 0.7853981633974476129 ) ;
#171 = VERTEX_POINT ( 'NONE', #228 ) ;
#172 = VECTOR ( 'NONE', #156, 39.37007874015748854 ) ;
#173 = CARTESIAN_POINT ( 'NONE',  ( 4.890937612370273194E-29, -6.982962677686291165E-15, -2.000000000000000000 ) ) ;
#174 = DATE_TIME_ROLE ( 'creation_date' ) ;
#175 = DIRECTION ( 'NONE',  ( -1.000000000000000000, 6.982962677686265922E-15, -4.876176775795935793E-29 ) ) ;
#176 = CARTESIAN_POINT ( 'NONE',  ( 1.100460962783311469E-28, -1.571166602479415690E-14, -4.500000000000000000 ) ) ;
#177 = CARTESIAN_POINT ( 'NONE',  ( -0.3124999999999998890, 2.220446049250312292E-15, -1.537167215704657391E-29 ) ) ;
#178 = APPROVAL_DATE_TIME ( #294, #192 ) ;
#179 = CARTESIAN_POINT ( 'NONE',  ( 0.3114999999999999991, -9.158155551785564287E-15, -2.000000000000000000 ) ) ;
#180 = FACE_OUTER_BOUND ( 'NONE', #119, .T. ) ;
#181 = DESIGN_CONTEXT ( 'detailed design', #18, 'design' ) ;
#182 = EDGE_LOOP ( 'NONE', ( #70, #326 ) ) ;
#183 = VECTOR ( 'NONE', #8, 39.37007874015748854 ) ;
#184 = DATE_AND_TIME ( #67, #243 ) ;
#185 = FACE_OUTER_BOUND ( 'NONE', #164, .T. ) ;
#186 = ORIENTED_EDGE ( 'NONE', *, *, #163, .F. ) ;
#187 = COORDINATED_UNIVERSAL_TIME_OFFSET ( 5, 0, .BEHIND. ) ;
#188 = ADVANCED_FACE ( 'NONE', ( #180 ), #282, .T. ) ;
#189 = ORIENTED_EDGE ( 'NONE', *, *, #81, .F. ) ;
#190 = EDGE_LOOP ( 'NONE', ( #237, #207, #58, #103 ) ) ;
#191 = CIRCLE ( 'NONE', #165, 0.3125000000000000000 ) ;
#192 = APPROVAL ( #73, 'UNSPECIFIED' ) ;
#193 = CONICAL_SURFACE ( 'NONE', #357, 0.3124999999999998335, 0.7853981633974476129 ) ;
#194 = EDGE_LOOP ( 'NONE', ( #260, #83, #328, #203 ) ) ;
#195 = APPROVAL_STATUS ( 'not_yet_approved' ) ;
#196 = ADVANCED_FACE ( 'NONE', ( #258 ), #113, .T. ) ;
#197 = COORDINATED_UNIVERSAL_TIME_OFFSET ( 5, 0, .BEHIND. ) ;
#198 = AXIS2_PLACEMENT_3D ( 'NONE', #95, #68, #175 ) ;
#199 = CIRCLE ( 'NONE', #121, 0.3125000000000000000 ) ;
#200 = ORIENTED_EDGE ( 'NONE', *, *, #279, .T. ) ;
#201 = DIRECTION ( 'NONE',  ( 2.445468806185136597E-29, -3.491481338843145583E-15, -1.000000000000000000 ) ) ;
#202 = DIRECTION ( 'NONE',  ( 1.000000000000000000, -6.982962677686265922E-15, 4.876176775795935793E-29 ) ) ;
#203 = ORIENTED_EDGE ( 'NONE', *, *, #56, .F. ) ;
#204 = DIRECTION ( 'NONE',  ( -2.445468806185136597E-29, 3.491481338843145583E-15, 1.000000000000000000 ) ) ;
#205 = LINE ( 'NONE', #65, #337 ) ;
#206 = CIRCLE ( 'NONE', #141, 0.3125000000000000000 ) ;
#207 = ORIENTED_EDGE ( 'NONE', *, *, #71, .T. ) ;
#208 = CARTESIAN_POINT ( 'NONE',  ( -0.3125000000000000000, -9.126868301989911345E-15, -2.000000000000000000 ) ) ;
#209 = DATE_TIME_ROLE ( 'classification_date' ) ;
#210 = FACE_OUTER_BOUND ( 'NONE', #14, .T. ) ;
#211 = DIRECTION ( 'NONE',  ( -2.445468806185136877E-29, 3.491481338843145188E-15, 1.000000000000000000 ) ) ;
#212 = PERSON_AND_ORGANIZATION_ROLE ( 'classification_officer' ) ;
#213 = DIRECTION ( 'NONE',  ( 1.000000000000000000, -6.982962677686266711E-15, 4.876067333457693400E-29 ) ) ;
#214 = VECTOR ( 'NONE', #244, 39.37007874015748143 ) ;
#215 = LOCAL_TIME ( 11, 6, 8.000000000000000000, #187 ) ;
#216 = EDGE_LOOP ( 'NONE', ( #299, #99, #7, #125 ) ) ;
#217 = CARTESIAN_POINT ( 'NONE',  ( 0.3124999999999998335, -2.213735251080465334E-15, -0.02000000000000008021 ) ) ;
#218 = CIRCLE ( 'NONE', #264, 0.2924999999999997602 ) ;
#219 = MECHANICAL_CONTEXT ( 'NONE', #144, 'mechanical' ) ;
#220 = ADVANCED_FACE ( 'NONE', ( #169 ), #226, .T. ) ;
#221 = AXIS2_PLACEMENT_3D ( 'NONE', #59, #115, #290 ) ;
#222 = PRODUCT_DEFINITION_FORMATION_WITH_SPECIFIED_SOURCE ( 'ANY', '', #91, .NOT_KNOWN. ) ;
#223 = DIMENSIONAL_EXPONENTS ( 1.000000000000000000, 0.000000000000000000, 0.000000000000000000, 0.000000000000000000, 0.000000000000000000, 0.000000000000000000, 0.000000000000000000 ) ;
#224 = CC_DESIGN_DATE_AND_TIME_ASSIGNMENT ( #60, #174, ( #126 ) ) ;
#225 = LOCAL_TIME ( 11, 6, 8.000000000000000000, #197 ) ;
#226 = PLANE ( 'NONE',  #112 ) ;
#227 = DIRECTION ( 'NONE',  ( 1.000000000000000000, -6.982962677686269077E-15, 0.000000000000000000 ) ) ;
#228 = CARTESIAN_POINT ( 'NONE',  ( -0.3114999999999999991, -4.764323601445356690E-15, -2.000000000000000000 ) ) ;
#229 = EDGE_LOOP ( 'NONE', ( #167, #280 ) ) ;
#230 = DIRECTION ( 'NONE',  ( -2.445468806185136597E-29, 3.491481338843145583E-15, 1.000000000000000000 ) ) ;
#231 = CARTESIAN_POINT ( 'NONE',  ( 0.000000000000000000, 0.000000000000000000, 0.000000000000000000 ) ) ;
#232 = EDGE_LOOP ( 'NONE', ( #263, #27, #272, #351 ) ) ;
#233 = FACE_OUTER_BOUND ( 'NONE', #232, .T. ) ;
#234 = CARTESIAN_POINT ( 'NONE',  ( -0.3125000000000000000, -9.126868301989911345E-15, -4.500000000000000000 ) ) ;
#235 = CALENDAR_DATE ( 2024, 3, 5 ) ;
#236 = FACE_OUTER_BOUND ( 'NONE', #216, .T. ) ;
#237 = ORIENTED_EDGE ( 'NONE', *, *, #29, .F. ) ;
#238 = ORIENTED_EDGE ( 'NONE', *, *, #145, .F. ) ;
#239 = LINE ( 'NONE', #22, #214 ) ;
#240 = APPROVAL ( #195, 'UNSPECIFIED' ) ;
#241 = APPROVAL_DATE_TIME ( #97, #341 ) ;
#242 = ORIENTED_EDGE ( 'NONE', *, *, #116, .T. ) ;
#243 = LOCAL_TIME ( 11, 6, 8.000000000000000000, #323 ) ;
#244 = DIRECTION ( 'NONE',  ( -2.445468806185136877E-29, 3.491481338843145188E-15, 1.000000000000000000 ) ) ;
#245 = ADVANCED_FACE ( 'NONE', ( #233 ), #170, .T. ) ;
#246 = AXIS2_PLACEMENT_3D ( 'NONE', #231, #129, #61 ) ;
#247 =( GEOMETRIC_REPRESENTATION_CONTEXT ( 3 ) GLOBAL_UNCERTAINTY_ASSIGNED_CONTEXT ( ( #322 ) ) GLOBAL_UNIT_ASSIGNED_CONTEXT ( ( #303, #139, #296 ) ) REPRESENTATION_CONTEXT ( 'NONE', 'WORKASPACE' ) );
#248 = ORIENTED_EDGE ( 'NONE', *, *, #111, .T. ) ;
#249 = APPROVAL_ROLE ( '' ) ;
#250 = ADVANCED_FACE ( 'NONE', ( #210 ), #349, .F. ) ;
#251 = DIRECTION ( 'NONE',  ( 2.438088387897960049E-29, -3.491481338843145188E-15, -1.000000000000000000 ) ) ;
#252 = AXIS2_PLACEMENT_3D ( 'NONE', #343, #23, #278 ) ;
#253 = CIRCLE ( 'NONE', #252, 0.3124999999999998335 ) ;
#254 = CC_DESIGN_SECURITY_CLASSIFICATION ( #104, ( #222 ) ) ;
#255 = ADVANCED_BREP_SHAPE_REPRESENTATION ( '77403', ( #298, #287, #41 ), #247 ) ;
#256 = CYLINDRICAL_SURFACE ( 'NONE', #246, 0.3124999999999998890 ) ;
#257 = EDGE_CURVE ( 'NONE', #24, #138, #253, .T. ) ;
#258 = FACE_OUTER_BOUND ( 'NONE', #317, .T. ) ;
#259 = CC_DESIGN_PERSON_AND_ORGANIZATION_ASSIGNMENT ( #87, #19, ( #126 ) ) ;
#260 = ORIENTED_EDGE ( 'NONE', *, *, #43, .T. ) ;
#261 = FACE_OUTER_BOUND ( 'NONE', #190, .T. ) ;
#262 = DIRECTION ( 'NONE',  ( 2.445468806185136597E-29, -3.491481338843145583E-15, -1.000000000000000000 ) ) ;
#263 = ORIENTED_EDGE ( 'NONE', *, *, #309, .F. ) ;
#264 = AXIS2_PLACEMENT_3D ( 'NONE', #78, #80, #6 ) ;
#265 = CONICAL_SURFACE ( 'NONE', #161, 0.3114999999999999991, 0.7853981633974141952 ) ;
#266 = CARTESIAN_POINT ( 'NONE',  ( 0.000000000000000000, 0.000000000000000000, 0.000000000000000000 ) ) ;
#267 = PLANE ( 'NONE',  #84 ) ;
#268 = ADVANCED_FACE ( 'NONE', ( #261 ), #346, .T. ) ;
#269 = CARTESIAN_POINT ( 'NONE',  ( 4.890937612370273194E-29, -6.982962677686291165E-15, -2.000000000000000000 ) ) ;
#270 = DIRECTION ( 'NONE',  ( -2.445468806185136597E-29, 3.491481338843145583E-15, 1.000000000000000000 ) ) ;
#271 =( LENGTH_UNIT ( ) NAMED_UNIT ( * ) SI_UNIT ( $, .METRE. ) );
#272 = ORIENTED_EDGE ( 'NONE', *, *, #257, .T. ) ;
#273 = CARTESIAN_POINT ( 'NONE',  ( 0.3125000000000000000, -2.182175836776958347E-15, 1.523805242436230075E-29 ) ) ;
#274 = ORIENTED_EDGE ( 'NONE', *, *, #134, .T. ) ;
#275 = AXIS2_PLACEMENT_3D ( 'NONE', #123, #98, #347 ) ;
#276 = LOCAL_TIME ( 11, 6, 8.000000000000000000, #288 ) ;
#277 = EDGE_CURVE ( 'NONE', #124, #45, #64, .T. ) ;
#278 = DIRECTION ( 'NONE',  ( 1.000000000000000000, -6.982962677686265133E-15, 0.000000000000000000 ) ) ;
#279 = EDGE_CURVE ( 'NONE', #332, #138, #289, .T. ) ;
#280 = ORIENTED_EDGE ( 'NONE', *, *, #116, .F. ) ;
#281 = DIRECTION ( 'NONE',  ( 1.000000000000000000, -6.982962677686269077E-15, 0.000000000000000000 ) ) ;
#282 = CYLINDRICAL_SURFACE ( 'NONE', #69, 0.3125000000000000000 ) ;
#283 = VECTOR ( 'NONE', #211, 39.37007874015748143 ) ;
#284 = EDGE_CURVE ( 'NONE', #33, #311, #335, .T. ) ;
#285 = DIRECTION ( 'NONE',  ( -2.445468806185136597E-29, 3.491481338843145583E-15, 1.000000000000000000 ) ) ;
#286 = DIRECTION ( 'NONE',  ( 1.000000000000000000, -6.982962677686269077E-15, 0.000000000000000000 ) ) ;
#287 = MANIFOLD_SOLID_BREP ( 'Body-Move/Copy2[2]', #291 ) ;
#288 = COORDINATED_UNIVERSAL_TIME_OFFSET ( 5, 0, .BEHIND. ) ;
#289 = LINE ( 'NONE', #354, #172 ) ;
#290 = DIRECTION ( 'NONE',  ( 1.000000000000000000, -6.982962677686266711E-15, 4.876176775795936353E-29 ) ) ;
#291 = CLOSED_SHELL ( 'NONE', ( #350, #88, #245, #293, #268, #307, #250, #140 ) ) ;
#292 = DIRECTION ( 'NONE',  ( -2.445468806185136597E-29, 3.491481338843145583E-15, 1.000000000000000000 ) ) ;
#293 = ADVANCED_FACE ( 'NONE', ( #89 ), #193, .T. ) ;
#294 = DATE_AND_TIME ( #318, #215 ) ;
#295 = DIRECTION ( 'NONE',  ( -2.445468806185136597E-29, 3.491481338843145583E-15, 1.000000000000000000 ) ) ;
#296 =( NAMED_UNIT ( * ) SI_UNIT ( $, .STERADIAN. ) SOLID_ANGLE_UNIT ( ) );
#297 = EDGE_CURVE ( 'NONE', #171, #124, #310, .T. ) ;
#298 = MANIFOLD_SOLID_BREP ( 'Body-Move/Copy2[1]', #153 ) ;
#299 = ORIENTED_EDGE ( 'NONE', *, *, #356, .F. ) ;
#300 = CARTESIAN_POINT ( 'NONE',  ( -0.3125000000000000000, -1.304204362311840281E-15, -1.998999999999999888 ) ) ;
#301 = AXIS2_PLACEMENT_3D ( 'NONE', #320, #90, #32 ) ;
#302 = AXIS2_PLACEMENT_3D ( 'NONE', #101, #204, #213 ) ;
#303 =( CONVERSION_BASED_UNIT ( 'INCH', #48 ) LENGTH_UNIT ( ) NAMED_UNIT ( #223 ) );
#304 = APPROVAL_ROLE ( '' ) ;
#305 = CC_DESIGN_DATE_AND_TIME_ASSIGNMENT ( #184, #209, ( #104 ) ) ;
#306 = CONICAL_SURFACE ( 'NONE', #147, 0.3114999999999999991, 0.7853981633974141952 ) ;
#307 = ADVANCED_FACE ( 'NONE', ( #236 ), #306, .T. ) ;
#308 = APPROVAL_PERSON_ORGANIZATION ( #358, #240, #249 ) ;
#309 = EDGE_CURVE ( 'NONE', #355, #332, #52, .T. ) ;
#310 = CIRCLE ( 'NONE', #3, 0.3114999999999999991 ) ;
#311 = VERTEX_POINT ( 'NONE', #208 ) ;
#312 = FACE_OUTER_BOUND ( 'NONE', #194, .T. ) ;
#313 = CARTESIAN_POINT ( 'NONE',  ( -0.2924999999999997602, 2.077431396611662611E-15, 8.537024980186416602E-18 ) ) ;
#314 = DIRECTION ( 'NONE',  ( 0.7071067811865469066, -7.319954787623252890E-15, -0.7071067811865479058 ) ) ;
#315 = ORIENTED_EDGE ( 'NONE', *, *, #53, .T. ) ;
#316 = DIRECTION ( 'NONE',  ( 2.438088387897960049E-29, -3.491481338843145188E-15, -1.000000000000000000 ) ) ;
#317 = EDGE_LOOP ( 'NONE', ( #130, #242, #102, #131 ) ) ;
#318 = CALENDAR_DATE ( 2024, 3, 5 ) ;
#319 = DIRECTION ( 'NONE',  ( -2.445468806185136597E-29, 3.491481338843145583E-15, 1.000000000000000000 ) ) ;
#320 = CARTESIAN_POINT ( 'NONE',  ( 4.890937612370273194E-29, -6.982962677686291165E-15, -2.000000000000000000 ) ) ;
#321 = ORIENTED_EDGE ( 'NONE', *, *, #43, .F. ) ;
#322 = UNCERTAINTY_MEASURE_WITH_UNIT (LENGTH_MEASURE( 1.000000000000000082E-05 ), #303, 'distance_accuracy_value', 'NONE');
#323 = COORDINATED_UNIVERSAL_TIME_OFFSET ( 5, 0, .BEHIND. ) ;
#324 = FACE_OUTER_BOUND ( 'NONE', #54, .T. ) ;
#325 = AXIS2_PLACEMENT_3D ( 'NONE', #173, #96, #202 ) ;
#326 = ORIENTED_EDGE ( 'NONE', *, *, #309, .T. ) ;
#327 = APPLICATION_PROTOCOL_DEFINITION ( 'international standard', 'config_control_design', 1994, #144 ) ;
#328 = ORIENTED_EDGE ( 'NONE', *, *, #257, .F. ) ;
#329 = DIRECTION ( 'NONE',  ( 1.000000000000000000, -6.982962677686265133E-15, 0.000000000000000000 ) ) ;
#330 = CARTESIAN_POINT ( 'NONE',  ( -0.3114999999999999991, -4.769622055793578304E-15, -2.000000000000000000 ) ) ;
#331 = AXIS2_PLACEMENT_3D ( 'NONE', #47, #270, #157 ) ;
#332 = VERTEX_POINT ( 'NONE', #313 ) ;
#333 = PERSON_AND_ORGANIZATION_ROLE ( 'design_owner' ) ;
#334 = CIRCLE ( 'NONE', #301, 0.3114999999999999991 ) ;
#335 = CIRCLE ( 'NONE', #154, 0.3125000000000000000 ) ;
#336 = PRODUCT_DEFINITION_SHAPE ( 'NONE', 'NONE',  #126 ) ;
#337 = VECTOR ( 'NONE', #314, 39.37007874015748854 ) ;
#338 = APPROVAL_PERSON_ORGANIZATION ( #77, #341, #304 ) ;
#339 = CARTESIAN_POINT ( 'NONE',  ( 4.890937612370273194E-29, -6.982962677686291165E-15, -2.000000000000000000 ) ) ;
#340 = DIRECTION ( 'NONE',  ( -1.000000000000000000, 6.982962677686265133E-15, 0.000000000000000000 ) ) ;
#341 = APPROVAL ( #366, 'UNSPECIFIED' ) ;
#342 = CARTESIAN_POINT ( 'NONE',  ( 0.2924999999999997602, -2.110215457714318353E-15, 8.537024980215342529E-18 ) ) ;
#343 = CARTESIAN_POINT ( 'NONE',  ( 4.890937612370293302E-31, -6.982962677686318726E-17, -0.02000000000000008021 ) ) ;
#344 = EDGE_LOOP ( 'NONE', ( #186, #189, #200, #315 ) ) ;
#345 = ADVANCED_FACE ( 'NONE', ( #324 ), #31, .F. ) ;
#346 = CYLINDRICAL_SURFACE ( 'NONE', #348, 0.3124999999999998890 ) ;
#347 = DIRECTION ( 'NONE',  ( 1.000000000000000000, -6.982962677686269077E-15, 0.000000000000000000 ) ) ;
#348 = AXIS2_PLACEMENT_3D ( 'NONE', #266, #319, #150 ) ;
#349 = PLANE ( 'NONE',  #325 ) ;
#350 = ADVANCED_FACE ( 'NONE', ( #185 ), #265, .T. ) ;
#351 = ORIENTED_EDGE ( 'NONE', *, *, #279, .F. ) ;
#352 = ORIENTED_EDGE ( 'NONE', *, *, #284, .T. ) ;
#353 = SECURITY_CLASSIFICATION_LEVEL ( 'unclassified' ) ;
#354 = CARTESIAN_POINT ( 'NONE',  ( -0.3124999999999998335, 2.112346210000093866E-15, -0.02000000000000008021 ) ) ;
#355 = VERTEX_POINT ( 'NONE', #342 ) ;
#356 = EDGE_CURVE ( 'NONE', #171, #62, #93, .T. ) ;
#357 = AXIS2_PLACEMENT_3D ( 'NONE', #117, #201, #168 ) ;
#358 = PERSON_AND_ORGANIZATION ( #365, #137 ) ;
#359 = DIRECTION ( 'NONE',  ( -2.445468806185136597E-29, 3.491481338843145583E-15, 1.000000000000000000 ) ) ;
#360 = DIRECTION ( 'NONE',  ( 0.000000000000000000, 0.000000000000000000, 1.000000000000000000 ) ) ;
#361 = CARTESIAN_POINT ( 'NONE',  ( 4.888492143564087591E-29, -6.979471196347447369E-15, -1.998999999999999888 ) ) ;
#362 = EDGE_CURVE ( 'NONE', #30, #33, #160, .T. ) ;
#363 = VECTOR ( 'NONE', #25, 39.37007874015748854 ) ;
#364 = COORDINATED_UNIVERSAL_TIME_OFFSET ( 5, 0, .BEHIND. ) ;
#365 = PERSON ( 'UNSPECIFIED', 'UNSPECIFIED', 'UNSPECIFIED', ('UNSPECIFIED'), ('UNSPECIFIED'), ('UNSPECIFIED') ) ;
#366 = APPROVAL_STATUS ( 'not_yet_approved' ) ;
ENDSEC;
END-ISO-10303-21;
