ISO-10303-21;
HEADER;
FILE_DESCRIPTION (( 'STEP AP203' ),
    '1' );
FILE_NAME ('77477.STEP',
    '2024-05-03T15:07:27',
    ( '' ),
    ( '' ),
    'SwSTEP 2.0',
    'SolidWorks 2023',
    '' );
FILE_SCHEMA (( 'CONFIG_CONTROL_DESIGN' ));
ENDSEC;

DATA;
#1 = DIRECTION ( 'NONE',  ( 1.000000000000000000, -6.982962677686269077E-15, 0.000000000000000000 ) ) ;
#2 = LENGTH_MEASURE_WITH_UNIT ( LENGTH_MEASURE( 0.02539999999999999897 ), #268 );
#3 = LINE ( 'NONE', #287, #204 ) ;
#4 = PERSON_AND_ORGANIZATION ( #302, #109 ) ;
#5 = CARTESIAN_POINT ( 'NONE',  ( 1.406144563556453543E-28, -2.007601769834808621E-14, -5.750000000000000000 ) ) ;
#6 = DATE_AND_TIME ( #320, #18 ) ;
#7 = AXIS2_PLACEMENT_3D ( 'NONE', #154, #279, #118 ) ;
#8 = APPROVAL_PERSON_ORGANIZATION ( #60, #42, #209 ) ;
#9 = PLANE ( 'NONE',  #191 ) ;
#10 = CIRCLE ( 'NONE', #102, 0.5000000000000000000 ) ;
#11 = LINE ( 'NONE', #39, #51 ) ;
#12 = ORIENTED_EDGE ( 'NONE', *, *, #155, .F. ) ;
#13 = PERSON_AND_ORGANIZATION_ROLE ( 'design_owner' ) ;
#14 = ADVANCED_FACE ( 'NONE', ( #125 ), #43, .T. ) ;
#15 = CC_DESIGN_PERSON_AND_ORGANIZATION_ASSIGNMENT ( #201, #92, ( #150 ) ) ;
#16 = EDGE_LOOP ( 'NONE', ( #77, #100 ) ) ;
#17 = DIRECTION ( 'NONE',  ( 1.000000000000000000, -6.982962677686266711E-15, 0.000000000000000000 ) ) ;
#18 = LOCAL_TIME ( 11, 7, 27.00000000000000000, #181 ) ;
#19 = EDGE_LOOP ( 'NONE', ( #214, #27, #75, #316 ) ) ;
#20 = CIRCLE ( 'NONE', #57, 0.4999999999999997224 ) ;
#21 = COORDINATED_UNIVERSAL_TIME_OFFSET ( 5, 0, .BEHIND. ) ;
#22 = DIRECTION ( 'NONE',  ( 1.000000000000000000, -6.982962677686266711E-15, 4.876036955247133327E-29 ) ) ;
#23 = AXIS2_PLACEMENT_3D ( 'NONE', #176, #253, #103 ) ;
#24 = CC_DESIGN_DATE_AND_TIME_ASSIGNMENT ( #205, #148, ( #150 ) ) ;
#25 = CIRCLE ( 'NONE', #124, 0.4799999999999995937 ) ;
#26 = EDGE_CURVE ( 'NONE', #305, #364, #72, .T. ) ;
#27 = ORIENTED_EDGE ( 'NONE', *, *, #301, .T. ) ;
#28 = DIRECTION ( 'NONE',  ( -2.445468806185136597E-29, 3.491481338843145583E-15, 1.000000000000000000 ) ) ;
#29 = DIRECTION ( 'NONE',  ( -0.7071067811865471286, 2.468850131082252722E-15, -0.7071067811865479058 ) ) ;
#30 = DIRECTION ( 'NONE',  ( -2.445468806185136877E-29, 3.491481338843145188E-15, 1.000000000000000000 ) ) ;
#31 = EDGE_LOOP ( 'NONE', ( #170, #257, #256, #166 ) ) ;
#32 = CARTESIAN_POINT ( 'NONE',  ( -0.4999999999999997224, 3.421651712066268085E-15, -0.02000000000000013572 ) ) ;
#33 = SECURITY_CLASSIFICATION_LEVEL ( 'unclassified' ) ;
#34 = AXIS2_PLACEMENT_3D ( 'NONE', #68, #190, #349 ) ;
#35 = DIRECTION ( 'NONE',  ( -2.445468806185136597E-29, 3.491481338843145583E-15, 1.000000000000000000 ) ) ;
#36 = APPROVAL_DATE_TIME ( #314, #324 ) ;
#37 = CC_DESIGN_DATE_AND_TIME_ASSIGNMENT ( #88, #347, ( #259 ) ) ;
#38 = DIRECTION ( 'NONE',  ( 1.000000000000000000, -6.982962677686270655E-15, 0.000000000000000000 ) ) ;
#39 = CARTESIAN_POINT ( 'NONE',  ( -0.5000000000000000000, 3.552713678800500929E-15, -2.459467545127452891E-29 ) ) ;
#40 = AXIS2_PLACEMENT_3D ( 'NONE', #5, #247, #173 ) ;
#41 = CARTESIAN_POINT ( 'NONE',  ( 0.000000000000000000, 0.000000000000000000, 0.000000000000000000 ) ) ;
#42 = APPROVAL ( #177, 'UNSPECIFIED' ) ;
#43 = PLANE ( 'NONE',  #7 ) ;
#44 = CARTESIAN_POINT ( 'NONE',  ( -3.131554243005659264E-46, 4.471029511141341874E-32, 1.280553747030123384E-17 ) ) ;
#45 = VECTOR ( 'NONE', #267, 39.37007874015748143 ) ;
#46 = CARTESIAN_POINT ( 'NONE',  ( 0.4989999999999999991, -1.308607205798409720E-14, -2.749999999999999556 ) ) ;
#47 = EDGE_CURVE ( 'NONE', #269, #332, #20, .T. ) ;
#48 = ADVANCED_FACE ( 'NONE', ( #351 ), #86, .T. ) ;
#49 = AXIS2_PLACEMENT_3D ( 'NONE', #59, #90, #203 ) ;
#50 = PRODUCT_DEFINITION_SHAPE ( 'NONE', 'NONE',  #150 ) ;
#51 = VECTOR ( 'NONE', #292, 39.37007874015748143 ) ;
#52 = DIRECTION ( 'NONE',  ( 2.445468806185136597E-29, -3.491481338843145583E-15, -1.000000000000000000 ) ) ;
#53 = ORIENTED_EDGE ( 'NONE', *, *, #196, .F. ) ;
#54 = LINE ( 'NONE', #231, #101 ) ;
#55 = ADVANCED_FACE ( 'NONE', ( #180 ), #175, .T. ) ;
#56 = DIRECTION ( 'NONE',  ( 1.000000000000000000, 0.000000000000000000, 0.000000000000000000 ) ) ;
#57 = AXIS2_PLACEMENT_3D ( 'NONE', #294, #223, #213 ) ;
#58 = DIRECTION ( 'NONE',  ( 2.445468806185136597E-29, -3.491481338843145583E-15, -1.000000000000000000 ) ) ;
#59 = CARTESIAN_POINT ( 'NONE',  ( 0.000000000000000000, 0.000000000000000000, 0.000000000000000000 ) ) ;
#60 = PERSON_AND_ORGANIZATION ( #302, #109 ) ;
#61 = CARTESIAN_POINT ( 'NONE',  ( 6.725039217009123399E-29, -9.601573681818648281E-15, -2.749999999999999556 ) ) ;
#62 = PERSON_AND_ORGANIZATION_ROLE ( 'creator' ) ;
#63 = EDGE_CURVE ( 'NONE', #151, #364, #11, .T. ) ;
#64 = COORDINATED_UNIVERSAL_TIME_OFFSET ( 5, 0, .BEHIND. ) ;
#65 = CC_DESIGN_APPROVAL ( #42, ( #259 ) ) ;
#66 = DIRECTION ( 'NONE',  ( -2.445468806185136597E-29, 3.491481338843145583E-15, 1.000000000000000000 ) ) ;
#67 = CARTESIAN_POINT ( 'NONE',  ( -0.5000000000000000000, -1.128608201128286632E-14, -5.750000000000000000 ) ) ;
#68 = CARTESIAN_POINT ( 'NONE',  ( 6.725039217009123399E-29, -9.601573681818648281E-15, -2.749999999999999556 ) ) ;
#69 = EDGE_LOOP ( 'NONE', ( #135, #331, #129, #76 ) ) ;
#70 = MANIFOLD_SOLID_BREP ( 'Body-Move/Copy2[2]', #327 ) ;
#71 = MANIFOLD_SOLID_BREP ( 'Body-Move/Copy2[1]', #220 ) ;
#72 = CIRCLE ( 'NONE', #117, 0.5000000000000000000 ) ;
#73 = ADVANCED_FACE ( 'NONE', ( #207 ), #140, .F. ) ;
#74 = CIRCLE ( 'NONE', #133, 0.5000000000000000000 ) ;
#75 = ORIENTED_EDGE ( 'NONE', *, *, #47, .F. ) ;
#76 = ORIENTED_EDGE ( 'NONE', *, *, #311, .T. ) ;
#77 = ORIENTED_EDGE ( 'NONE', *, *, #26, .T. ) ;
#78 = CIRCLE ( 'NONE', #40, 0.5000000000000000000 ) ;
#79 = DIRECTION ( 'NONE',  ( -1.000000000000000000, 6.982962677686266711E-15, 0.000000000000000000 ) ) ;
#80 = AXIS2_PLACEMENT_3D ( 'NONE', #288, #167, #1 ) ;
#81 = DIRECTION ( 'NONE',  ( 2.438088387897960049E-29, -3.491481338843145188E-15, -1.000000000000000000 ) ) ;
#82 = MECHANICAL_CONTEXT ( 'NONE', #306, 'mechanical' ) ;
#83 = APPROVAL ( #293, 'UNSPECIFIED' ) ;
#84 = APPROVAL_ROLE ( '' ) ;
#85 = CARTESIAN_POINT ( 'NONE',  ( -0.5000000000000000000, -1.128608201128286632E-14, -2.749999999999999556 ) ) ;
#86 = CYLINDRICAL_SURFACE ( 'NONE', #240, 0.4999999999999998335 ) ;
#87 = APPROVAL_PERSON_ORGANIZATION ( #172, #324, #139 ) ;
#88 = DATE_AND_TIME ( #243, #162 ) ;
#89 = CIRCLE ( 'NONE', #23, 0.4799999999999995937 ) ;
#90 = DIRECTION ( 'NONE',  ( -2.445468806185136597E-29, 3.491481338843145583E-15, 1.000000000000000000 ) ) ;
#91 = EDGE_CURVE ( 'NONE', #261, #269, #350, .T. ) ;
#92 = PERSON_AND_ORGANIZATION_ROLE ( 'creator' ) ;
#93 = DIRECTION ( 'NONE',  ( -2.445468806185136597E-29, 3.491481338843145583E-15, 1.000000000000000000 ) ) ;
#94 = DIRECTION ( 'NONE',  ( 1.000000000000000000, -6.982962677686269077E-15, 0.000000000000000000 ) ) ;
#95 = DESIGN_CONTEXT ( 'detailed design', #263, 'design' ) ;
#96 = DIRECTION ( 'NONE',  ( 2.438088387897960049E-29, -3.491481338843145188E-15, -1.000000000000000000 ) ) ;
#97 = AXIS2_PLACEMENT_3D ( 'NONE', #41, #270, #56 ) ;
#98 = FACE_OUTER_BOUND ( 'NONE', #69, .T. ) ;
#99 = ADVANCED_FACE ( 'NONE', ( #321 ), #9, .F. ) ;
#100 = ORIENTED_EDGE ( 'NONE', *, *, #132, .T. ) ;
#101 = VECTOR ( 'NONE', #29, 39.37007874015748143 ) ;
#102 = AXIS2_PLACEMENT_3D ( 'NONE', #275, #241, #17 ) ;
#103 = DIRECTION ( 'NONE',  ( 1.000000000000000000, -6.982962677686266711E-15, 4.876036955247133327E-29 ) ) ;
#104 = ORIENTED_EDGE ( 'NONE', *, *, #346, .F. ) ;
#105 = PRODUCT ( '77477', '77477', '', ( #82 ) ) ;
#106 = ORIENTED_EDGE ( 'NONE', *, *, #110, .F. ) ;
#107 = ORIENTED_EDGE ( 'NONE', *, *, #123, .T. ) ;
#108 = PLANE ( 'NONE',  #290 ) ;
#109 = ORGANIZATION ( 'UNSPECIFIED', 'UNSPECIFIED', '' ) ;
#110 = EDGE_CURVE ( 'NONE', #362, #217, #210, .T. ) ;
#111 =( NAMED_UNIT ( * ) PLANE_ANGLE_UNIT ( ) SI_UNIT ( $, .RADIAN. ) );
#112 = ADVANCED_FACE ( 'NONE', ( #179 ), #278, .T. ) ;
#113 = PERSON_AND_ORGANIZATION ( #302, #109 ) ;
#114 = ORIENTED_EDGE ( 'NONE', *, *, #255, .F. ) ;
#115 = CONICAL_SURFACE ( 'NONE', #171, 0.4989999999999999991, 0.7853981633975507526 ) ;
#116 = COORDINATED_UNIVERSAL_TIME_OFFSET ( 5, 0, .BEHIND. ) ;
#117 = AXIS2_PLACEMENT_3D ( 'NONE', #244, #93, #211 ) ;
#118 = DIRECTION ( 'NONE',  ( -1.000000000000000000, 6.982962677686265922E-15, -4.876176775795935793E-29 ) ) ;
#119 = CARTESIAN_POINT ( 'NONE',  ( 3.351822085289404787E-15, 0.4799999999999995937, -1.669508273909557867E-15 ) ) ;
#120 = EDGE_LOOP ( 'NONE', ( #197, #208, #337, #262 ) ) ;
#121 = APPROVAL_DATE_TIME ( #6, #83 ) ;
#122 = CARTESIAN_POINT ( 'NONE',  ( 0.4999999999999998335, -3.491481338843132566E-15, 2.438088387897967336E-29 ) ) ;
#123 = EDGE_CURVE ( 'NONE', #342, #362, #271, .T. ) ;
#124 = AXIS2_PLACEMENT_3D ( 'NONE', #44, #326, #22 ) ;
#125 = FACE_OUTER_BOUND ( 'NONE', #128, .T. ) ;
#126 = FACE_OUTER_BOUND ( 'NONE', #235, .T. ) ;
#127 = AXIS2_PLACEMENT_3D ( 'NONE', #286, #28, #164 ) ;
#128 = EDGE_LOOP ( 'NONE', ( #163, #53 ) ) ;
#129 = ORIENTED_EDGE ( 'NONE', *, *, #158, .T. ) ;
#130 = DIRECTION ( 'NONE',  ( -1.000000000000000000, 6.982962677686265922E-15, -4.876176775795935793E-29 ) ) ;
#131 = ORIENTED_EDGE ( 'NONE', *, *, #366, .T. ) ;
#132 = EDGE_CURVE ( 'NONE', #364, #305, #10, .T. ) ;
#133 = AXIS2_PLACEMENT_3D ( 'NONE', #309, #174, #38 ) ;
#134 = VERTEX_POINT ( 'NONE', #344 ) ;
#135 = ORIENTED_EDGE ( 'NONE', *, *, #91, .F. ) ;
#136 = CARTESIAN_POINT ( 'NONE',  ( 0.4799999999999995937, -3.396558832296480127E-15, 1.280553747032483033E-17 ) ) ;
#137 = APPLICATION_PROTOCOL_DEFINITION ( 'international standard', 'config_control_design', 1994, #306 ) ;
#138 = CARTESIAN_POINT ( 'NONE',  ( 4.890937612370306439E-31, -6.982962677686338448E-17, -0.02000000000000013572 ) ) ;
#139 = APPROVAL_ROLE ( '' ) ;
#140 = PLANE ( 'NONE',  #194 ) ;
#141 = AXIS2_PLACEMENT_3D ( 'NONE', #146, #218, #325 ) ;
#142 = PRODUCT_DEFINITION_FORMATION_WITH_SPECIFIED_SOURCE ( 'ANY', '', #105, .NOT_KNOWN. ) ;
#143 = LINE ( 'NONE', #291, #45 ) ;
#144 = PERSON_AND_ORGANIZATION ( #302, #109 ) ;
#145 = VECTOR ( 'NONE', #353, 39.37007874015748143 ) ;
#146 = CARTESIAN_POINT ( 'NONE',  ( 0.000000000000000000, 0.000000000000000000, 0.000000000000000000 ) ) ;
#147 = DIRECTION ( 'NONE',  ( 0.7071067811866199593, -2.468850131083015945E-15, 0.7071067811864750752 ) ) ;
#148 = DATE_TIME_ROLE ( 'creation_date' ) ;
#149 = ORIENTED_EDGE ( 'NONE', *, *, #91, .T. ) ;
#150 = PRODUCT_DEFINITION ( 'UNKNOWN', '', #142, #95 ) ;
#151 = VERTEX_POINT ( 'NONE', #67 ) ;
#152 =( GEOMETRIC_REPRESENTATION_CONTEXT ( 3 ) GLOBAL_UNCERTAINTY_ASSIGNED_CONTEXT ( ( #237 ) ) GLOBAL_UNIT_ASSIGNED_CONTEXT ( ( #182, #111, #295 ) ) REPRESENTATION_CONTEXT ( 'NONE', 'WORKASPACE' ) );
#153 = AXIS2_PLACEMENT_3D ( 'NONE', #298, #52, #79 ) ;
#154 = CARTESIAN_POINT ( 'NONE',  ( 3.491481338843273773E-15, 0.4999999999999799050, -5.750000000000001776 ) ) ;
#155 = EDGE_CURVE ( 'NONE', #362, #342, #308, .T. ) ;
#156 = CC_DESIGN_APPROVAL ( #324, ( #142 ) ) ;
#157 = DIRECTION ( 'NONE',  ( 1.000000000000000000, -6.982962677686266711E-15, 0.000000000000000000 ) ) ;
#158 = EDGE_CURVE ( 'NONE', #361, #332, #54, .T. ) ;
#159 = CARTESIAN_POINT ( 'NONE',  ( -0.4799999999999995937, 3.386736898677836436E-15, 1.280553747027767124E-17 ) ) ;
#160 = ORIENTED_EDGE ( 'NONE', *, *, #158, .F. ) ;
#161 = CIRCLE ( 'NONE', #198, 0.5000000000000000000 ) ;
#162 = LOCAL_TIME ( 11, 7, 27.00000000000000000, #116 ) ;
#163 = ORIENTED_EDGE ( 'NONE', *, *, #366, .F. ) ;
#164 = DIRECTION ( 'NONE',  ( 1.000000000000000000, -6.982962677686266711E-15, 0.000000000000000000 ) ) ;
#165 = FACE_OUTER_BOUND ( 'NONE', #16, .T. ) ;
#166 = ORIENTED_EDGE ( 'NONE', *, *, #132, .F. ) ;
#167 = DIRECTION ( 'NONE',  ( -2.445468806185136597E-29, 3.491481338843145583E-15, 1.000000000000000000 ) ) ;
#168 = PERSON_AND_ORGANIZATION ( #302, #109 ) ;
#169 = CARTESIAN_POINT ( 'NONE',  ( 3.491481338843200408E-15, 0.4999999999999903411, -2.750000000000000888 ) ) ;
#170 = ORIENTED_EDGE ( 'NONE', *, *, #63, .F. ) ;
#171 = AXIS2_PLACEMENT_3D ( 'NONE', #355, #66, #300 ) ;
#172 = PERSON_AND_ORGANIZATION ( #302, #109 ) ;
#173 = DIRECTION ( 'NONE',  ( 1.000000000000000000, -6.982962677686270655E-15, 0.000000000000000000 ) ) ;
#174 = DIRECTION ( 'NONE',  ( -2.445468806185136597E-29, 3.491481338843145583E-15, 1.000000000000000000 ) ) ;
#175 = CYLINDRICAL_SURFACE ( 'NONE', #49, 0.4999999999999998335 ) ;
#176 = CARTESIAN_POINT ( 'NONE',  ( -3.131554243005659264E-46, 4.471029511141341874E-32, 1.280553747030123384E-17 ) ) ;
#177 = APPROVAL_STATUS ( 'not_yet_approved' ) ;
#178 = ADVANCED_FACE ( 'NONE', ( #165 ), #108, .F. ) ;
#179 = FACE_OUTER_BOUND ( 'NONE', #31, .T. ) ;
#180 = FACE_OUTER_BOUND ( 'NONE', #19, .T. ) ;
#181 = COORDINATED_UNIVERSAL_TIME_OFFSET ( 5, 0, .BEHIND. ) ;
#182 =( CONVERSION_BASED_UNIT ( 'INCH', #2 ) LENGTH_UNIT ( ) NAMED_UNIT ( #212 ) );
#183 = AXIS2_PLACEMENT_3D ( 'NONE', #341, #313, #264 ) ;
#184 = DIRECTION ( 'NONE',  ( -0.7071067811866199593, 7.493145998870616062E-15, 0.7071067811864750752 ) ) ;
#185 = ADVANCED_FACE ( 'NONE', ( #126 ), #328, .T. ) ;
#186 = ADVANCED_FACE ( 'NONE', ( #304 ), #250, .T. ) ;
#187 = ORIENTED_EDGE ( 'NONE', *, *, #312, .F. ) ;
#188 = DIRECTION ( 'NONE',  ( -2.445468806185136597E-29, 3.491481338843145583E-15, 1.000000000000000000 ) ) ;
#189 = CARTESIAN_POINT ( 'NONE',  ( 0.4989999999999999991, -1.308607205798409720E-14, -2.749999999999999556 ) ) ;
#190 = DIRECTION ( 'NONE',  ( -2.445468806185136597E-29, 3.491481338843145583E-15, 1.000000000000000000 ) ) ;
#191 = AXIS2_PLACEMENT_3D ( 'NONE', #354, #216, #322 ) ;
#192 = CARTESIAN_POINT ( 'NONE',  ( 0.000000000000000000, 0.000000000000000000, 0.000000000000000000 ) ) ;
#193 = ADVANCED_BREP_SHAPE_REPRESENTATION ( '77477', ( #71, #70, #97 ), #152 ) ;
#194 = AXIS2_PLACEMENT_3D ( 'NONE', #119, #96, #245 ) ;
#195 = DIRECTION ( 'NONE',  ( -2.445468806185136597E-29, 3.491481338843145583E-15, 1.000000000000000000 ) ) ;
#196 = EDGE_CURVE ( 'NONE', #151, #134, #74, .T. ) ;
#197 = ORIENTED_EDGE ( 'NONE', *, *, #301, .F. ) ;
#198 = AXIS2_PLACEMENT_3D ( 'NONE', #227, #195, #157 ) ;
#199 = CARTESIAN_POINT ( 'NONE',  ( 0.4999999999999997224, -3.500078625662627502E-15, -0.02000000000000013572 ) ) ;
#200 = CALENDAR_DATE ( 2024, 3, 5 ) ;
#201 = PERSON_AND_ORGANIZATION ( #302, #109 ) ;
#202 = APPROVAL_PERSON_ORGANIZATION ( #144, #83, #84 ) ;
#203 = DIRECTION ( 'NONE',  ( 1.000000000000000000, -6.982962677686267499E-15, 4.876176775795936353E-29 ) ) ;
#204 = VECTOR ( 'NONE', #30, 39.37007874015748143 ) ;
#205 = DATE_AND_TIME ( #200, #229 ) ;
#206 = CARTESIAN_POINT ( 'NONE',  ( 0.4999999999999997224, -3.500078625662627502E-15, -0.02000000000000013572 ) ) ;
#207 = FACE_OUTER_BOUND ( 'NONE', #228, .T. ) ;
#208 = ORIENTED_EDGE ( 'NONE', *, *, #255, .T. ) ;
#209 = APPROVAL_ROLE ( '' ) ;
#210 = LINE ( 'NONE', #296, #357 ) ;
#211 = DIRECTION ( 'NONE',  ( 1.000000000000000000, -6.982962677686266711E-15, 0.000000000000000000 ) ) ;
#212 = DIMENSIONAL_EXPONENTS ( 1.000000000000000000, 0.000000000000000000, 0.000000000000000000, 0.000000000000000000, 0.000000000000000000, 0.000000000000000000, 0.000000000000000000 ) ;
#213 = DIRECTION ( 'NONE',  ( 1.000000000000000000, -6.982962677686266711E-15, 0.000000000000000000 ) ) ;
#214 = ORIENTED_EDGE ( 'NONE', *, *, #346, .T. ) ;
#215 = DIRECTION ( 'NONE',  ( 1.000000000000000000, -6.982962677686267499E-15, 4.876176775795936353E-29 ) ) ;
#216 = DIRECTION ( 'NONE',  ( -2.438088387897960049E-29, 3.491481338843145188E-15, 1.000000000000000000 ) ) ;
#217 = VERTEX_POINT ( 'NONE', #273 ) ;
#218 = DIRECTION ( 'NONE',  ( -2.445468806185136597E-29, 3.491481338843145583E-15, 1.000000000000000000 ) ) ;
#219 = EDGE_LOOP ( 'NONE', ( #106, #230, #242, #114 ) ) ;
#220 = CLOSED_SHELL ( 'NONE', ( #185, #14, #178, #112 ) ) ;
#221 = DIRECTION ( 'NONE',  ( -2.445468806185136597E-29, 3.491481338843145583E-15, 1.000000000000000000 ) ) ;
#222 = VECTOR ( 'NONE', #251, 39.37007874015748143 ) ;
#223 = DIRECTION ( 'NONE',  ( -2.445468806185136597E-29, 3.491481338843145583E-15, 1.000000000000000000 ) ) ;
#224 = ORIENTED_EDGE ( 'NONE', *, *, #225, .T. ) ;
#225 = EDGE_CURVE ( 'NONE', #361, #261, #25, .T. ) ;
#226 = ADVANCED_FACE ( 'NONE', ( #248 ), #115, .T. ) ;
#227 = CARTESIAN_POINT ( 'NONE',  ( 6.722593748202938917E-29, -9.598082200479805274E-15, -2.748999999999999666 ) ) ;
#228 = EDGE_LOOP ( 'NONE', ( #224, #323 ) ) ;
#229 = LOCAL_TIME ( 11, 7, 27.00000000000000000, #64 ) ;
#230 = ORIENTED_EDGE ( 'NONE', *, *, #155, .T. ) ;
#231 = CARTESIAN_POINT ( 'NONE',  ( -0.4999999999999997224, 3.421651712066268085E-15, -0.02000000000000013572 ) ) ;
#232 = LINE ( 'NONE', #46, #260 ) ;
#233 = CARTESIAN_POINT ( 'NONE',  ( 0.5000000000000000000, -1.309305502066178164E-14, -2.749999999999999556 ) ) ;
#234 = APPROVAL_STATUS ( 'not_yet_approved' ) ;
#235 = EDGE_LOOP ( 'NONE', ( #131, #285, #303, #352 ) ) ;
#236 = EDGE_CURVE ( 'NONE', #345, #269, #276, .T. ) ;
#237 = UNCERTAINTY_MEASURE_WITH_UNIT (LENGTH_MEASURE( 1.000000000000000082E-05 ), #182, 'distance_accuracy_value', 'NONE');
#238 = CARTESIAN_POINT ( 'NONE',  ( 0.000000000000000000, 0.000000000000000000, 0.000000000000000000 ) ) ;
#239 = PERSON_AND_ORGANIZATION ( #302, #109 ) ;
#240 = AXIS2_PLACEMENT_3D ( 'NONE', #238, #35, #215 ) ;
#241 = DIRECTION ( 'NONE',  ( -2.445468806185136597E-29, 3.491481338843145583E-15, 1.000000000000000000 ) ) ;
#242 = ORIENTED_EDGE ( 'NONE', *, *, #312, .T. ) ;
#243 = CALENDAR_DATE ( 2024, 3, 5 ) ;
#244 = CARTESIAN_POINT ( 'NONE',  ( 6.725039217009123399E-29, -9.601573681818648281E-15, -2.749999999999999556 ) ) ;
#245 = DIRECTION ( 'NONE',  ( -1.000000000000000000, 6.982962677686265922E-15, -4.876176775795935793E-29 ) ) ;
#246 = ADVANCED_FACE ( 'NONE', ( #98 ), #317, .T. ) ;
#247 = DIRECTION ( 'NONE',  ( -2.445468806185136597E-29, 3.491481338843145583E-15, 1.000000000000000000 ) ) ;
#248 = FACE_OUTER_BOUND ( 'NONE', #281, .T. ) ;
#249 = SHAPE_DEFINITION_REPRESENTATION ( #50, #193 ) ;
#250 = CONICAL_SURFACE ( 'NONE', #360, 0.4999999999999997224, 0.7853981633974477239 ) ;
#251 = DIRECTION ( 'NONE',  ( 0.7071067811865471286, -7.319954787623254468E-15, -0.7071067811865479058 ) ) ;
#252 = ADVANCED_FACE ( 'NONE', ( #310 ), #365, .T. ) ;
#253 = DIRECTION ( 'NONE',  ( -2.445468806185136597E-29, 3.491481338843145583E-15, 1.000000000000000000 ) ) ;
#254 = CIRCLE ( 'NONE', #127, 0.5000000000000000000 ) ;
#255 = EDGE_CURVE ( 'NONE', #217, #345, #254, .T. ) ;
#256 = ORIENTED_EDGE ( 'NONE', *, *, #333, .T. ) ;
#257 = ORIENTED_EDGE ( 'NONE', *, *, #196, .T. ) ;
#258 = EDGE_LOOP ( 'NONE', ( #334, #12 ) ) ;
#259 = SECURITY_CLASSIFICATION ( '', '', #33 ) ;
#260 = VECTOR ( 'NONE', #147, 39.37007874015748143 ) ;
#261 = VERTEX_POINT ( 'NONE', #136 ) ;
#262 = ORIENTED_EDGE ( 'NONE', *, *, #311, .F. ) ;
#263 = APPLICATION_CONTEXT ( 'configuration controlled 3d designs of mechanical parts and assemblies' ) ;
#264 = DIRECTION ( 'NONE',  ( 1.000000000000000000, -6.982962677686266711E-15, 0.000000000000000000 ) ) ;
#265 = CALENDAR_DATE ( 2024, 3, 5 ) ;
#266 = CC_DESIGN_PERSON_AND_ORGANIZATION_ASSIGNMENT ( #168, #62, ( #142 ) ) ;
#267 = DIRECTION ( 'NONE',  ( -2.445468806185136877E-29, 3.491481338843145188E-15, 1.000000000000000000 ) ) ;
#268 =( LENGTH_UNIT ( ) NAMED_UNIT ( * ) SI_UNIT ( $, .METRE. ) );
#269 = VERTEX_POINT ( 'NONE', #199 ) ;
#270 = DIRECTION ( 'NONE',  ( 0.000000000000000000, 0.000000000000000000, 1.000000000000000000 ) ) ;
#271 = CIRCLE ( 'NONE', #34, 0.4989999999999999991 ) ;
#272 = CC_DESIGN_SECURITY_CLASSIFICATION ( #259, ( #142 ) ) ;
#273 = CARTESIAN_POINT ( 'NONE',  ( -0.5000000000000000000, -1.281242234827832765E-15, -2.748999999999999666 ) ) ;
#274 = APPLICATION_PROTOCOL_DEFINITION ( 'international standard', 'config_control_design', 1994, #263 ) ;
#275 = CARTESIAN_POINT ( 'NONE',  ( 6.725039217009123399E-29, -9.601573681818648281E-15, -2.749999999999999556 ) ) ;
#276 = LINE ( 'NONE', #122, #145 ) ;
#277 = DATE_AND_TIME ( #359, #358 ) ;
#278 = CYLINDRICAL_SURFACE ( 'NONE', #141, 0.5000000000000000000 ) ;
#279 = DIRECTION ( 'NONE',  ( 2.438088387897960049E-29, -3.491481338843145188E-15, -1.000000000000000000 ) ) ;
#280 = PRODUCT_RELATED_PRODUCT_CATEGORY ( 'detail', '', ( #105 ) ) ;
#281 = EDGE_LOOP ( 'NONE', ( #107, #338, #104, #187 ) ) ;
#282 = DIRECTION ( 'NONE',  ( 1.000000000000000000, -6.982962677686266711E-15, 4.876176775795935793E-29 ) ) ;
#283 = EDGE_LOOP ( 'NONE', ( #348, #149, #319, #160 ) ) ;
#284 = AXIS2_PLACEMENT_3D ( 'NONE', #61, #188, #94 ) ;
#285 = ORIENTED_EDGE ( 'NONE', *, *, #63, .T. ) ;
#286 = CARTESIAN_POINT ( 'NONE',  ( 6.722593748202938917E-29, -9.598082200479805274E-15, -2.748999999999999666 ) ) ;
#287 = CARTESIAN_POINT ( 'NONE',  ( -0.4999999999999998335, 3.552713678800499746E-15, -2.459467545127452330E-29 ) ) ;
#288 = CARTESIAN_POINT ( 'NONE',  ( 6.725039217009123399E-29, -9.601573681818648281E-15, -2.749999999999999556 ) ) ;
#289 = PERSON_AND_ORGANIZATION_ROLE ( 'design_supplier' ) ;
#290 = AXIS2_PLACEMENT_3D ( 'NONE', #169, #81, #130 ) ;
#291 = CARTESIAN_POINT ( 'NONE',  ( 0.5000000000000000000, -3.491481338843133355E-15, 2.438088387897967896E-29 ) ) ;
#292 = DIRECTION ( 'NONE',  ( -2.445468806185136877E-29, 3.491481338843145188E-15, 1.000000000000000000 ) ) ;
#293 = APPROVAL_STATUS ( 'not_yet_approved' ) ;
#294 = CARTESIAN_POINT ( 'NONE',  ( 4.890937612370306439E-31, -6.982962677686338448E-17, -0.02000000000000013572 ) ) ;
#295 =( NAMED_UNIT ( * ) SI_UNIT ( $, .STERADIAN. ) SOLID_ANGLE_UNIT ( ) );
#296 = CARTESIAN_POINT ( 'NONE',  ( -0.4989999999999999991, -6.055965430375748360E-15, -2.749999999999999556 ) ) ;
#297 = CC_DESIGN_PERSON_AND_ORGANIZATION_ASSIGNMENT ( #239, #343, ( #259 ) ) ;
#298 = CARTESIAN_POINT ( 'NONE',  ( 4.890937612370306439E-31, -6.982962677686338448E-17, -0.02000000000000013572 ) ) ;
#299 = AXIS2_PLACEMENT_3D ( 'NONE', #192, #221, #282 ) ;
#300 = DIRECTION ( 'NONE',  ( 1.000000000000000000, -6.982962677686269077E-15, 0.000000000000000000 ) ) ;
#301 = EDGE_CURVE ( 'NONE', #217, #332, #3, .T. ) ;
#302 = PERSON ( 'UNSPECIFIED', 'UNSPECIFIED', 'UNSPECIFIED', ('UNSPECIFIED'), ('UNSPECIFIED'), ('UNSPECIFIED') ) ;
#303 = ORIENTED_EDGE ( 'NONE', *, *, #26, .F. ) ;
#304 = FACE_OUTER_BOUND ( 'NONE', #283, .T. ) ;
#305 = VERTEX_POINT ( 'NONE', #233 ) ;
#306 = APPLICATION_CONTEXT ( 'configuration controlled 3d designs of mechanical parts and assemblies' ) ;
#307 = LOCAL_TIME ( 11, 7, 27.00000000000000000, #318 ) ;
#308 = CIRCLE ( 'NONE', #284, 0.4989999999999999991 ) ;
#309 = CARTESIAN_POINT ( 'NONE',  ( 1.406144563556453543E-28, -2.007601769834808621E-14, -5.750000000000000000 ) ) ;
#310 = FACE_OUTER_BOUND ( 'NONE', #219, .T. ) ;
#311 = EDGE_CURVE ( 'NONE', #332, #269, #340, .T. ) ;
#312 = EDGE_CURVE ( 'NONE', #342, #345, #232, .T. ) ;
#313 = DIRECTION ( 'NONE',  ( -2.445468806185136597E-29, 3.491481338843145583E-15, 1.000000000000000000 ) ) ;
#314 = DATE_AND_TIME ( #265, #307 ) ;
#315 = DIRECTION ( 'NONE',  ( -1.000000000000000000, 6.982962677686266711E-15, 0.000000000000000000 ) ) ;
#316 = ORIENTED_EDGE ( 'NONE', *, *, #236, .F. ) ;
#317 = CONICAL_SURFACE ( 'NONE', #153, 0.4999999999999997224, 0.7853981633974477239 ) ;
#318 = COORDINATED_UNIVERSAL_TIME_OFFSET ( 5, 0, .BEHIND. ) ;
#319 = ORIENTED_EDGE ( 'NONE', *, *, #47, .T. ) ;
#320 = CALENDAR_DATE ( 2024, 3, 5 ) ;
#321 = FACE_OUTER_BOUND ( 'NONE', #258, .T. ) ;
#322 = DIRECTION ( 'NONE',  ( 1.000000000000000000, -6.982962677686265922E-15, 4.876176775795935793E-29 ) ) ;
#323 = ORIENTED_EDGE ( 'NONE', *, *, #339, .T. ) ;
#324 = APPROVAL ( #234, 'UNSPECIFIED' ) ;
#325 = DIRECTION ( 'NONE',  ( 1.000000000000000000, -6.982962677686266711E-15, 4.876176775795935793E-29 ) ) ;
#326 = DIRECTION ( 'NONE',  ( -2.445468806185136597E-29, 3.491481338843145583E-15, 1.000000000000000000 ) ) ;
#327 = CLOSED_SHELL ( 'NONE', ( #226, #55, #186, #246, #48, #252, #99, #73 ) ) ;
#328 = CYLINDRICAL_SURFACE ( 'NONE', #299, 0.5000000000000000000 ) ;
#329 = CC_DESIGN_APPROVAL ( #83, ( #150 ) ) ;
#330 = CC_DESIGN_PERSON_AND_ORGANIZATION_ASSIGNMENT ( #4, #13, ( #105 ) ) ;
#331 = ORIENTED_EDGE ( 'NONE', *, *, #225, .F. ) ;
#332 = VERTEX_POINT ( 'NONE', #32 ) ;
#333 = EDGE_CURVE ( 'NONE', #134, #305, #143, .T. ) ;
#334 = ORIENTED_EDGE ( 'NONE', *, *, #123, .F. ) ;
#335 = CARTESIAN_POINT ( 'NONE',  ( -0.4989999999999999991, -6.050666976027525958E-15, -2.749999999999999556 ) ) ;
#336 = CARTESIAN_POINT ( 'NONE',  ( 0.5000000000000000000, -1.308956353932293863E-14, -2.748999999999999666 ) ) ;
#337 = ORIENTED_EDGE ( 'NONE', *, *, #236, .T. ) ;
#338 = ORIENTED_EDGE ( 'NONE', *, *, #110, .T. ) ;
#339 = EDGE_CURVE ( 'NONE', #261, #361, #89, .T. ) ;
#340 = CIRCLE ( 'NONE', #183, 0.4999999999999997224 ) ;
#341 = CARTESIAN_POINT ( 'NONE',  ( 4.890937612370306439E-31, -6.982962677686338448E-17, -0.02000000000000013572 ) ) ;
#342 = VERTEX_POINT ( 'NONE', #189 ) ;
#343 = PERSON_AND_ORGANIZATION_ROLE ( 'classification_officer' ) ;
#344 = CARTESIAN_POINT ( 'NONE',  ( 0.5000000000000000000, -2.356749903719122272E-14, -5.750000000000000000 ) ) ;
#345 = VERTEX_POINT ( 'NONE', #336 ) ;
#346 = EDGE_CURVE ( 'NONE', #345, #217, #161, .T. ) ;
#347 = DATE_TIME_ROLE ( 'classification_date' ) ;
#348 = ORIENTED_EDGE ( 'NONE', *, *, #339, .F. ) ;
#349 = DIRECTION ( 'NONE',  ( 1.000000000000000000, -6.982962677686269077E-15, 0.000000000000000000 ) ) ;
#350 = LINE ( 'NONE', #206, #222 ) ;
#351 = FACE_OUTER_BOUND ( 'NONE', #120, .T. ) ;
#352 = ORIENTED_EDGE ( 'NONE', *, *, #333, .F. ) ;
#353 = DIRECTION ( 'NONE',  ( -2.445468806185136877E-29, 3.491481338843145188E-15, 1.000000000000000000 ) ) ;
#354 = CARTESIAN_POINT ( 'NONE',  ( 6.725039217009123399E-29, -9.601573681818648281E-15, -2.749999999999999556 ) ) ;
#355 = CARTESIAN_POINT ( 'NONE',  ( 6.725039217009123399E-29, -9.601573681818648281E-15, -2.749999999999999556 ) ) ;
#356 = APPROVAL_DATE_TIME ( #277, #42 ) ;
#357 = VECTOR ( 'NONE', #184, 39.37007874015748143 ) ;
#358 = LOCAL_TIME ( 11, 7, 27.00000000000000000, #21 ) ;
#359 = CALENDAR_DATE ( 2024, 3, 5 ) ;
#360 = AXIS2_PLACEMENT_3D ( 'NONE', #138, #58, #315 ) ;
#361 = VERTEX_POINT ( 'NONE', #159 ) ;
#362 = VERTEX_POINT ( 'NONE', #335 ) ;
#363 = CC_DESIGN_PERSON_AND_ORGANIZATION_ASSIGNMENT ( #113, #289, ( #142 ) ) ;
#364 = VERTEX_POINT ( 'NONE', #85 ) ;
#365 = CONICAL_SURFACE ( 'NONE', #80, 0.4989999999999999991, 0.7853981633975507526 ) ;
#366 = EDGE_CURVE ( 'NONE', #134, #151, #78, .T. ) ;
ENDSEC;
END-ISO-10303-21;
