ISO-10303-21;
HEADER;
FILE_DESCRIPTION (( 'STEP AP203' ),
    '1' );
FILE_NAME ('82995.STEP',
    '2024-02-29T21:33:37',
    ( '' ),
    ( '' ),
    'SwSTEP 2.0',
    'SolidWorks 2023',
    '' );
FILE_SCHEMA (( 'CONFIG_CONTROL_DESIGN' ));
ENDSEC;

DATA;
#1 = DIRECTION ( 'NONE',  ( 1.000000000000000000, -6.982962677686265922E-15, 4.876176775795935793E-29 ) ) ;
#2 = LINE ( 'NONE', #62, #141 ) ;
#3 = CARTESIAN_POINT ( 'NONE',  ( 6.065496279980994755E-29, -8.659921164732655335E-15, -2.480300000000000171 ) ) ;
#4 = CARTESIAN_POINT ( 'NONE',  ( 3.369611468042499163E-29, -4.810912136791969650E-15, -1.377899999999999903 ) ) ;
#5 = EDGE_CURVE ( 'NONE', #206, #123, #130, .T. ) ;
#6 = DIRECTION ( 'NONE',  ( 1.000000000000000000, -6.982962677686266711E-15, 4.875932113059884174E-29 ) ) ;
#7 = AXIS2_PLACEMENT_3D ( 'NONE', #118, #151, #338 ) ;
#8 = FACE_OUTER_BOUND ( 'NONE', #120, .T. ) ;
#9 = CARTESIAN_POINT ( 'NONE',  ( -1.043851414335219820E-46, 1.490343170380447200E-32, 4.268512490100411279E-18 ) ) ;
#10 = DIRECTION ( 'NONE',  ( -2.445468806185136597E-29, 3.491481338843145583E-15, 1.000000000000000000 ) ) ;
#11 = CYLINDRICAL_SURFACE ( 'NONE', #165, 0.1968499999999998307 ) ;
#12 = EDGE_LOOP ( 'NONE', ( #298, #28, #161, #36 ) ) ;
#13 = CARTESIAN_POINT ( 'NONE',  ( -0.1968500000000000250, -5.336713275418556283E-15, -1.377900000000000125 ) ) ;
#14 = EDGE_LOOP ( 'NONE', ( #78, #163, #349, #203 ) ) ;
#15 = CC_DESIGN_SECURITY_CLASSIFICATION ( #249, ( #57 ) ) ;
#16 = DIRECTION ( 'NONE',  ( 1.000000000000000000, -6.982962677686267499E-15, 0.000000000000000000 ) ) ;
#17 = ADVANCED_FACE ( 'NONE', ( #347 ), #30, .T. ) ;
#18 = CALENDAR_DATE ( 2024, 29, 2 ) ;
#19 = EDGE_CURVE ( 'NONE', #229, #329, #248, .T. ) ;
#20 = AXIS2_PLACEMENT_3D ( 'NONE', #265, #350, #213 ) ;
#21 = PERSON_AND_ORGANIZATION_ROLE ( 'creator' ) ;
#22 = SECURITY_CLASSIFICATION_LEVEL ( 'unclassified' ) ;
#23 = ORIENTED_EDGE ( 'NONE', *, *, #205, .T. ) ;
#24 = EDGE_CURVE ( 'NONE', #61, #257, #212, .T. ) ;
#25 = FACE_OUTER_BOUND ( 'NONE', #12, .T. ) ;
#26 = ADVANCED_FACE ( 'NONE', ( #264 ), #77, .F. ) ;
#27 = CARTESIAN_POINT ( 'NONE',  ( 0.1768499999999997851, -1.316798864272040563E-15, 4.268512490109333727E-18 ) ) ;
#28 = ORIENTED_EDGE ( 'NONE', *, *, #315, .T. ) ;
#29 = LINE ( 'NONE', #341, #198 ) ;
#30 = CONICAL_SURFACE ( 'NONE', #268, 0.1968499999999997752, 0.7853981633974469467 ) ;
#31 = ORIENTED_EDGE ( 'NONE', *, *, #24, .F. ) ;
#32 = AXIS2_PLACEMENT_3D ( 'NONE', #343, #167, #182 ) ;
#33 = EDGE_CURVE ( 'NONE', #215, #191, #50, .T. ) ;
#34 = DIRECTION ( 'NONE',  ( 1.000000000000000000, -6.982962677686265922E-15, 0.000000000000000000 ) ) ;
#35 = ADVANCED_FACE ( 'NONE', ( #110 ), #98, .T. ) ;
#36 = ORIENTED_EDGE ( 'NONE', *, *, #103, .F. ) ;
#37 = LINE ( 'NONE', #281, #82 ) ;
#38 =( NAMED_UNIT ( * ) SI_UNIT ( $, .STERADIAN. ) SOLID_ANGLE_UNIT ( ) );
#39 = ORIENTED_EDGE ( 'NONE', *, *, #81, .F. ) ;
#40 = AXIS2_PLACEMENT_3D ( 'NONE', #4, #10, #108 ) ;
#41 = ORIENTED_EDGE ( 'NONE', *, *, #90, .F. ) ;
#42 =( NAMED_UNIT ( * ) PLANE_ANGLE_UNIT ( ) SI_UNIT ( $, .RADIAN. ) );
#43 = DIRECTION ( 'NONE',  ( -1.000000000000000000, 6.982962677686265922E-15, -4.876176775795935793E-29 ) ) ;
#44 = ORIENTED_EDGE ( 'NONE', *, *, #169, .T. ) ;
#45 = CARTESIAN_POINT ( 'NONE',  ( 4.890937612370283668E-31, -6.982962677686305168E-17, -0.02000000000000004205 ) ) ;
#46 = AXIS2_PLACEMENT_3D ( 'NONE', #202, #144, #252 ) ;
#47 = EDGE_CURVE ( 'NONE', #191, #123, #2, .T. ) ;
#48 = CALENDAR_DATE ( 2024, 29, 2 ) ;
#49 = DIRECTION ( 'NONE',  ( -1.000000000000000000, 6.982962677686265922E-15, -4.876176775795935793E-29 ) ) ;
#50 = CIRCLE ( 'NONE', #327, 0.1768499999999997851 ) ;
#51 = AXIS2_PLACEMENT_3D ( 'NONE', #136, #218, #274 ) ;
#52 = DESIGN_CONTEXT ( 'detailed design', #121, 'design' ) ;
#53 = CC_DESIGN_PERSON_AND_ORGANIZATION_ASSIGNMENT ( #87, #275, ( #57 ) ) ;
#54 = PERSON ( 'UNSPECIFIED', 'UNSPECIFIED', 'UNSPECIFIED', ('UNSPECIFIED'), ('UNSPECIFIED'), ('UNSPECIFIED') ) ;
#55 = COORDINATED_UNIVERSAL_TIME_OFFSET ( 5, 0, .BEHIND. ) ;
#56 = CLOSED_SHELL ( 'NONE', ( #354, #226, #26, #59 ) ) ;
#57 = PRODUCT_DEFINITION_FORMATION_WITH_SPECIFIED_SOURCE ( 'ANY', '', #336, .NOT_KNOWN. ) ;
#58 = DIRECTION ( 'NONE',  ( -2.445468806185136877E-29, 3.491481338843145188E-15, 1.000000000000000000 ) ) ;
#59 = ADVANCED_FACE ( 'NONE', ( #221 ), #176, .T. ) ;
#60 = DIRECTION ( 'NONE',  ( 1.000000000000000000, -6.982962677686268288E-15, 0.000000000000000000 ) ) ;
#61 = VERTEX_POINT ( 'NONE', #231 ) ;
#62 = CARTESIAN_POINT ( 'NONE',  ( -0.1968499999999997752, 1.304766576325676930E-15, -0.02000000000000004205 ) ) ;
#63 = ORIENTED_EDGE ( 'NONE', *, *, #251, .F. ) ;
#64 = CARTESIAN_POINT ( 'NONE',  ( -0.1968500000000000250, -5.336713275418556283E-15, -2.480300000000000171 ) ) ;
#65 = ORIENTED_EDGE ( 'NONE', *, *, #357, .F. ) ;
#66 = CIRCLE ( 'NONE', #296, 0.1968500000000000250 ) ;
#67 = CARTESIAN_POINT ( 'NONE',  ( -0.1968499999999997752, 1.304766576325676930E-15, -0.02000000000000004205 ) ) ;
#68 = VERTEX_POINT ( 'NONE', #175 ) ;
#69 = CARTESIAN_POINT ( 'NONE',  ( 1.234936949548814617E-15, 0.1768499999999997851, -6.153342185293593634E-16 ) ) ;
#70 = ORIENTED_EDGE ( 'NONE', *, *, #288, .T. ) ;
#71 = CLOSED_SHELL ( 'NONE', ( #152, #250, #334, #17, #128, #35, #193, #337 ) ) ;
#72 = LOCAL_TIME ( 16, 33, 37.00000000000000000, #85 ) ;
#73 = UNCERTAINTY_MEASURE_WITH_UNIT (LENGTH_MEASURE( 1.000000000000000082E-05 ), #294, 'distance_accuracy_value', 'NONE');
#74 = DIRECTION ( 'NONE',  ( -2.445468806185136597E-29, 3.491481338843145583E-15, 1.000000000000000000 ) ) ;
#75 = DIRECTION ( 'NONE',  ( -0.7071067811865957564, 7.493145998870527710E-15, 0.7071067811864992780 ) ) ;
#76 = CARTESIAN_POINT ( 'NONE',  ( 0.1968500000000000250, -6.185508339894512836E-15, -1.377900000000000125 ) ) ;
#77 = PLANE ( 'NONE',  #209 ) ;
#78 = ORIENTED_EDGE ( 'NONE', *, *, #365, .F. ) ;
#79 = DIRECTION ( 'NONE',  ( 1.000000000000000000, -6.982962677686267499E-15, 0.000000000000000000 ) ) ;
#80 = CARTESIAN_POINT ( 'NONE',  ( 0.000000000000000000, 0.000000000000000000, 0.000000000000000000 ) ) ;
#81 = EDGE_CURVE ( 'NONE', #201, #329, #37, .T. ) ;
#82 = VECTOR ( 'NONE', #58, 39.37007874015748143 ) ;
#83 = VECTOR ( 'NONE', #208, 39.37007874015748143 ) ;
#84 = PERSON_AND_ORGANIZATION_ROLE ( 'creator' ) ;
#85 = COORDINATED_UNIVERSAL_TIME_OFFSET ( 5, 0, .BEHIND. ) ;
#86 = DATE_AND_TIME ( #355, #362 ) ;
#87 = PERSON_AND_ORGANIZATION ( #54, #106 ) ;
#88 = AXIS2_PLACEMENT_3D ( 'NONE', #3, #154, #261 ) ;
#89 = PERSON_AND_ORGANIZATION ( #54, #106 ) ;
#90 = EDGE_CURVE ( 'NONE', #191, #215, #115, .T. ) ;
#91 = CARTESIAN_POINT ( 'NONE',  ( 0.1958499999999999963, -6.178525377216825244E-15, -1.377899999999999903 ) ) ;
#92 = CIRCLE ( 'NONE', #20, 0.1968499999999999417 ) ;
#93 = FACE_OUTER_BOUND ( 'NONE', #124, .T. ) ;
#94 = DIRECTION ( 'NONE',  ( -2.445468806185136597E-29, 3.491481338843145583E-15, 1.000000000000000000 ) ) ;
#95 = ORIENTED_EDGE ( 'NONE', *, *, #162, .T. ) ;
#96 = ORIENTED_EDGE ( 'NONE', *, *, #365, .T. ) ;
#97 = FACE_OUTER_BOUND ( 'NONE', #102, .T. ) ;
#98 = CONICAL_SURFACE ( 'NONE', #244, 0.1958499999999999963, 0.7853981633975165577 ) ;
#99 = CC_DESIGN_APPROVAL ( #266, ( #249 ) ) ;
#100 = CARTESIAN_POINT ( 'NONE',  ( -0.1958499999999999963, -3.419314188805812871E-15, -1.377899999999999903 ) ) ;
#101 = DIRECTION ( 'NONE',  ( 1.000000000000000000, -6.982962677686265922E-15, 4.876176775795935793E-29 ) ) ;
#102 = EDGE_LOOP ( 'NONE', ( #282, #96, #314, #63 ) ) ;
#103 = EDGE_CURVE ( 'NONE', #123, #257, #173, .T. ) ;
#104 = DIRECTION ( 'NONE',  ( 1.000000000000000000, -6.982962677686265922E-15, 4.876176775795935793E-29 ) ) ;
#105 = PRODUCT_DEFINITION ( 'UNKNOWN', '', #57, #52 ) ;
#106 = ORGANIZATION ( 'UNSPECIFIED', 'UNSPECIFIED', '' ) ;
#107 = APPLICATION_CONTEXT ( 'configuration controlled 3d designs of mechanical parts and assemblies' ) ;
#108 = DIRECTION ( 'NONE',  ( 1.000000000000000000, -6.982962677686268288E-15, 0.000000000000000000 ) ) ;
#109 = FACE_OUTER_BOUND ( 'NONE', #366, .T. ) ;
#110 = FACE_OUTER_BOUND ( 'NONE', #14, .T. ) ;
#111 = EDGE_LOOP ( 'NONE', ( #308, #283 ) ) ;
#112 = APPROVAL_DATE_TIME ( #86, #331 ) ;
#113 = APPROVAL_ROLE ( '' ) ;
#114 = PERSON_AND_ORGANIZATION ( #54, #106 ) ;
#115 = CIRCLE ( 'NONE', #276, 0.1768499999999997851 ) ;
#116 = CIRCLE ( 'NONE', #32, 0.1958499999999999963 ) ;
#117 = DIRECTION ( 'NONE',  ( -2.445468806185136597E-29, 3.491481338843145583E-15, 1.000000000000000000 ) ) ;
#118 = CARTESIAN_POINT ( 'NONE',  ( 4.890937612370283668E-31, -6.982962677686305168E-17, -0.02000000000000004205 ) ) ;
#119 = DIRECTION ( 'NONE',  ( -2.445468806185136597E-29, 3.491481338843145583E-15, 1.000000000000000000 ) ) ;
#120 = EDGE_LOOP ( 'NONE', ( #23, #307, #262, #207 ) ) ;
#121 = APPLICATION_CONTEXT ( 'configuration controlled 3d designs of mechanical parts and assemblies' ) ;
#122 = CARTESIAN_POINT ( 'NONE',  ( 1.374596203102602153E-15, 0.1968499999999913375, -2.480300000000001059 ) ) ;
#123 = VERTEX_POINT ( 'NONE', #67 ) ;
#124 = EDGE_LOOP ( 'NONE', ( #65, #157 ) ) ;
#125 = FACE_OUTER_BOUND ( 'NONE', #150, .T. ) ;
#126 = CARTESIAN_POINT ( 'NONE',  ( 0.000000000000000000, 0.000000000000000000, 0.000000000000000000 ) ) ;
#127 = CONICAL_SURFACE ( 'NONE', #269, 0.1968499999999997752, 0.7853981633974469467 ) ;
#128 = ADVANCED_FACE ( 'NONE', ( #25 ), #227, .T. ) ;
#129 = DIRECTION ( 'NONE',  ( -1.000000000000000000, 6.982962677686265922E-15, -4.876176775795935793E-29 ) ) ;
#130 = LINE ( 'NONE', #135, #361 ) ;
#131 = DIRECTION ( 'NONE',  ( 2.445468806185136597E-29, -3.491481338843145583E-15, -1.000000000000000000 ) ) ;
#132 = LOCAL_TIME ( 16, 33, 37.00000000000000000, #299 ) ;
#133 = CARTESIAN_POINT ( 'NONE',  ( 6.065496279980994755E-29, -8.659921164732655335E-15, -2.480300000000000171 ) ) ;
#134 = DIRECTION ( 'NONE',  ( -2.445468806185136597E-29, 3.491481338843145583E-15, 1.000000000000000000 ) ) ;
#135 = CARTESIAN_POINT ( 'NONE',  ( -0.1968499999999998307, 1.398703375343756013E-15, -9.682923725166775270E-30 ) ) ;
#136 = CARTESIAN_POINT ( 'NONE',  ( 0.000000000000000000, 0.000000000000000000, 0.000000000000000000 ) ) ;
#137 = COORDINATED_UNIVERSAL_TIME_OFFSET ( 5, 0, .BEHIND. ) ;
#138 = DIRECTION ( 'NONE',  ( -2.445468806185136597E-29, 3.491481338843145583E-15, 1.000000000000000000 ) ) ;
#139 = MECHANICAL_CONTEXT ( 'NONE', #107, 'mechanical' ) ;
#140 = MANIFOLD_SOLID_BREP ( 'Body-Move/Copy2[2]', #71 ) ;
#141 = VECTOR ( 'NONE', #145, 39.37007874015748143 ) ;
#142 = VECTOR ( 'NONE', #233, 39.37007874015748143 ) ;
#143 = CC_DESIGN_PERSON_AND_ORGANIZATION_ASSIGNMENT ( #114, #197, ( #249 ) ) ;
#144 = DIRECTION ( 'NONE',  ( -2.445468806185136597E-29, 3.491481338843145583E-15, 1.000000000000000000 ) ) ;
#145 = DIRECTION ( 'NONE',  ( -0.7071067811865465735, 2.468850131082246805E-15, -0.7071067811865484609 ) ) ;
#146 = CC_DESIGN_DATE_AND_TIME_ASSIGNMENT ( #271, #240, ( #249 ) ) ;
#147 = APPROVAL_DATE_TIME ( #300, #266 ) ;
#148 = LINE ( 'NONE', #91, #83 ) ;
#149 = LOCAL_TIME ( 16, 33, 37.00000000000000000, #137 ) ;
#150 = EDGE_LOOP ( 'NONE', ( #254, #286, #70, #189 ) ) ;
#151 = DIRECTION ( 'NONE',  ( -2.445468806185136597E-29, 3.491481338843145583E-15, 1.000000000000000000 ) ) ;
#152 = ADVANCED_FACE ( 'NONE', ( #97 ), #237, .T. ) ;
#153 = ORIENTED_EDGE ( 'NONE', *, *, #358, .T. ) ;
#154 = DIRECTION ( 'NONE',  ( -2.445468806185136597E-29, 3.491481338843145583E-15, 1.000000000000000000 ) ) ;
#155 = ORIENTED_EDGE ( 'NONE', *, *, #19, .T. ) ;
#156 = EDGE_CURVE ( 'NONE', #215, #257, #29, .T. ) ;
#157 = ORIENTED_EDGE ( 'NONE', *, *, #290, .F. ) ;
#158 = DIMENSIONAL_EXPONENTS ( 1.000000000000000000, 0.000000000000000000, 0.000000000000000000, 0.000000000000000000, 0.000000000000000000, 0.000000000000000000, 0.000000000000000000 ) ;
#159 = APPLICATION_PROTOCOL_DEFINITION ( 'international standard', 'config_control_design', 1994, #107 ) ;
#160 = DIRECTION ( 'NONE',  ( -2.445468806185136597E-29, 3.491481338843145583E-15, 1.000000000000000000 ) ) ;
#161 = ORIENTED_EDGE ( 'NONE', *, *, #24, .T. ) ;
#162 = EDGE_CURVE ( 'NONE', #61, #206, #287, .T. ) ;
#163 = ORIENTED_EDGE ( 'NONE', *, *, #290, .T. ) ;
#164 =( LENGTH_UNIT ( ) NAMED_UNIT ( * ) SI_UNIT ( $, .METRE. ) );
#165 = AXIS2_PLACEMENT_3D ( 'NONE', #80, #295, #241 ) ;
#166 = AXIS2_PLACEMENT_3D ( 'NONE', #122, #228, #43 ) ;
#167 = DIRECTION ( 'NONE',  ( -2.445468806185136597E-29, 3.491481338843145583E-15, 1.000000000000000000 ) ) ;
#168 = PERSON_AND_ORGANIZATION ( #54, #106 ) ;
#169 = EDGE_CURVE ( 'NONE', #329, #229, #66, .T. ) ;
#170 = CIRCLE ( 'NONE', #196, 0.1968499999999997752 ) ;
#171 = PERSON_AND_ORGANIZATION ( #54, #106 ) ;
#172 = PERSON_AND_ORGANIZATION ( #54, #106 ) ;
#173 = CIRCLE ( 'NONE', #7, 0.1968499999999997752 ) ;
#174 = CC_DESIGN_APPROVAL ( #270, ( #57 ) ) ;
#175 = CARTESIAN_POINT ( 'NONE',  ( 0.1968500000000000250, -1.003451736783519694E-14, -2.480300000000000171 ) ) ;
#176 = CYLINDRICAL_SURFACE ( 'NONE', #187, 0.1968500000000000250 ) ;
#177 = CC_DESIGN_APPROVAL ( #331, ( #105 ) ) ;
#178 = CARTESIAN_POINT ( 'NONE',  ( 3.369611468042499724E-29, -4.810912136791970439E-15, -1.377900000000000125 ) ) ;
#179 = DIRECTION ( 'NONE',  ( 2.438088387897960049E-29, -3.491481338843145188E-15, -1.000000000000000000 ) ) ;
#180 = ORIENTED_EDGE ( 'NONE', *, *, #169, .F. ) ;
#181 = AXIS2_PLACEMENT_3D ( 'NONE', #259, #309, #34 ) ;
#182 = DIRECTION ( 'NONE',  ( 1.000000000000000000, -6.982962677686268288E-15, 0.000000000000000000 ) ) ;
#183 = CARTESIAN_POINT ( 'NONE',  ( 0.1968499999999998307, -1.374596203102540425E-15, 9.598753983154291049E-30 ) ) ;
#184 = ORIENTED_EDGE ( 'NONE', *, *, #5, .T. ) ;
#185 = VERTEX_POINT ( 'NONE', #224 ) ;
#186 = LENGTH_MEASURE_WITH_UNIT ( LENGTH_MEASURE( 0.02539999999999999897 ), #164 );
#187 = AXIS2_PLACEMENT_3D ( 'NONE', #342, #279, #1 ) ;
#188 = DIRECTION ( 'NONE',  ( -1.000000000000000000, 6.982962677686266711E-15, 0.000000000000000000 ) ) ;
#189 = ORIENTED_EDGE ( 'NONE', *, *, #47, .F. ) ;
#190 = APPROVAL_ROLE ( '' ) ;
#191 = VERTEX_POINT ( 'NONE', #313 ) ;
#192 = ORIENTED_EDGE ( 'NONE', *, *, #47, .T. ) ;
#193 = ADVANCED_FACE ( 'NONE', ( #93 ), #284, .F. ) ;
#194 = CARTESIAN_POINT ( 'NONE',  ( 3.369611468042499163E-29, -4.810912136791969650E-15, -1.377899999999999903 ) ) ;
#195 = PERSON_AND_ORGANIZATION ( #54, #106 ) ;
#196 = AXIS2_PLACEMENT_3D ( 'NONE', #235, #160, #325 ) ;
#197 = PERSON_AND_ORGANIZATION_ROLE ( 'classification_officer' ) ;
#198 = VECTOR ( 'NONE', #204, 39.37007874015748143 ) ;
#199 = CARTESIAN_POINT ( 'NONE',  ( -0.1968499999999999417, -1.039921765771237577E-15, -1.376900000000000013 ) ) ;
#200 = PLANE ( 'NONE',  #166 ) ;
#201 = VERTEX_POINT ( 'NONE', #64 ) ;
#202 = CARTESIAN_POINT ( 'NONE',  ( 3.369611468042499163E-29, -4.810912136791969650E-15, -1.377899999999999903 ) ) ;
#203 = ORIENTED_EDGE ( 'NONE', *, *, #315, .F. ) ;
#204 = DIRECTION ( 'NONE',  ( 0.7071067811865465735, -7.319954787623252890E-15, -0.7071067811865484609 ) ) ;
#205 = EDGE_CURVE ( 'NONE', #68, #201, #301, .T. ) ;
#206 = VERTEX_POINT ( 'NONE', #199 ) ;
#207 = ORIENTED_EDGE ( 'NONE', *, *, #358, .F. ) ;
#208 = DIRECTION ( 'NONE',  ( 0.7071067811865957564, -2.468850131082761932E-15, 0.7071067811864992780 ) ) ;
#209 = AXIS2_PLACEMENT_3D ( 'NONE', #293, #243, #49 ) ;
#210 = AXIS2_PLACEMENT_3D ( 'NONE', #344, #278, #101 ) ;
#211 = DIRECTION ( 'NONE',  ( -1.000000000000000000, 6.982962677686266711E-15, 0.000000000000000000 ) ) ;
#212 = LINE ( 'NONE', #183, #320 ) ;
#213 = DIRECTION ( 'NONE',  ( 1.000000000000000000, -6.982962677686265922E-15, 0.000000000000000000 ) ) ;
#214 = CARTESIAN_POINT ( 'NONE',  ( 4.890937612370283668E-31, -6.982962677686305168E-17, -0.02000000000000004205 ) ) ;
#215 = VERTEX_POINT ( 'NONE', #27 ) ;
#216 = VECTOR ( 'NONE', #75, 39.37007874015748143 ) ;
#217 = APPLICATION_PROTOCOL_DEFINITION ( 'international standard', 'config_control_design', 1994, #121 ) ;
#218 = DIRECTION ( 'NONE',  ( 0.000000000000000000, 0.000000000000000000, 1.000000000000000000 ) ) ;
#219 = CALENDAR_DATE ( 2024, 29, 2 ) ;
#220 = PERSON_AND_ORGANIZATION_ROLE ( 'design_owner' ) ;
#221 = FACE_OUTER_BOUND ( 'NONE', #340, .T. ) ;
#222 = CC_DESIGN_PERSON_AND_ORGANIZATION_ASSIGNMENT ( #171, #220, ( #336 ) ) ;
#223 = APPROVAL_PERSON_ORGANIZATION ( #168, #266, #190 ) ;
#224 = CARTESIAN_POINT ( 'NONE',  ( -0.1958499999999999963, -3.414015734457591258E-15, -1.377899999999999903 ) ) ;
#225 = ORIENTED_EDGE ( 'NONE', *, *, #317, .F. ) ;
#226 = ADVANCED_FACE ( 'NONE', ( #339 ), #200, .T. ) ;
#227 = CYLINDRICAL_SURFACE ( 'NONE', #305, 0.1968499999999998307 ) ;
#228 = DIRECTION ( 'NONE',  ( 2.438088387897960049E-29, -3.491481338843145188E-15, -1.000000000000000000 ) ) ;
#229 = VERTEX_POINT ( 'NONE', #76 ) ;
#230 = CYLINDRICAL_SURFACE ( 'NONE', #311, 0.1968500000000000250 ) ;
#231 = CARTESIAN_POINT ( 'NONE',  ( 0.1968499999999999417, -6.182016858555667463E-15, -1.376900000000000013 ) ) ;
#232 = DIRECTION ( 'NONE',  ( 2.445468806185136597E-29, -3.491481338843145583E-15, -1.000000000000000000 ) ) ;
#233 = DIRECTION ( 'NONE',  ( -2.445468806185136877E-29, 3.491481338843145188E-15, 1.000000000000000000 ) ) ;
#234 = EDGE_LOOP ( 'NONE', ( #260, #225 ) ) ;
#235 = CARTESIAN_POINT ( 'NONE',  ( 4.890937612370283668E-31, -6.982962677686305168E-17, -0.02000000000000004205 ) ) ;
#236 = AXIS2_PLACEMENT_3D ( 'NONE', #297, #74, #16 ) ;
#237 = CONICAL_SURFACE ( 'NONE', #46, 0.1958499999999999963, 0.7853981633975165577 ) ;
#238 = DIRECTION ( 'NONE',  ( -2.445468806185136877E-29, 3.491481338843145188E-15, 1.000000000000000000 ) ) ;
#239 = ORIENTED_EDGE ( 'NONE', *, *, #288, .F. ) ;
#240 = DATE_TIME_ROLE ( 'classification_date' ) ;
#241 = DIRECTION ( 'NONE',  ( 1.000000000000000000, -6.982962677686266711E-15, 4.876176775795935793E-29 ) ) ;
#242 = CC_DESIGN_DATE_AND_TIME_ASSIGNMENT ( #303, #247, ( #105 ) ) ;
#243 = DIRECTION ( 'NONE',  ( 2.438088387897960049E-29, -3.491481338843145188E-15, -1.000000000000000000 ) ) ;
#244 = AXIS2_PLACEMENT_3D ( 'NONE', #194, #138, #60 ) ;
#245 = LOCAL_TIME ( 16, 33, 37.00000000000000000, #55 ) ;
#246 = PRODUCT_RELATED_PRODUCT_CATEGORY ( 'detail', '', ( #336 ) ) ;
#247 = DATE_TIME_ROLE ( 'creation_date' ) ;
#248 = CIRCLE ( 'NONE', #236, 0.1968500000000000250 ) ;
#249 = SECURITY_CLASSIFICATION ( '', '', #22 ) ;
#250 = ADVANCED_FACE ( 'NONE', ( #109 ), #11, .T. ) ;
#251 = EDGE_CURVE ( 'NONE', #291, #61, #148, .T. ) ;
#252 = DIRECTION ( 'NONE',  ( 1.000000000000000000, -6.982962677686268288E-15, 0.000000000000000000 ) ) ;
#253 = DIRECTION ( 'NONE',  ( 1.000000000000000000, -6.982962677686267499E-15, 0.000000000000000000 ) ) ;
#254 = ORIENTED_EDGE ( 'NONE', *, *, #33, .F. ) ;
#255 = SHAPE_DEFINITION_REPRESENTATION ( #348, #306 ) ;
#256 = CARTESIAN_POINT ( 'NONE',  ( -1.043851414335219820E-46, 1.490343170380447200E-32, 4.268512490100411279E-18 ) ) ;
#257 = VERTEX_POINT ( 'NONE', #292 ) ;
#258 = MANIFOLD_SOLID_BREP ( 'Body-Move/Copy2[1]', #56 ) ;
#259 = CARTESIAN_POINT ( 'NONE',  ( 3.367165999236314681E-29, -4.807420655453126643E-15, -1.376900000000000013 ) ) ;
#260 = ORIENTED_EDGE ( 'NONE', *, *, #205, .F. ) ;
#261 = DIRECTION ( 'NONE',  ( 1.000000000000000000, -6.982962677686267499E-15, 0.000000000000000000 ) ) ;
#262 = ORIENTED_EDGE ( 'NONE', *, *, #19, .F. ) ;
#263 = DIRECTION ( 'NONE',  ( -2.445468806185136597E-29, 3.491481338843145583E-15, 1.000000000000000000 ) ) ;
#264 = FACE_OUTER_BOUND ( 'NONE', #316, .T. ) ;
#265 = CARTESIAN_POINT ( 'NONE',  ( 3.367165999236314681E-29, -4.807420655453126643E-15, -1.376900000000000013 ) ) ;
#266 = APPROVAL ( #353, 'UNSPECIFIED' ) ;
#267 = CARTESIAN_POINT ( 'NONE',  ( 0.1958499999999999963, -6.178525377216825244E-15, -1.377899999999999903 ) ) ;
#268 = AXIS2_PLACEMENT_3D ( 'NONE', #214, #131, #188 ) ;
#269 = AXIS2_PLACEMENT_3D ( 'NONE', #45, #232, #211 ) ;
#270 = APPROVAL ( #330, 'UNSPECIFIED' ) ;
#271 = DATE_AND_TIME ( #48, #245 ) ;
#272 = PERSON_AND_ORGANIZATION ( #54, #106 ) ;
#273 = CC_DESIGN_PERSON_AND_ORGANIZATION_ASSIGNMENT ( #172, #84, ( #57 ) ) ;
#274 = DIRECTION ( 'NONE',  ( 1.000000000000000000, 0.000000000000000000, 0.000000000000000000 ) ) ;
#275 = PERSON_AND_ORGANIZATION_ROLE ( 'design_supplier' ) ;
#276 = AXIS2_PLACEMENT_3D ( 'NONE', #256, #119, #6 ) ;
#277 = CIRCLE ( 'NONE', #363, 0.1968500000000000250 ) ;
#278 = DIRECTION ( 'NONE',  ( -2.438088387897960049E-29, 3.491481338843145188E-15, 1.000000000000000000 ) ) ;
#279 = DIRECTION ( 'NONE',  ( -2.445468806185136597E-29, 3.491481338843145583E-15, 1.000000000000000000 ) ) ;
#280 = CIRCLE ( 'NONE', #40, 0.1958499999999999963 ) ;
#281 = CARTESIAN_POINT ( 'NONE',  ( -0.1968500000000000250, 1.398703375343757393E-15, -9.682923725166783677E-30 ) ) ;
#282 = ORIENTED_EDGE ( 'NONE', *, *, #357, .T. ) ;
#283 = ORIENTED_EDGE ( 'NONE', *, *, #33, .T. ) ;
#284 = PLANE ( 'NONE',  #210 ) ;
#285 = CARTESIAN_POINT ( 'NONE',  ( 0.000000000000000000, 0.000000000000000000, 0.000000000000000000 ) ) ;
#286 = ORIENTED_EDGE ( 'NONE', *, *, #156, .T. ) ;
#287 = CIRCLE ( 'NONE', #181, 0.1968499999999999417 ) ;
#288 = EDGE_CURVE ( 'NONE', #257, #123, #170, .T. ) ;
#289 = LINE ( 'NONE', #318, #142 ) ;
#290 = EDGE_CURVE ( 'NONE', #185, #291, #280, .T. ) ;
#291 = VERTEX_POINT ( 'NONE', #267 ) ;
#292 = CARTESIAN_POINT ( 'NONE',  ( 0.1968499999999997752, -1.420318657638187544E-15, -0.02000000000000004205 ) ) ;
#293 = CARTESIAN_POINT ( 'NONE',  ( 1.374596203102575135E-15, 0.1968499999999951955, -1.377900000000000791 ) ) ;
#294 =( CONVERSION_BASED_UNIT ( 'INCH', #186 ) LENGTH_UNIT ( ) NAMED_UNIT ( #158 ) );
#295 = DIRECTION ( 'NONE',  ( -2.445468806185136597E-29, 3.491481338843145583E-15, 1.000000000000000000 ) ) ;
#296 = AXIS2_PLACEMENT_3D ( 'NONE', #178, #117, #253 ) ;
#297 = CARTESIAN_POINT ( 'NONE',  ( 3.369611468042499724E-29, -4.810912136791970439E-15, -1.377900000000000125 ) ) ;
#298 = ORIENTED_EDGE ( 'NONE', *, *, #5, .F. ) ;
#299 = COORDINATED_UNIVERSAL_TIME_OFFSET ( 5, 0, .BEHIND. ) ;
#300 = DATE_AND_TIME ( #18, #132 ) ;
#301 = CIRCLE ( 'NONE', #88, 0.1968500000000000250 ) ;
#302 = DATE_AND_TIME ( #219, #72 ) ;
#303 = DATE_AND_TIME ( #326, #149 ) ;
#304 = CC_DESIGN_PERSON_AND_ORGANIZATION_ASSIGNMENT ( #195, #21, ( #105 ) ) ;
#305 = AXIS2_PLACEMENT_3D ( 'NONE', #126, #94, #364 ) ;
#306 = ADVANCED_BREP_SHAPE_REPRESENTATION ( '82995', ( #258, #140, #51 ), #322 ) ;
#307 = ORIENTED_EDGE ( 'NONE', *, *, #81, .T. ) ;
#308 = ORIENTED_EDGE ( 'NONE', *, *, #90, .T. ) ;
#309 = DIRECTION ( 'NONE',  ( -2.445468806185136597E-29, 3.491481338843145583E-15, 1.000000000000000000 ) ) ;
#310 = ORIENTED_EDGE ( 'NONE', *, *, #103, .T. ) ;
#311 = AXIS2_PLACEMENT_3D ( 'NONE', #285, #321, #104 ) ;
#312 = ORIENTED_EDGE ( 'NONE', *, *, #156, .F. ) ;
#313 = CARTESIAN_POINT ( 'NONE',  ( -0.1768499999999997851, 1.269851762937246069E-15, 4.268512490091652920E-18 ) ) ;
#314 = ORIENTED_EDGE ( 'NONE', *, *, #162, .F. ) ;
#315 = EDGE_CURVE ( 'NONE', #206, #61, #92, .T. ) ;
#316 = EDGE_LOOP ( 'NONE', ( #155, #44 ) ) ;
#317 = EDGE_CURVE ( 'NONE', #201, #68, #277, .T. ) ;
#318 = CARTESIAN_POINT ( 'NONE',  ( 0.1968500000000000250, -1.374596203102541608E-15, 9.598753983154300858E-30 ) ) ;
#319 = EDGE_LOOP ( 'NONE', ( #312, #41, #192, #310 ) ) ;
#320 = VECTOR ( 'NONE', #324, 39.37007874015748143 ) ;
#321 = DIRECTION ( 'NONE',  ( -2.445468806185136597E-29, 3.491481338843145583E-15, 1.000000000000000000 ) ) ;
#322 =( GEOMETRIC_REPRESENTATION_CONTEXT ( 3 ) GLOBAL_UNCERTAINTY_ASSIGNED_CONTEXT ( ( #73 ) ) GLOBAL_UNIT_ASSIGNED_CONTEXT ( ( #294, #42, #38 ) ) REPRESENTATION_CONTEXT ( 'NONE', 'WORKASPACE' ) );
#323 = FACE_OUTER_BOUND ( 'NONE', #111, .T. ) ;
#324 = DIRECTION ( 'NONE',  ( -2.445468806185136877E-29, 3.491481338843145188E-15, 1.000000000000000000 ) ) ;
#325 = DIRECTION ( 'NONE',  ( 1.000000000000000000, -6.982962677686266711E-15, 0.000000000000000000 ) ) ;
#326 = CALENDAR_DATE ( 2024, 29, 2 ) ;
#327 = AXIS2_PLACEMENT_3D ( 'NONE', #9, #134, #351 ) ;
#328 = APPROVAL_PERSON_ORGANIZATION ( #89, #270, #113 ) ;
#329 = VERTEX_POINT ( 'NONE', #13 ) ;
#330 = APPROVAL_STATUS ( 'not_yet_approved' ) ;
#331 = APPROVAL ( #360, 'UNSPECIFIED' ) ;
#332 = APPROVAL_ROLE ( '' ) ;
#333 = APPROVAL_DATE_TIME ( #302, #270 ) ;
#334 = ADVANCED_FACE ( 'NONE', ( #125 ), #127, .T. ) ;
#335 = AXIS2_PLACEMENT_3D ( 'NONE', #69, #179, #129 ) ;
#336 = PRODUCT ( '82995', '82995', '', ( #139 ) ) ;
#337 = ADVANCED_FACE ( 'NONE', ( #323 ), #345, .F. ) ;
#338 = DIRECTION ( 'NONE',  ( 1.000000000000000000, -6.982962677686266711E-15, 0.000000000000000000 ) ) ;
#339 = FACE_OUTER_BOUND ( 'NONE', #234, .T. ) ;
#340 = EDGE_LOOP ( 'NONE', ( #39, #352, #153, #180 ) ) ;
#341 = CARTESIAN_POINT ( 'NONE',  ( 0.1968499999999997752, -1.420318657638187544E-15, -0.02000000000000004205 ) ) ;
#342 = CARTESIAN_POINT ( 'NONE',  ( 0.000000000000000000, 0.000000000000000000, 0.000000000000000000 ) ) ;
#343 = CARTESIAN_POINT ( 'NONE',  ( 3.369611468042499163E-29, -4.810912136791969650E-15, -1.377899999999999903 ) ) ;
#344 = CARTESIAN_POINT ( 'NONE',  ( 3.369611468042499724E-29, -4.810912136791970439E-15, -1.377900000000000125 ) ) ;
#345 = PLANE ( 'NONE',  #335 ) ;
#346 = LINE ( 'NONE', #100, #216 ) ;
#347 = FACE_OUTER_BOUND ( 'NONE', #319, .T. ) ;
#348 = PRODUCT_DEFINITION_SHAPE ( 'NONE', 'NONE',  #105 ) ;
#349 = ORIENTED_EDGE ( 'NONE', *, *, #251, .T. ) ;
#350 = DIRECTION ( 'NONE',  ( -2.445468806185136597E-29, 3.491481338843145583E-15, 1.000000000000000000 ) ) ;
#351 = DIRECTION ( 'NONE',  ( 1.000000000000000000, -6.982962677686266711E-15, 4.875932113059884174E-29 ) ) ;
#352 = ORIENTED_EDGE ( 'NONE', *, *, #317, .T. ) ;
#353 = APPROVAL_STATUS ( 'not_yet_approved' ) ;
#354 = ADVANCED_FACE ( 'NONE', ( #8 ), #230, .T. ) ;
#355 = CALENDAR_DATE ( 2024, 29, 2 ) ;
#356 = APPROVAL_PERSON_ORGANIZATION ( #272, #331, #332 ) ;
#357 = EDGE_CURVE ( 'NONE', #291, #185, #116, .T. ) ;
#358 = EDGE_CURVE ( 'NONE', #68, #229, #289, .T. ) ;
#359 = COORDINATED_UNIVERSAL_TIME_OFFSET ( 5, 0, .BEHIND. ) ;
#360 = APPROVAL_STATUS ( 'not_yet_approved' ) ;
#361 = VECTOR ( 'NONE', #238, 39.37007874015748143 ) ;
#362 = LOCAL_TIME ( 16, 33, 37.00000000000000000, #359 ) ;
#363 = AXIS2_PLACEMENT_3D ( 'NONE', #133, #263, #79 ) ;
#364 = DIRECTION ( 'NONE',  ( 1.000000000000000000, -6.982962677686266711E-15, 4.876176775795935793E-29 ) ) ;
#365 = EDGE_CURVE ( 'NONE', #185, #206, #346, .T. ) ;
#366 = EDGE_LOOP ( 'NONE', ( #95, #184, #239, #31 ) ) ;
ENDSEC;
END-ISO-10303-21;
