ISO-10303-21;
HEADER;
FILE_DESCRIPTION (( 'STEP AP203' ),
    '1' );
FILE_NAME ('83230.STEP',
    '2024-03-01T01:32:16',
    ( '' ),
    ( '' ),
    'SwSTEP 2.0',
    'SolidWorks 2023',
    '' );
FILE_SCHEMA (( 'CONFIG_CONTROL_DESIGN' ));
ENDSEC;

DATA;
#1 = VERTEX_POINT ( 'NONE', #345 ) ;
#2 = CARTESIAN_POINT ( 'NONE',  ( 6.065496279980994755E-29, -8.659921164732655335E-15, -2.480300000000000171 ) ) ;
#3 = CARTESIAN_POINT ( 'NONE',  ( 3.658421334052965286E-29, -5.223256082909346937E-15, -1.496000000000000441 ) ) ;
#4 = DATE_TIME_ROLE ( 'creation_date' ) ;
#5 = AXIS2_PLACEMENT_3D ( 'NONE', #183, #188, #269 ) ;
#6 = LOCAL_TIME ( 20, 32, 16.00000000000000000, #100 ) ;
#7 = DIRECTION ( 'NONE',  ( 1.000000000000000000, -6.982962677686273021E-15, 0.000000000000000000 ) ) ;
#8 = DIRECTION ( 'NONE',  ( 1.000000000000000000, -6.982962677686264344E-15, 0.000000000000000000 ) ) ;
#9 = FACE_OUTER_BOUND ( 'NONE', #358, .T. ) ;
#10 = ORIENTED_EDGE ( 'NONE', *, *, #40, .F. ) ;
#11 = CIRCLE ( 'NONE', #346, 0.09809999999999984011 ) ;
#12 = APPLICATION_PROTOCOL_DEFINITION ( 'international standard', 'config_control_design', 1994, #323 ) ;
#13 = DIRECTION ( 'NONE',  ( 1.000000000000000000, -6.982962677686266711E-15, 4.875229006325905140E-29 ) ) ;
#14 = DESIGN_CONTEXT ( 'detailed design', #323, 'design' ) ;
#15 = DIRECTION ( 'NONE',  ( 0.000000000000000000, 0.000000000000000000, 1.000000000000000000 ) ) ;
#16 = ORIENTED_EDGE ( 'NONE', *, *, #185, .F. ) ;
#17 = EDGE_CURVE ( 'NONE', #1, #279, #221, .T. ) ;
#18 = AXIS2_PLACEMENT_3D ( 'NONE', #318, #72, #287 ) ;
#19 = ADVANCED_FACE ( 'NONE', ( #179 ), #43, .T. ) ;
#20 = EDGE_LOOP ( 'NONE', ( #99, #229, #268, #73 ) ) ;
#21 = DIRECTION ( 'NONE',  ( 1.000000000000000000, -6.982962677686265922E-15, 0.000000000000000000 ) ) ;
#22 = ORIENTED_EDGE ( 'NONE', *, *, #113, .F. ) ;
#23 = CONICAL_SURFACE ( 'NONE', #124, 0.1170999999999999958, 0.7853981633974056464 ) ;
#24 = CIRCLE ( 'NONE', #86, 0.1180999999999998301 ) ;
#25 = EDGE_CURVE ( 'NONE', #330, #158, #11, .T. ) ;
#26 =( NAMED_UNIT ( * ) PLANE_ANGLE_UNIT ( ) SI_UNIT ( $, .RADIAN. ) );
#27 = EDGE_LOOP ( 'NONE', ( #241, #334 ) ) ;
#28 = DIRECTION ( 'NONE',  ( 1.000000000000000000, -6.982962677686265133E-15, 0.000000000000000000 ) ) ;
#29 = EDGE_CURVE ( 'NONE', #158, #330, #173, .T. ) ;
#30 = SECURITY_CLASSIFICATION ( '', '', #251 ) ;
#31 = ORIENTED_EDGE ( 'NONE', *, *, #29, .F. ) ;
#32 = CARTESIAN_POINT ( 'NONE',  ( 0.000000000000000000, 0.000000000000000000, 0.000000000000000000 ) ) ;
#33 = LINE ( 'NONE', #223, #365 ) ;
#34 = CIRCLE ( 'NONE', #293, 0.1170999999999999958 ) ;
#35 = APPROVAL ( #304, 'UNSPECIFIED' ) ;
#36 = LINE ( 'NONE', #252, #353 ) ;
#37 = LINE ( 'NONE', #105, #288 ) ;
#38 = COORDINATED_UNIVERSAL_TIME_OFFSET ( 5, 0, .BEHIND. ) ;
#39 = FACE_OUTER_BOUND ( 'NONE', #231, .T. ) ;
#40 = EDGE_CURVE ( 'NONE', #330, #211, #33, .T. ) ;
#41 = AXIS2_PLACEMENT_3D ( 'NONE', #128, #313, #67 ) ;
#42 = APPROVAL_PERSON_ORGANIZATION ( #286, #258, #260 ) ;
#43 = CYLINDRICAL_SURFACE ( 'NONE', #56, 0.1180999999999998995 ) ;
#44 = EDGE_CURVE ( 'NONE', #211, #276, #266, .T. ) ;
#45 = CARTESIAN_POINT ( 'NONE',  ( -0.1180999999999998995, 8.391509709326776054E-16, -5.809262341591038879E-30 ) ) ;
#46 = DIRECTION ( 'NONE',  ( -2.445468806185136877E-29, 3.491481338843145188E-15, 1.000000000000000000 ) ) ;
#47 = AXIS2_PLACEMENT_3D ( 'NONE', #110, #133, #28 ) ;
#48 = ORIENTED_EDGE ( 'NONE', *, *, #44, .T. ) ;
#49 = ORIENTED_EDGE ( 'NONE', *, *, #62, .T. ) ;
#50 = CARTESIAN_POINT ( 'NONE',  ( 3.655975865246779683E-29, -5.219764601570503930E-15, -1.495000000000000329 ) ) ;
#51 = CARTESIAN_POINT ( 'NONE',  ( 3.655975865246779683E-29, -5.219764601570503930E-15, -1.495000000000000329 ) ) ;
#52 =( NAMED_UNIT ( * ) SI_UNIT ( $, .STERADIAN. ) SOLID_ANGLE_UNIT ( ) );
#53 = ADVANCED_BREP_SHAPE_REPRESENTATION ( '83230', ( #307, #308, #152 ), #250 ) ;
#54 = ORIENTED_EDGE ( 'NONE', *, *, #311, .T. ) ;
#55 = CC_DESIGN_PERSON_AND_ORGANIZATION_ASSIGNMENT ( #189, #282, ( #167 ) ) ;
#56 = AXIS2_PLACEMENT_3D ( 'NONE', #76, #235, #94 ) ;
#57 = VERTEX_POINT ( 'NONE', #176 ) ;
#58 = DIRECTION ( 'NONE',  ( 2.445468806185136597E-29, -3.491481338843145583E-15, -1.000000000000000000 ) ) ;
#59 = DIRECTION ( 'NONE',  ( -2.445468806185136597E-29, 3.491481338843145583E-15, 1.000000000000000000 ) ) ;
#60 = CARTESIAN_POINT ( 'NONE',  ( 4.890937612370284544E-31, -6.982962677686307633E-17, -0.02000000000000004552 ) ) ;
#61 = DIRECTION ( 'NONE',  ( 2.438088387897960049E-29, -3.491481338843145188E-15, -1.000000000000000000 ) ) ;
#62 = EDGE_CURVE ( 'NONE', #57, #130, #36, .T. ) ;
#63 = APPROVAL_ROLE ( '' ) ;
#64 = ORIENTED_EDGE ( 'NONE', *, *, #113, .T. ) ;
#65 = CARTESIAN_POINT ( 'NONE',  ( 4.890937612370284544E-31, -6.982962677686307633E-17, -0.02000000000000004552 ) ) ;
#66 = DIRECTION ( 'NONE',  ( -2.445468806185136597E-29, 3.491481338843145583E-15, 1.000000000000000000 ) ) ;
#67 = DIRECTION ( 'NONE',  ( 1.000000000000000000, -6.982962677686266711E-15, 4.876176775795935232E-29 ) ) ;
#68 = AXIS2_PLACEMENT_3D ( 'NONE', #336, #58, #163 ) ;
#69 = PERSON_AND_ORGANIZATION_ROLE ( 'design_owner' ) ;
#70 = CALENDAR_DATE ( 2024, 29, 2 ) ;
#71 = CARTESIAN_POINT ( 'NONE',  ( 3.131554243005659264E-46, -4.471029511141341874E-32, -1.280553747030123384E-17 ) ) ;
#72 = DIRECTION ( 'NONE',  ( -2.445468806185136597E-29, 3.491481338843145583E-15, 1.000000000000000000 ) ) ;
#73 = ORIENTED_EDGE ( 'NONE', *, *, #17, .F. ) ;
#74 = CONICAL_SURFACE ( 'NONE', #186, 0.1180999999999998301, 0.7853981633974472798 ) ;
#75 = CARTESIAN_POINT ( 'NONE',  ( -0.1180999999999999828, -1.805646143241003839E-15, -1.495000000000000329 ) ) ;
#76 = CARTESIAN_POINT ( 'NONE',  ( 0.000000000000000000, 0.000000000000000000, 0.000000000000000000 ) ) ;
#77 = ORIENTED_EDGE ( 'NONE', *, *, #139, .F. ) ;
#78 = EDGE_LOOP ( 'NONE', ( #335, #214 ) ) ;
#79 = EDGE_CURVE ( 'NONE', #1, #273, #159, .T. ) ;
#80 = CYLINDRICAL_SURFACE ( 'NONE', #5, 0.1180999999999999966 ) ;
#81 = ORIENTED_EDGE ( 'NONE', *, *, #228, .F. ) ;
#82 = CLOSED_SHELL ( 'NONE', ( #84, #145, #102, #198, #19, #88, #344, #213 ) ) ;
#83 = ORIENTED_EDGE ( 'NONE', *, *, #44, .F. ) ;
#84 = ADVANCED_FACE ( 'NONE', ( #39 ), #23, .T. ) ;
#85 = PLANE ( 'NONE',  #280 ) ;
#86 = AXIS2_PLACEMENT_3D ( 'NONE', #60, #191, #257 ) ;
#87 = DATE_AND_TIME ( #275, #144 ) ;
#88 = ADVANCED_FACE ( 'NONE', ( #195 ), #97, .T. ) ;
#89 = PERSON_AND_ORGANIZATION ( #322, #98 ) ;
#90 = PERSON_AND_ORGANIZATION_ROLE ( 'creator' ) ;
#91 = DIRECTION ( 'NONE',  ( 1.000000000000000000, -6.982962677686266711E-15, 0.000000000000000000 ) ) ;
#92 = PRODUCT_RELATED_PRODUCT_CATEGORY ( 'detail', '', ( #111 ) ) ;
#93 = ORIENTED_EDGE ( 'NONE', *, *, #270, .T. ) ;
#94 = DIRECTION ( 'NONE',  ( 1.000000000000000000, -6.982962677686266711E-15, 4.876176775795935232E-29 ) ) ;
#95 = DIRECTION ( 'NONE',  ( 2.445468806185136597E-29, -3.491481338843145583E-15, -1.000000000000000000 ) ) ;
#96 =( LENGTH_UNIT ( ) NAMED_UNIT ( * ) SI_UNIT ( $, .METRE. ) );
#97 = CONICAL_SURFACE ( 'NONE', #324, 0.1170999999999999958, 0.7853981633974056464 ) ;
#98 = ORGANIZATION ( 'UNSPECIFIED', 'UNSPECIFIED', '' ) ;
#99 = ORIENTED_EDGE ( 'NONE', *, *, #79, .T. ) ;
#100 = COORDINATED_UNIVERSAL_TIME_OFFSET ( 5, 0, .BEHIND. ) ;
#101 = ORIENTED_EDGE ( 'NONE', *, *, #109, .F. ) ;
#102 = ADVANCED_FACE ( 'NONE', ( #9 ), #74, .T. ) ;
#103 = VECTOR ( 'NONE', #230, 39.37007874015748143 ) ;
#104 = PLANE ( 'NONE',  #315 ) ;
#105 = CARTESIAN_POINT ( 'NONE',  ( 0.1180999999999998995, -8.246878922347473751E-16, 5.758764772214994835E-30 ) ) ;
#106 = APPROVAL_DATE_TIME ( #298, #258 ) ;
#107 = FACE_OUTER_BOUND ( 'NONE', #302, .T. ) ;
#108 = DIRECTION ( 'NONE',  ( 2.438088387897960049E-29, -3.491481338843145188E-15, -1.000000000000000000 ) ) ;
#109 = EDGE_CURVE ( 'NONE', #354, #200, #292, .T. ) ;
#110 = CARTESIAN_POINT ( 'NONE',  ( 3.658421334052965286E-29, -5.223256082909346937E-15, -1.496000000000000441 ) ) ;
#111 = PRODUCT ( '83230', '83230', '', ( #116 ) ) ;
#112 = CARTESIAN_POINT ( 'NONE',  ( -0.1180999999999998301, 7.548582654578837811E-16, -0.02000000000000004552 ) ) ;
#113 = EDGE_CURVE ( 'NONE', #158, #276, #150, .T. ) ;
#114 = VECTOR ( 'NONE', #46, 39.37007874015748143 ) ;
#115 = AXIS2_PLACEMENT_3D ( 'NONE', #217, #175, #355 ) ;
#116 = MECHANICAL_CONTEXT ( 'NONE', #297, 'mechanical' ) ;
#117 = EDGE_CURVE ( 'NONE', #273, #168, #359, .T. ) ;
#118 = DIRECTION ( 'NONE',  ( -2.445468806185136597E-29, 3.491481338843145583E-15, 1.000000000000000000 ) ) ;
#119 = ORIENTED_EDGE ( 'NONE', *, *, #291, .T. ) ;
#120 = CC_DESIGN_PERSON_AND_ORGANIZATION_ASSIGNMENT ( #89, #69, ( #111 ) ) ;
#121 = DATE_TIME_ROLE ( 'classification_date' ) ;
#122 = ORIENTED_EDGE ( 'NONE', *, *, #25, .F. ) ;
#123 = FACE_OUTER_BOUND ( 'NONE', #319, .T. ) ;
#124 = AXIS2_PLACEMENT_3D ( 'NONE', #146, #118, #357 ) ;
#125 = CYLINDRICAL_SURFACE ( 'NONE', #41, 0.1180999999999998995 ) ;
#126 = ORIENTED_EDGE ( 'NONE', *, *, #361, .F. ) ;
#127 = CARTESIAN_POINT ( 'NONE',  ( 0.1180999999999999966, -8.246878922347480654E-16, 5.758764772215000440E-30 ) ) ;
#128 = CARTESIAN_POINT ( 'NONE',  ( 0.000000000000000000, 0.000000000000000000, 0.000000000000000000 ) ) ;
#129 = APPROVAL_PERSON_ORGANIZATION ( #327, #35, #63 ) ;
#130 = VERTEX_POINT ( 'NONE', #75 ) ;
#131 = ORIENTED_EDGE ( 'NONE', *, *, #361, .T. ) ;
#132 = ORIENTED_EDGE ( 'NONE', *, *, #166, .T. ) ;
#133 = DIRECTION ( 'NONE',  ( -2.445468806185136597E-29, 3.491481338843145583E-15, 1.000000000000000000 ) ) ;
#134 = CARTESIAN_POINT ( 'NONE',  ( 0.1180999999999999828, -6.044452493805252192E-15, -1.495000000000000329 ) ) ;
#135 = PLANE ( 'NONE',  #256 ) ;
#136 = ORIENTED_EDGE ( 'NONE', *, *, #185, .T. ) ;
#137 = ORIENTED_EDGE ( 'NONE', *, *, #314, .T. ) ;
#138 = COORDINATED_UNIVERSAL_TIME_OFFSET ( 5, 0, .BEHIND. ) ;
#139 = EDGE_CURVE ( 'NONE', #200, #130, #147, .T. ) ;
#140 = DIRECTION ( 'NONE',  ( 1.000000000000000000, -6.982962677686266711E-15, 4.875229006325905140E-29 ) ) ;
#141 = FACE_OUTER_BOUND ( 'NONE', #226, .T. ) ;
#142 = APPLICATION_PROTOCOL_DEFINITION ( 'international standard', 'config_control_design', 1994, #297 ) ;
#143 = VECTOR ( 'NONE', #294, 39.37007874015748143 ) ;
#144 = LOCAL_TIME ( 20, 32, 16.00000000000000000, #164 ) ;
#145 = ADVANCED_FACE ( 'NONE', ( #123 ), #125, .T. ) ;
#146 = CARTESIAN_POINT ( 'NONE',  ( 3.658421334052965286E-29, -5.223256082909346937E-15, -1.496000000000000441 ) ) ;
#147 = CIRCLE ( 'NONE', #190, 0.1180999999999999828 ) ;
#148 = CARTESIAN_POINT ( 'NONE',  ( 8.246878922347846488E-16, 0.1180999999999947786, -1.496000000000000885 ) ) ;
#149 = CALENDAR_DATE ( 2024, 29, 2 ) ;
#150 = LINE ( 'NONE', #227, #201 ) ;
#151 = CIRCLE ( 'NONE', #244, 0.1180999999999999966 ) ;
#152 = AXIS2_PLACEMENT_3D ( 'NONE', #32, #15, #169 ) ;
#153 = DIRECTION ( 'NONE',  ( -0.7071067811865467956, 2.468850131082249172E-15, -0.7071067811865482389 ) ) ;
#154 = CC_DESIGN_DATE_AND_TIME_ASSIGNMENT ( #285, #121, ( #30 ) ) ;
#155 = ORIENTED_EDGE ( 'NONE', *, *, #228, .T. ) ;
#156 = DIRECTION ( 'NONE',  ( -2.445468806185136597E-29, 3.491481338843145583E-15, 1.000000000000000000 ) ) ;
#157 = EDGE_LOOP ( 'NONE', ( #338, #54, #341, #305 ) ) ;
#158 = VERTEX_POINT ( 'NONE', #172 ) ;
#159 = CIRCLE ( 'NONE', #18, 0.1180999999999999966 ) ;
#160 = ORIENTED_EDGE ( 'NONE', *, *, #117, .F. ) ;
#161 = DIRECTION ( 'NONE',  ( -1.000000000000000000, 6.982962677686265922E-15, -4.876176775795935793E-29 ) ) ;
#162 = ORIENTED_EDGE ( 'NONE', *, *, #139, .T. ) ;
#163 = DIRECTION ( 'NONE',  ( -1.000000000000000000, 6.982962677686266711E-15, 0.000000000000000000 ) ) ;
#164 = COORDINATED_UNIVERSAL_TIME_OFFSET ( 5, 0, .BEHIND. ) ;
#165 = AXIS2_PLACEMENT_3D ( 'NONE', #171, #66, #13 ) ;
#166 = EDGE_CURVE ( 'NONE', #200, #211, #37, .T. ) ;
#167 = PRODUCT_DEFINITION_FORMATION_WITH_SPECIFIED_SOURCE ( 'ANY', '', #111, .NOT_KNOWN. ) ;
#168 = VERTEX_POINT ( 'NONE', #332 ) ;
#169 = DIRECTION ( 'NONE',  ( 1.000000000000000000, 0.000000000000000000, 0.000000000000000000 ) ) ;
#170 = PRODUCT_DEFINITION ( 'UNKNOWN', '', #167, #14 ) ;
#171 = CARTESIAN_POINT ( 'NONE',  ( 3.131554243005659264E-46, -4.471029511141341874E-32, -1.280553747030123384E-17 ) ) ;
#172 = CARTESIAN_POINT ( 'NONE',  ( -0.09809999999999984011, 7.199434520694527237E-16, -1.280553747030614727E-17 ) ) ;
#173 = CIRCLE ( 'NONE', #165, 0.09809999999999984011 ) ;
#174 = AXIS2_PLACEMENT_3D ( 'NONE', #50, #59, #232 ) ;
#175 = DIRECTION ( 'NONE',  ( -2.445468806185136597E-29, 3.491481338843145583E-15, 1.000000000000000000 ) ) ;
#176 = CARTESIAN_POINT ( 'NONE',  ( -0.1170999999999999958, -4.385912084986046557E-15, -1.496000000000000441 ) ) ;
#177 = CC_DESIGN_PERSON_AND_ORGANIZATION_ASSIGNMENT ( #349, #90, ( #167 ) ) ;
#178 = CLOSED_SHELL ( 'NONE', ( #225, #337, #194, #295 ) ) ;
#179 = FACE_OUTER_BOUND ( 'NONE', #239, .T. ) ;
#180 = APPROVAL ( #356, 'UNSPECIFIED' ) ;
#181 = LOCAL_TIME ( 20, 32, 16.00000000000000000, #38 ) ;
#182 = APPROVAL_DATE_TIME ( #204, #180 ) ;
#183 = CARTESIAN_POINT ( 'NONE',  ( 0.000000000000000000, 0.000000000000000000, 0.000000000000000000 ) ) ;
#184 = CARTESIAN_POINT ( 'NONE',  ( 8.246878922348086105E-16, 0.1180999999999913369, -2.480300000000001059 ) ) ;
#185 = EDGE_CURVE ( 'NONE', #130, #276, #203, .T. ) ;
#186 = AXIS2_PLACEMENT_3D ( 'NONE', #65, #95, #196 ) ;
#187 = AXIS2_PLACEMENT_3D ( 'NONE', #306, #310, #8 ) ;
#188 = DIRECTION ( 'NONE',  ( -2.445468806185136597E-29, 3.491481338843145583E-15, 1.000000000000000000 ) ) ;
#189 = PERSON_AND_ORGANIZATION ( #322, #98 ) ;
#190 = AXIS2_PLACEMENT_3D ( 'NONE', #51, #156, #21 ) ;
#191 = DIRECTION ( 'NONE',  ( -2.445468806185136597E-29, 3.491481338843145583E-15, 1.000000000000000000 ) ) ;
#192 = CIRCLE ( 'NONE', #47, 0.1180999999999999966 ) ;
#193 = CC_DESIGN_APPROVAL ( #35, ( #167 ) ) ;
#194 = ADVANCED_FACE ( 'NONE', ( #262 ), #329, .F. ) ;
#195 = FACE_OUTER_BOUND ( 'NONE', #157, .T. ) ;
#196 = DIRECTION ( 'NONE',  ( -1.000000000000000000, 6.982962677686266711E-15, 0.000000000000000000 ) ) ;
#197 = CC_DESIGN_SECURITY_CLASSIFICATION ( #30, ( #167 ) ) ;
#198 = ADVANCED_FACE ( 'NONE', ( #107 ), #339, .T. ) ;
#199 = DIRECTION ( 'NONE',  ( 1.000000000000000000, -6.982962677686265922E-15, 4.876176775795935793E-29 ) ) ;
#200 = VERTEX_POINT ( 'NONE', #134 ) ;
#201 = VECTOR ( 'NONE', #153, 39.37007874015748143 ) ;
#202 = CIRCLE ( 'NONE', #174, 0.1180999999999999828 ) ;
#203 = LINE ( 'NONE', #45, #114 ) ;
#204 = DATE_AND_TIME ( #149, #267 ) ;
#205 = ORIENTED_EDGE ( 'NONE', *, *, #17, .T. ) ;
#206 = CARTESIAN_POINT ( 'NONE',  ( 0.1180999999999998301, -8.800544403136797528E-16, -0.02000000000000004552 ) ) ;
#207 = DIRECTION ( 'NONE',  ( -2.445468806185136597E-29, 3.491481338843145583E-15, 1.000000000000000000 ) ) ;
#208 = PERSON_AND_ORGANIZATION ( #322, #98 ) ;
#209 = FACE_OUTER_BOUND ( 'NONE', #27, .T. ) ;
#210 = DIRECTION ( 'NONE',  ( -1.000000000000000000, 6.982962677686265922E-15, -4.876176775795935793E-29 ) ) ;
#211 = VERTEX_POINT ( 'NONE', #206 ) ;
#212 = DIRECTION ( 'NONE',  ( -2.445468806185136597E-29, 3.491481338843145583E-15, 1.000000000000000000 ) ) ;
#213 = ADVANCED_FACE ( 'NONE', ( #209 ), #85, .F. ) ;
#214 = ORIENTED_EDGE ( 'NONE', *, *, #311, .F. ) ;
#215 = EDGE_LOOP ( 'NONE', ( #248, #155 ) ) ;
#216 = DIRECTION ( 'NONE',  ( -1.000000000000000000, 6.982962677686265922E-15, -4.876176775795935793E-29 ) ) ;
#217 = CARTESIAN_POINT ( 'NONE',  ( 0.000000000000000000, 0.000000000000000000, 0.000000000000000000 ) ) ;
#218 = CC_DESIGN_APPROVAL ( #180, ( #30 ) ) ;
#219 = APPROVAL_DATE_TIME ( #87, #35 ) ;
#220 = APPROVAL_STATUS ( 'not_yet_approved' ) ;
#221 = LINE ( 'NONE', #127, #143 ) ;
#222 = ORIENTED_EDGE ( 'NONE', *, *, #79, .F. ) ;
#223 = CARTESIAN_POINT ( 'NONE',  ( 0.1180999999999998301, -8.800544403136797528E-16, -0.02000000000000004552 ) ) ;
#224 = APPROVAL_PERSON_ORGANIZATION ( #255, #180, #320 ) ;
#225 = ADVANCED_FACE ( 'NONE', ( #300 ), #80, .T. ) ;
#226 = EDGE_LOOP ( 'NONE', ( #160, #93, #205, #81 ) ) ;
#227 = CARTESIAN_POINT ( 'NONE',  ( -0.1180999999999998301, 7.548582654578837811E-16, -0.02000000000000004552 ) ) ;
#228 = EDGE_CURVE ( 'NONE', #168, #279, #151, .T. ) ;
#229 = ORIENTED_EDGE ( 'NONE', *, *, #117, .T. ) ;
#230 = DIRECTION ( 'NONE',  ( 0.7071067811865173747, -2.468850131081940727E-15, 0.7071067811865776598 ) ) ;
#231 = EDGE_LOOP ( 'NONE', ( #119, #49, #77, #101 ) ) ;
#232 = DIRECTION ( 'NONE',  ( 1.000000000000000000, -6.982962677686265922E-15, 0.000000000000000000 ) ) ;
#233 =( CONVERSION_BASED_UNIT ( 'INCH', #263 ) LENGTH_UNIT ( ) NAMED_UNIT ( #245 ) );
#234 = DIRECTION ( 'NONE',  ( 1.000000000000000000, -6.982962677686264344E-15, 0.000000000000000000 ) ) ;
#235 = DIRECTION ( 'NONE',  ( -2.445468806185136597E-29, 3.491481338843145583E-15, 1.000000000000000000 ) ) ;
#236 = DIRECTION ( 'NONE',  ( -2.438088387897960049E-29, 3.491481338843145188E-15, 1.000000000000000000 ) ) ;
#237 = EDGE_CURVE ( 'NONE', #279, #168, #192, .T. ) ;
#238 = CARTESIAN_POINT ( 'NONE',  ( -0.1180999999999999966, -6.102437652888322939E-15, -2.480300000000000171 ) ) ;
#239 = EDGE_LOOP ( 'NONE', ( #16, #137, #132, #126 ) ) ;
#240 = DIRECTION ( 'NONE',  ( 1.000000000000000000, -6.982962677686265133E-15, 0.000000000000000000 ) ) ;
#241 = ORIENTED_EDGE ( 'NONE', *, *, #29, .T. ) ;
#242 = CC_DESIGN_DATE_AND_TIME_ASSIGNMENT ( #272, #4, ( #170 ) ) ;
#243 = DIRECTION ( 'NONE',  ( -2.445468806185136597E-29, 3.491481338843145583E-15, 1.000000000000000000 ) ) ;
#244 = AXIS2_PLACEMENT_3D ( 'NONE', #274, #212, #240 ) ;
#245 = DIMENSIONAL_EXPONENTS ( 1.000000000000000000, 0.000000000000000000, 0.000000000000000000, 0.000000000000000000, 0.000000000000000000, 0.000000000000000000, 0.000000000000000000 ) ;
#246 = CALENDAR_DATE ( 2024, 29, 2 ) ;
#247 = DIRECTION ( 'NONE',  ( 1.000000000000000000, -6.982962677686264344E-15, 0.000000000000000000 ) ) ;
#248 = ORIENTED_EDGE ( 'NONE', *, *, #237, .T. ) ;
#249 = CYLINDRICAL_SURFACE ( 'NONE', #115, 0.1180999999999999966 ) ;
#250 =( GEOMETRIC_REPRESENTATION_CONTEXT ( 3 ) GLOBAL_UNCERTAINTY_ASSIGNED_CONTEXT ( ( #253 ) ) GLOBAL_UNIT_ASSIGNED_CONTEXT ( ( #233, #26, #52 ) ) REPRESENTATION_CONTEXT ( 'NONE', 'WORKASPACE' ) );
#251 = SECURITY_CLASSIFICATION_LEVEL ( 'unclassified' ) ;
#252 = CARTESIAN_POINT ( 'NONE',  ( -0.1170999999999999958, -4.391210539334269748E-15, -1.496000000000000441 ) ) ;
#253 = UNCERTAINTY_MEASURE_WITH_UNIT (LENGTH_MEASURE( 1.000000000000000082E-05 ), #233, 'distance_accuracy_value', 'NONE');
#254 = VECTOR ( 'NONE', #363, 39.37007874015748143 ) ;
#255 = PERSON_AND_ORGANIZATION ( #322, #98 ) ;
#256 = AXIS2_PLACEMENT_3D ( 'NONE', #277, #236, #199 ) ;
#257 = DIRECTION ( 'NONE',  ( 1.000000000000000000, -6.982962677686266711E-15, 0.000000000000000000 ) ) ;
#258 = APPROVAL ( #220, 'UNSPECIFIED' ) ;
#259 = CARTESIAN_POINT ( 'NONE',  ( 0.1170999999999999958, -6.040961012466408396E-15, -1.496000000000000441 ) ) ;
#260 = APPROVAL_ROLE ( '' ) ;
#261 = AXIS2_PLACEMENT_3D ( 'NONE', #2, #243, #7 ) ;
#262 = FACE_OUTER_BOUND ( 'NONE', #215, .T. ) ;
#263 = LENGTH_MEASURE_WITH_UNIT ( LENGTH_MEASURE( 0.02539999999999999897 ), #96 );
#264 = ORIENTED_EDGE ( 'NONE', *, *, #270, .F. ) ;
#265 = SHAPE_DEFINITION_REPRESENTATION ( #342, #53 ) ;
#266 = CIRCLE ( 'NONE', #309, 0.1180999999999998301 ) ;
#267 = LOCAL_TIME ( 20, 32, 16.00000000000000000, #325 ) ;
#268 = ORIENTED_EDGE ( 'NONE', *, *, #237, .F. ) ;
#269 = DIRECTION ( 'NONE',  ( 1.000000000000000000, -6.982962677686266711E-15, 4.876176775795936353E-29 ) ) ;
#270 = EDGE_CURVE ( 'NONE', #273, #1, #281, .T. ) ;
#271 = FACE_OUTER_BOUND ( 'NONE', #78, .T. ) ;
#272 = DATE_AND_TIME ( #301, #6 ) ;
#273 = VERTEX_POINT ( 'NONE', #238 ) ;
#274 = CARTESIAN_POINT ( 'NONE',  ( 3.658421334052965286E-29, -5.223256082909346937E-15, -1.496000000000000441 ) ) ;
#275 = CALENDAR_DATE ( 2024, 29, 2 ) ;
#276 = VERTEX_POINT ( 'NONE', #112 ) ;
#277 = CARTESIAN_POINT ( 'NONE',  ( 3.658421334052965286E-29, -5.223256082909346937E-15, -1.496000000000000441 ) ) ;
#278 = CARTESIAN_POINT ( 'NONE',  ( 6.850286386810215676E-16, 0.09809999999999984011, -3.489170880756626071E-16 ) ) ;
#279 = VERTEX_POINT ( 'NONE', #343 ) ;
#280 = AXIS2_PLACEMENT_3D ( 'NONE', #278, #303, #216 ) ;
#281 = CIRCLE ( 'NONE', #261, 0.1180999999999999966 ) ;
#282 = PERSON_AND_ORGANIZATION_ROLE ( 'design_supplier' ) ;
#283 = DIRECTION ( 'NONE',  ( -2.445468806185136597E-29, 3.491481338843145583E-15, 1.000000000000000000 ) ) ;
#284 = CC_DESIGN_PERSON_AND_ORGANIZATION_ASSIGNMENT ( #351, #316, ( #30 ) ) ;
#285 = DATE_AND_TIME ( #70, #181 ) ;
#286 = PERSON_AND_ORGANIZATION ( #322, #98 ) ;
#287 = DIRECTION ( 'NONE',  ( 1.000000000000000000, -6.982962677686273021E-15, 0.000000000000000000 ) ) ;
#288 = VECTOR ( 'NONE', #360, 39.37007874015748143 ) ;
#289 = DIRECTION ( 'NONE',  ( -2.445468806185136597E-29, 3.491481338843145583E-15, 1.000000000000000000 ) ) ;
#290 = LOCAL_TIME ( 20, 32, 16.00000000000000000, #138 ) ;
#291 = EDGE_CURVE ( 'NONE', #354, #57, #340, .T. ) ;
#292 = LINE ( 'NONE', #259, #103 ) ;
#293 = AXIS2_PLACEMENT_3D ( 'NONE', #3, #207, #234 ) ;
#294 = DIRECTION ( 'NONE',  ( -2.445468806185136877E-29, 3.491481338843145188E-15, 1.000000000000000000 ) ) ;
#295 = ADVANCED_FACE ( 'NONE', ( #141 ), #249, .T. ) ;
#296 = ORIENTED_EDGE ( 'NONE', *, *, #166, .F. ) ;
#297 = APPLICATION_CONTEXT ( 'configuration controlled 3d designs of mechanical parts and assemblies' ) ;
#298 = DATE_AND_TIME ( #246, #290 ) ;
#299 = AXIS2_PLACEMENT_3D ( 'NONE', #148, #61, #161 ) ;
#300 = FACE_OUTER_BOUND ( 'NONE', #20, .T. ) ;
#301 = CALENDAR_DATE ( 2024, 29, 2 ) ;
#302 = EDGE_LOOP ( 'NONE', ( #10, #31, #64, #131 ) ) ;
#303 = DIRECTION ( 'NONE',  ( 2.438088387897960049E-29, -3.491481338843145188E-15, -1.000000000000000000 ) ) ;
#304 = APPROVAL_STATUS ( 'not_yet_approved' ) ;
#305 = ORIENTED_EDGE ( 'NONE', *, *, #314, .F. ) ;
#306 = CARTESIAN_POINT ( 'NONE',  ( 3.658421334052965286E-29, -5.223256082909346937E-15, -1.496000000000000441 ) ) ;
#307 = MANIFOLD_SOLID_BREP ( 'Body-Move/Copy2[1]', #178 ) ;
#308 = MANIFOLD_SOLID_BREP ( 'Body-Move/Copy2[2]', #82 ) ;
#309 = AXIS2_PLACEMENT_3D ( 'NONE', #352, #283, #91 ) ;
#310 = DIRECTION ( 'NONE',  ( -2.445468806185136597E-29, 3.491481338843145583E-15, 1.000000000000000000 ) ) ;
#311 = EDGE_CURVE ( 'NONE', #57, #354, #34, .T. ) ;
#312 = DIRECTION ( 'NONE',  ( -2.445468806185136597E-29, 3.491481338843145583E-15, 1.000000000000000000 ) ) ;
#313 = DIRECTION ( 'NONE',  ( -2.445468806185136597E-29, 3.491481338843145583E-15, 1.000000000000000000 ) ) ;
#314 = EDGE_CURVE ( 'NONE', #130, #200, #202, .T. ) ;
#315 = AXIS2_PLACEMENT_3D ( 'NONE', #184, #108, #210 ) ;
#316 = PERSON_AND_ORGANIZATION_ROLE ( 'classification_officer' ) ;
#317 = DIRECTION ( 'NONE',  ( -0.7071067811865173747, 7.493145998870245297E-15, 0.7071067811865776598 ) ) ;
#318 = CARTESIAN_POINT ( 'NONE',  ( 6.065496279980994755E-29, -8.659921164732655335E-15, -2.480300000000000171 ) ) ;
#319 = EDGE_LOOP ( 'NONE', ( #162, #136, #83, #296 ) ) ;
#320 = APPROVAL_ROLE ( '' ) ;
#321 = CARTESIAN_POINT ( 'NONE',  ( 3.658421334052965286E-29, -5.223256082909346937E-15, -1.496000000000000441 ) ) ;
#322 = PERSON ( 'UNSPECIFIED', 'UNSPECIFIED', 'UNSPECIFIED', ('UNSPECIFIED'), ('UNSPECIFIED'), ('UNSPECIFIED') ) ;
#323 = APPLICATION_CONTEXT ( 'configuration controlled 3d designs of mechanical parts and assemblies' ) ;
#324 = AXIS2_PLACEMENT_3D ( 'NONE', #321, #289, #247 ) ;
#325 = COORDINATED_UNIVERSAL_TIME_OFFSET ( 5, 0, .BEHIND. ) ;
#326 = CARTESIAN_POINT ( 'NONE',  ( -0.1180999999999999966, 8.391509709326782957E-16, -5.809262341591043784E-30 ) ) ;
#327 = PERSON_AND_ORGANIZATION ( #322, #98 ) ;
#328 = EDGE_LOOP ( 'NONE', ( #222, #264 ) ) ;
#329 = PLANE ( 'NONE',  #299 ) ;
#330 = VERTEX_POINT ( 'NONE', #362 ) ;
#331 = FACE_OUTER_BOUND ( 'NONE', #328, .T. ) ;
#332 = CARTESIAN_POINT ( 'NONE',  ( -0.1180999999999999966, -6.102437652888322939E-15, -1.496000000000000441 ) ) ;
#333 = PERSON_AND_ORGANIZATION_ROLE ( 'creator' ) ;
#334 = ORIENTED_EDGE ( 'NONE', *, *, #25, .T. ) ;
#335 = ORIENTED_EDGE ( 'NONE', *, *, #291, .F. ) ;
#336 = CARTESIAN_POINT ( 'NONE',  ( 4.890937612370284544E-31, -6.982962677686307633E-17, -0.02000000000000004552 ) ) ;
#337 = ADVANCED_FACE ( 'NONE', ( #331 ), #104, .T. ) ;
#338 = ORIENTED_EDGE ( 'NONE', *, *, #62, .F. ) ;
#339 = CONICAL_SURFACE ( 'NONE', #68, 0.1180999999999998301, 0.7853981633974472798 ) ;
#340 = CIRCLE ( 'NONE', #187, 0.1170999999999999958 ) ;
#341 = ORIENTED_EDGE ( 'NONE', *, *, #109, .T. ) ;
#342 = PRODUCT_DEFINITION_SHAPE ( 'NONE', 'NONE',  #170 ) ;
#343 = CARTESIAN_POINT ( 'NONE',  ( 0.1180999999999999966, -6.047943975144094411E-15, -1.496000000000000441 ) ) ;
#344 = ADVANCED_FACE ( 'NONE', ( #271 ), #135, .F. ) ;
#345 = CARTESIAN_POINT ( 'NONE',  ( 0.1180999999999999966, -9.484609056967403598E-15, -2.480300000000000171 ) ) ;
#346 = AXIS2_PLACEMENT_3D ( 'NONE', #71, #312, #140 ) ;
#347 = DIRECTION ( 'NONE',  ( 0.7071067811865467956, -7.319954787623254468E-15, -0.7071067811865482389 ) ) ;
#348 = CARTESIAN_POINT ( 'NONE',  ( 0.1170999999999999958, -6.040961012466408396E-15, -1.496000000000000441 ) ) ;
#349 = PERSON_AND_ORGANIZATION ( #322, #98 ) ;
#350 = CC_DESIGN_PERSON_AND_ORGANIZATION_ASSIGNMENT ( #208, #333, ( #170 ) ) ;
#351 = PERSON_AND_ORGANIZATION ( #322, #98 ) ;
#352 = CARTESIAN_POINT ( 'NONE',  ( 4.890937612370284544E-31, -6.982962677686307633E-17, -0.02000000000000004552 ) ) ;
#353 = VECTOR ( 'NONE', #317, 39.37007874015748143 ) ;
#354 = VERTEX_POINT ( 'NONE', #348 ) ;
#355 = DIRECTION ( 'NONE',  ( 1.000000000000000000, -6.982962677686266711E-15, 4.876176775795936353E-29 ) ) ;
#356 = APPROVAL_STATUS ( 'not_yet_approved' ) ;
#357 = DIRECTION ( 'NONE',  ( 1.000000000000000000, -6.982962677686264344E-15, 0.000000000000000000 ) ) ;
#358 = EDGE_LOOP ( 'NONE', ( #122, #364, #48, #22 ) ) ;
#359 = LINE ( 'NONE', #326, #254 ) ;
#360 = DIRECTION ( 'NONE',  ( -2.445468806185136877E-29, 3.491481338843145188E-15, 1.000000000000000000 ) ) ;
#361 = EDGE_CURVE ( 'NONE', #276, #211, #24, .T. ) ;
#362 = CARTESIAN_POINT ( 'NONE',  ( 0.09809999999999984011, -7.765346469475328709E-16, -1.280553747029612319E-17 ) ) ;
#363 = DIRECTION ( 'NONE',  ( -2.445468806185136877E-29, 3.491481338843145188E-15, 1.000000000000000000 ) ) ;
#364 = ORIENTED_EDGE ( 'NONE', *, *, #40, .T. ) ;
#365 = VECTOR ( 'NONE', #347, 39.37007874015748143 ) ;
#366 = CC_DESIGN_APPROVAL ( #258, ( #170 ) ) ;
ENDSEC;
END-ISO-10303-21;
