ISO-10303-21;
HEADER;
FILE_DESCRIPTION (( 'STEP AP203' ),
    '1' );
FILE_NAME ('91287.STEP',
    '2024-04-10T12:36:29',
    ( '' ),
    ( '' ),
    'SwSTEP 2.0',
    'SolidWorks 2023',
    '' );
FILE_SCHEMA (( 'CONFIG_CONTROL_DESIGN' ));
ENDSEC;

DATA;
#1 = CARTESIAN_POINT ( 'NONE',  ( -1.302322539388451720E-15, -0.1865000000000051894, -1.499999999999999778 ) ) ;
#2 = MANIFOLD_SOLID_BREP ( 'Body-Move/Copy2[1]', #18 ) ;
#3 = DATE_AND_TIME ( #320, #154 ) ;
#4 = ADVANCED_FACE ( 'NONE', ( #135 ), #304, .T. ) ;
#5 = AXIS2_PLACEMENT_3D ( 'NONE', #193, #363, #366 ) ;
#6 = CC_DESIGN_APPROVAL ( #408, ( #394 ) ) ;
#7 = CARTESIAN_POINT ( 'NONE',  ( 1.328714915871423829E-15, 0.1864999999999947533, -1.500000000000000888 ) ) ;
#8 = COORDINATED_UNIVERSAL_TIME_OFFSET ( 5, 0, .BEHIND. ) ;
#9 = CC_DESIGN_PERSON_AND_ORGANIZATION_ASSIGNMENT ( #79, #146, ( #77 ) ) ;
#10 = EDGE_CURVE ( 'NONE', #15, #153, #138, .T. ) ;
#11 = DIRECTION ( 'NONE',  ( 2.446325823282041021E-29, -3.490254041581994604E-15, -1.000000000000000000 ) ) ;
#12 = ORIENTED_EDGE ( 'NONE', *, *, #49, .F. ) ;
#13 = VECTOR ( 'NONE', #165, 39.37007874015748143 ) ;
#14 = LENGTH_MEASURE_WITH_UNIT ( LENGTH_MEASURE( 0.02539999999999999897 ), #16 );
#15 = VERTEX_POINT ( 'NONE', #160 ) ;
#16 =( LENGTH_UNIT ( ) NAMED_UNIT ( * ) SI_UNIT ( $, .METRE. ) );
#17 = CARTESIAN_POINT ( 'NONE',  ( 1.325162202192623128E-15, 0.1864999999999947533, -1.500000000000000888 ) ) ;
#18 = CLOSED_SHELL ( 'NONE', ( #35, #4, #39, #311, #65 ) ) ;
#19 =( GEOMETRIC_REPRESENTATION_CONTEXT ( 3 ) GLOBAL_UNCERTAINTY_ASSIGNED_CONTEXT ( ( #308 ) ) GLOBAL_UNIT_ASSIGNED_CONTEXT ( ( #397, #59, #133 ) ) REPRESENTATION_CONTEXT ( 'NONE', 'WORKASPACE' ) );
#20 = DIRECTION ( 'NONE',  ( -2.446325823282041021E-29, 3.490254041581994604E-15, 1.000000000000000000 ) ) ;
#21 = CARTESIAN_POINT ( 'NONE',  ( 5.324026836389243254E-29, -8.548232964214825368E-15, -2.312500000000000000 ) ) ;
#22 = DATE_TIME_ROLE ( 'creation_date' ) ;
#23 = DIRECTION ( 'NONE',  ( -4.851104656540959542E-15, -0.7071067811865493491, -0.7071067811865457964 ) ) ;
#24 = ORIENTED_EDGE ( 'NONE', *, *, #49, .T. ) ;
#25 = EDGE_CURVE ( 'NONE', #45, #301, #410, .T. ) ;
#26 = PRODUCT ( '91287', '91287', '', ( #51 ) ) ;
#27 = FACE_OUTER_BOUND ( 'NONE', #225, .T. ) ;
#28 = EDGE_LOOP ( 'NONE', ( #276, #223 ) ) ;
#29 = CARTESIAN_POINT ( 'NONE',  ( 0.000000000000000000, 0.000000000000000000, 0.000000000000000000 ) ) ;
#30 = AXIS2_PLACEMENT_3D ( 'NONE', #73, #11, #37 ) ;
#31 = DIRECTION ( 'NONE',  ( -2.445468806185136597E-29, 3.491481338843145583E-15, 1.000000000000000000 ) ) ;
#32 = EDGE_LOOP ( 'NONE', ( #240, #84, #339, #164, #52 ) ) ;
#33 = CARTESIAN_POINT ( 'NONE',  ( 5.655146614303128380E-29, -8.074050596074775072E-15, -2.312500000000000000 ) ) ;
#34 = ORIENTED_EDGE ( 'NONE', *, *, #315, .T. ) ;
#35 = ADVANCED_FACE ( 'NONE', ( #91 ), #166, .T. ) ;
#36 = CONICAL_SURFACE ( 'NONE', #353, 0.1864999999999999714, 0.7853981633973801113 ) ;
#37 = DIRECTION ( 'NONE',  ( 6.982962677686266711E-15, 1.000000000000000000, -3.483106191921935949E-15 ) ) ;
#38 = CARTESIAN_POINT ( 'NONE',  ( 1.309305502066231017E-15, 0.1874999999999918954, -2.312500000000000444 ) ) ;
#39 = ADVANCED_FACE ( 'NONE', ( #256 ), #129, .T. ) ;
#40 = DIRECTION ( 'NONE',  ( -6.982962677686265922E-15, -1.000000000000000000, 2.929595703661408850E-15 ) ) ;
#41 = APPROVAL_STATUS ( 'not_yet_approved' ) ;
#42 = VERTEX_POINT ( 'NONE', #198 ) ;
#43 = CARTESIAN_POINT ( 'NONE',  ( 5.655146614303128380E-29, -8.074050596074775072E-15, -2.312500000000000000 ) ) ;
#44 = LINE ( 'NONE', #17, #401 ) ;
#45 = VERTEX_POINT ( 'NONE', #7 ) ;
#46 = AXIS2_PLACEMENT_3D ( 'NONE', #139, #75, #373 ) ;
#47 = APPROVAL_ROLE ( '' ) ;
#48 = APPROVAL_PERSON_ORGANIZATION ( #121, #350, #47 ) ;
#49 = EDGE_CURVE ( 'NONE', #232, #228, #141, .T. ) ;
#50 = EDGE_LOOP ( 'NONE', ( #258, #404, #268, #63 ) ) ;
#51 = MECHANICAL_CONTEXT ( 'NONE', #137, 'mechanical' ) ;
#52 = ORIENTED_EDGE ( 'NONE', *, *, #86, .T. ) ;
#53 = COORDINATED_UNIVERSAL_TIME_OFFSET ( 5, 0, .BEHIND. ) ;
#54 = CARTESIAN_POINT ( 'NONE',  ( 3.667042409099778861E-29, -5.231890808331411425E-15, -1.499000000000000110 ) ) ;
#55 = EDGE_LOOP ( 'NONE', ( #186, #372 ) ) ;
#56 = CONICAL_SURFACE ( 'NONE', #120, 0.1874999999999999722, 0.7853981633974473908 ) ;
#57 = DIRECTION ( 'NONE',  ( -2.446325823282041021E-29, 3.490254041581994604E-15, 1.000000000000000000 ) ) ;
#58 = ORIENTED_EDGE ( 'NONE', *, *, #152, .T. ) ;
#59 =( NAMED_UNIT ( * ) PLANE_ANGLE_UNIT ( ) SI_UNIT ( $, .RADIAN. ) );
#60 = DIRECTION ( 'NONE',  ( -6.982962677686265922E-15, -1.000000000000000000, 2.913971193241877611E-15 ) ) ;
#61 = ORIENTED_EDGE ( 'NONE', *, *, #382, .F. ) ;
#62 = DIRECTION ( 'NONE',  ( 1.000000000000000000, -6.982962677686270655E-15, 0.000000000000000000 ) ) ;
#63 = ORIENTED_EDGE ( 'NONE', *, *, #388, .F. ) ;
#64 = DIMENSIONAL_EXPONENTS ( 1.000000000000000000, 0.000000000000000000, 0.000000000000000000, 0.000000000000000000, 0.000000000000000000, 0.000000000000000000, 0.000000000000000000 ) ;
#65 = ADVANCED_FACE ( 'NONE', ( #105 ), #389, .T. ) ;
#66 = CIRCLE ( 'NONE', #412, 0.1674999999999999545 ) ;
#67 = ADVANCED_FACE ( 'NONE', ( #390 ), #118, .T. ) ;
#68 = CYLINDRICAL_SURFACE ( 'NONE', #5, 0.1875000000000000833 ) ;
#69 = VERTEX_POINT ( 'NONE', #38 ) ;
#70 = DIRECTION ( 'NONE',  ( -2.446325823282041302E-29, 3.490254041581994604E-15, 1.000000000000000000 ) ) ;
#71 = EDGE_CURVE ( 'NONE', #45, #406, #44, .T. ) ;
#72 = PERSON_AND_ORGANIZATION ( #260, #196 ) ;
#73 = CARTESIAN_POINT ( 'NONE',  ( 4.892651646564092307E-31, -6.980508083164003605E-17, -0.02000000000000004205 ) ) ;
#74 = AXIS2_PLACEMENT_3D ( 'NONE', #227, #134, #62 ) ;
#75 = DIRECTION ( 'NONE',  ( -2.445468806185136597E-29, 3.491481338843145583E-15, 1.000000000000000000 ) ) ;
#76 = EDGE_CURVE ( 'NONE', #387, #127, #295, .T. ) ;
#77 = PRODUCT_DEFINITION_FORMATION_WITH_SPECIFIED_SOURCE ( 'ANY', '', #26, .NOT_KNOWN. ) ;
#78 = DIRECTION ( 'NONE',  ( 1.000000000000000000, -6.982962677686265922E-15, 4.876176775795935793E-29 ) ) ;
#79 = PERSON_AND_ORGANIZATION ( #260, #196 ) ;
#80 = DIRECTION ( 'NONE',  ( -6.982962677686266711E-15, -1.000000000000000000, 3.483106191921935949E-15 ) ) ;
#81 = ORIENTED_EDGE ( 'NONE', *, *, #25, .T. ) ;
#82 = CC_DESIGN_PERSON_AND_ORGANIZATION_ASSIGNMENT ( #72, #317, ( #26 ) ) ;
#83 = CLOSED_SHELL ( 'NONE', ( #291, #67, #356, #144, #89, #286, #145, #344 ) ) ;
#84 = ORIENTED_EDGE ( 'NONE', *, *, #172, .T. ) ;
#85 = AXIS2_PLACEMENT_3D ( 'NONE', #377, #104, #239 ) ;
#86 = EDGE_CURVE ( 'NONE', #387, #69, #231, .T. ) ;
#87 = ORIENTED_EDGE ( 'NONE', *, *, #234, .F. ) ;
#88 = CARTESIAN_POINT ( 'NONE',  ( 0.1875000000000000278, -6.546527510330893974E-15, -1.500000000000000222 ) ) ;
#89 = ADVANCED_FACE ( 'NONE', ( #219 ), #68, .T. ) ;
#90 = DIRECTION ( 'NONE',  ( -2.446325823282041021E-29, 3.490254041581994604E-15, 1.000000000000000000 ) ) ;
#91 = FACE_OUTER_BOUND ( 'NONE', #32, .T. ) ;
#92 = CC_DESIGN_APPROVAL ( #270, ( #199 ) ) ;
#93 = DIRECTION ( 'NONE',  ( -6.982962677686266711E-15, -1.000000000000000000, 3.483106191921935949E-15 ) ) ;
#94 = ORIENTED_EDGE ( 'NONE', *, *, #96, .F. ) ;
#95 = COORDINATED_UNIVERSAL_TIME_OFFSET ( 5, 0, .BEHIND. ) ;
#96 = EDGE_CURVE ( 'NONE', #98, #406, #99, .T. ) ;
#97 = CARTESIAN_POINT ( 'NONE',  ( 3.669488734923062093E-29, -5.235381062372993089E-15, -1.500000000000000444 ) ) ;
#98 = VERTEX_POINT ( 'NONE', #229 ) ;
#99 = CIRCLE ( 'NONE', #205, 0.1875000000000001943 ) ;
#100 = DIRECTION ( 'NONE',  ( 6.982962677686265922E-15, 1.000000000000000000, -3.490254041581994604E-15 ) ) ;
#101 = ORIENTED_EDGE ( 'NONE', *, *, #234, .T. ) ;
#102 = CARTESIAN_POINT ( 'NONE',  ( 3.669488734923062093E-29, -5.235381062372993089E-15, -1.500000000000000444 ) ) ;
#103 = CC_DESIGN_PERSON_AND_ORGANIZATION_ASSIGNMENT ( #305, #183, ( #199 ) ) ;
#104 = DIRECTION ( 'NONE',  ( -2.446325823282041021E-29, 3.490254041581994604E-15, 1.000000000000000000 ) ) ;
#105 = FACE_OUTER_BOUND ( 'NONE', #341, .T. ) ;
#106 = CIRCLE ( 'NONE', #393, 0.1875000000000001943 ) ;
#107 = COORDINATED_UNIVERSAL_TIME_OFFSET ( 5, 0, .BEHIND. ) ;
#108 = APPROVAL_DATE_TIME ( #296, #408 ) ;
#109 = VECTOR ( 'NONE', #383, 39.37007874015748143 ) ;
#110 = AXIS2_PLACEMENT_3D ( 'NONE', #156, #158, #288 ) ;
#111 = PERSON_AND_ORGANIZATION ( #260, #196 ) ;
#112 = CIRCLE ( 'NONE', #261, 0.1875000000000000555 ) ;
#113 = CC_DESIGN_APPROVAL ( #350, ( #77 ) ) ;
#114 = ORIENTED_EDGE ( 'NONE', *, *, #125, .F. ) ;
#115 = FACE_OUTER_BOUND ( 'NONE', #55, .T. ) ;
#116 = CC_DESIGN_DATE_AND_TIME_ASSIGNMENT ( #245, #22, ( #199 ) ) ;
#117 = APPROVAL_DATE_TIME ( #151, #270 ) ;
#118 = CYLINDRICAL_SURFACE ( 'NONE', #222, 0.1875000000000000833 ) ;
#119 = ORIENTED_EDGE ( 'NONE', *, *, #125, .T. ) ;
#120 = AXIS2_PLACEMENT_3D ( 'NONE', #338, #312, #364 ) ;
#121 = PERSON_AND_ORGANIZATION ( #260, #196 ) ;
#122 = LOCAL_TIME ( 8, 36, 29.00000000000000000, #95 ) ;
#123 = CARTESIAN_POINT ( 'NONE',  ( -0.1875000000000000555, 1.332267629550188243E-15, -9.223003294227950793E-30 ) ) ;
#124 = EDGE_LOOP ( 'NONE', ( #178, #248 ) ) ;
#125 = EDGE_CURVE ( 'NONE', #329, #217, #342, .T. ) ;
#126 = CARTESIAN_POINT ( 'NONE',  ( 1.309305502066175205E-15, 0.1874999999999999167, -0.02000000000000069431 ) ) ;
#127 = VERTEX_POINT ( 'NONE', #88 ) ;
#128 = CARTESIAN_POINT ( 'NONE',  ( -1.332267629550134009E-15, -0.1875000000000084932, -2.312499999999999556 ) ) ;
#129 = SPHERICAL_SURFACE ( 'NONE', #289, 0.1875000000000003331 ) ;
#130 = APPLICATION_PROTOCOL_DEFINITION ( 'international standard', 'config_control_design', 1994, #298 ) ;
#131 = DIRECTION ( 'NONE',  ( 1.000000000000000000, -6.982962677686265922E-15, 4.883557194083112340E-29 ) ) ;
#132 = DIRECTION ( 'NONE',  ( -6.982962677686265922E-15, -1.000000000000000000, 2.929595703661408850E-15 ) ) ;
#133 =( NAMED_UNIT ( * ) SI_UNIT ( $, .STERADIAN. ) SOLID_ANGLE_UNIT ( ) );
#134 = DIRECTION ( 'NONE',  ( -2.445468806185136597E-29, 3.491481338843145583E-15, 1.000000000000000000 ) ) ;
#135 = FACE_OUTER_BOUND ( 'NONE', #181, .T. ) ;
#136 = EDGE_LOOP ( 'NONE', ( #375, #332, #94, #238 ) ) ;
#137 = APPLICATION_CONTEXT ( 'configuration controlled 3d designs of mechanical parts and assemblies' ) ;
#138 = CIRCLE ( 'NONE', #358, 0.1875000000000003331 ) ;
#139 = CARTESIAN_POINT ( 'NONE',  ( 3.668203209277704895E-29, -5.237222008264718177E-15, -1.500000000000000222 ) ) ;
#140 = PRODUCT_RELATED_PRODUCT_CATEGORY ( 'detail', '', ( #26 ) ) ;
#141 = LINE ( 'NONE', #264, #109 ) ;
#142 = PERSON_AND_ORGANIZATION ( #260, #196 ) ;
#143 = AXIS2_PLACEMENT_3D ( 'NONE', #97, #275, #345 ) ;
#144 = ADVANCED_FACE ( 'NONE', ( #369 ), #56, .T. ) ;
#145 = ADVANCED_FACE ( 'NONE', ( #224 ), #398, .F. ) ;
#146 = PERSON_AND_ORGANIZATION_ROLE ( 'design_supplier' ) ;
#147 = LINE ( 'NONE', #352, #336 ) ;
#148 = AXIS2_PLACEMENT_3D ( 'NONE', #360, #326, #80 ) ;
#149 = CARTESIAN_POINT ( 'NONE',  ( 0.000000000000000000, 0.000000000000000000, 0.000000000000000000 ) ) ;
#150 = ORIENTED_EDGE ( 'NONE', *, *, #202, .T. ) ;
#151 = DATE_AND_TIME ( #188, #176 ) ;
#152 = EDGE_CURVE ( 'NONE', #272, #153, #112, .T. ) ;
#153 = VERTEX_POINT ( 'NONE', #128 ) ;
#154 = LOCAL_TIME ( 8, 36, 29.00000000000000000, #8 ) ;
#155 = DIRECTION ( 'NONE',  ( -6.982962677686266711E-15, -1.000000000000000000, 3.490254041581994210E-15 ) ) ;
#156 = CARTESIAN_POINT ( 'NONE',  ( 0.000000000000000000, 0.000000000000000000, 0.000000000000000000 ) ) ;
#157 = DIRECTION ( 'NONE',  ( -2.446325823282041021E-29, 3.490254041581994604E-15, 1.000000000000000000 ) ) ;
#158 = DIRECTION ( 'NONE',  ( -2.445468806185136597E-29, 3.491481338843145583E-15, 1.000000000000000000 ) ) ;
#159 = CARTESIAN_POINT ( 'NONE',  ( -1.286343374582161379E-15, -0.1875000000000000555, -0.01999999999999938979 ) ) ;
#160 = CARTESIAN_POINT ( 'NONE',  ( 5.790569421510013204E-29, -9.191404651505909607E-15, -2.500000000000000000 ) ) ;
#161 = CIRCLE ( 'NONE', #319, 0.1875000000000000278 ) ;
#162 = EDGE_CURVE ( 'NONE', #15, #69, #313, .T. ) ;
#163 = DIRECTION ( 'NONE',  ( 6.982962677686265922E-15, 1.000000000000000000, 0.000000000000000000 ) ) ;
#164 = ORIENTED_EDGE ( 'NONE', *, *, #76, .F. ) ;
#165 = DIRECTION ( 'NONE',  ( -4.937700262164211199E-15, -0.7071067811864968355, 0.7071067811865981989 ) ) ;
#166 = CYLINDRICAL_SURFACE ( 'NONE', #110, 0.1875000000000000555 ) ;
#167 = DIRECTION ( 'NONE',  ( 1.000000000000000000, -6.982962677686266711E-15, 0.000000000000000000 ) ) ;
#168 = EDGE_CURVE ( 'NONE', #301, #98, #302, .T. ) ;
#169 = AXIS2_PLACEMENT_3D ( 'NONE', #282, #194, #132 ) ;
#170 = EDGE_CURVE ( 'NONE', #69, #272, #211, .T. ) ;
#171 = AXIS2_PLACEMENT_3D ( 'NONE', #271, #327, #78 ) ;
#172 = EDGE_CURVE ( 'NONE', #272, #42, #253, .T. ) ;
#173 = CIRCLE ( 'NONE', #85, 0.1674999999999999545 ) ;
#174 = SECURITY_CLASSIFICATION_LEVEL ( 'unclassified' ) ;
#175 = SHAPE_DEFINITION_REPRESENTATION ( #216, #292 ) ;
#176 = LOCAL_TIME ( 8, 36, 29.00000000000000000, #53 ) ;
#177 = PLANE ( 'NONE',  #237 ) ;
#178 = ORIENTED_EDGE ( 'NONE', *, *, #376, .T. ) ;
#179 = CARTESIAN_POINT ( 'NONE',  ( -1.217738394604446442E-15, -0.1674999999999999545, 6.057545421242431695E-16 ) ) ;
#180 = CIRCLE ( 'NONE', #299, 0.1874999999999999722 ) ;
#181 = EDGE_LOOP ( 'NONE', ( #279, #274, #209, #184 ) ) ;
#182 = COORDINATED_UNIVERSAL_TIME_OFFSET ( 5, 0, .BEHIND. ) ;
#183 = PERSON_AND_ORGANIZATION_ROLE ( 'creator' ) ;
#184 = ORIENTED_EDGE ( 'NONE', *, *, #170, .F. ) ;
#185 = CARTESIAN_POINT ( 'NONE',  ( -5.170796485305438754E-46, 7.377346533023360071E-32, 2.113699015925929127E-17 ) ) ;
#186 = ORIENTED_EDGE ( 'NONE', *, *, #357, .T. ) ;
#187 = VECTOR ( 'NONE', #246, 39.37007874015748143 ) ;
#188 = CALENDAR_DATE ( 2024, 10, 4 ) ;
#189 = DIRECTION ( 'NONE',  ( -6.982962677686265922E-15, -1.000000000000000000, 2.929595703661408850E-15 ) ) ;
#190 = ORIENTED_EDGE ( 'NONE', *, *, #172, .F. ) ;
#191 = DIRECTION ( 'NONE',  ( 1.000000000000000000, -6.982962677686270655E-15, 0.000000000000000000 ) ) ;
#192 = DIRECTION ( 'NONE',  ( -1.000000000000000000, 7.105427357601001070E-15, -4.926315508542082329E-29 ) ) ;
#193 = CARTESIAN_POINT ( 'NONE',  ( 0.000000000000000000, 0.000000000000000000, 0.000000000000000000 ) ) ;
#194 = DIRECTION ( 'NONE',  ( -2.446325823282041021E-29, 3.490254041581994604E-15, 1.000000000000000000 ) ) ;
#195 = CIRCLE ( 'NONE', #148, 0.1874999999999999722 ) ;
#196 = ORGANIZATION ( 'UNSPECIFIED', 'UNSPECIFIED', '' ) ;
#197 = DIRECTION ( 'NONE',  ( -2.445468806185136877E-29, 3.491481338843145188E-15, 1.000000000000000000 ) ) ;
#198 = CARTESIAN_POINT ( 'NONE',  ( -0.1875000000000000278, -5.323368672619557593E-15, -1.500000000000000222 ) ) ;
#199 = PRODUCT_DEFINITION ( 'UNKNOWN', '', #77, #348 ) ;
#200 = DIRECTION ( 'NONE',  ( -2.445468806185136597E-29, 3.491481338843145583E-15, 1.000000000000000000 ) ) ;
#201 = PERSON_AND_ORGANIZATION_ROLE ( 'creator' ) ;
#202 = EDGE_CURVE ( 'NONE', #406, #98, #106, .T. ) ;
#203 = APPROVAL_ROLE ( '' ) ;
#204 = PERSON_AND_ORGANIZATION ( #260, #196 ) ;
#205 = AXIS2_PLACEMENT_3D ( 'NONE', #314, #403, #60 ) ;
#206 = APPROVAL_PERSON_ORGANIZATION ( #142, #408, #203 ) ;
#207 = DIRECTION ( 'NONE',  ( 2.446325823282040741E-29, -3.490254041581994604E-15, -1.000000000000000000 ) ) ;
#208 = CC_DESIGN_PERSON_AND_ORGANIZATION_ASSIGNMENT ( #111, #201, ( #77 ) ) ;
#209 = ORIENTED_EDGE ( 'NONE', *, *, #152, .F. ) ;
#210 = CARTESIAN_POINT ( 'NONE',  ( 0.1875000000000000555, -7.964941804235924394E-15, -2.312500000000000000 ) ) ;
#211 = CIRCLE ( 'NONE', #236, 0.1875000000000000555 ) ;
#212 = APPROVAL_PERSON_ORGANIZATION ( #213, #270, #335 ) ;
#213 = PERSON_AND_ORGANIZATION ( #260, #196 ) ;
#214 = EDGE_CURVE ( 'NONE', #329, #232, #66, .T. ) ;
#215 = DIRECTION ( 'NONE',  ( 1.000000000000000000, 0.000000000000000000, 0.000000000000000000 ) ) ;
#216 = PRODUCT_DEFINITION_SHAPE ( 'NONE', 'NONE',  #199 ) ;
#217 = VERTEX_POINT ( 'NONE', #395 ) ;
#218 = CALENDAR_DATE ( 2024, 10, 4 ) ;
#219 = FACE_OUTER_BOUND ( 'NONE', #220, .T. ) ;
#220 = EDGE_LOOP ( 'NONE', ( #347, #150, #391, #87 ) ) ;
#221 = DIRECTION ( 'NONE',  ( -6.982962677686265922E-15, -1.000000000000000000, 2.913971193241877611E-15 ) ) ;
#222 = AXIS2_PLACEMENT_3D ( 'NONE', #149, #244, #325 ) ;
#223 = ORIENTED_EDGE ( 'NONE', *, *, #25, .F. ) ;
#224 = FACE_OUTER_BOUND ( 'NONE', #28, .T. ) ;
#225 = EDGE_LOOP ( 'NONE', ( #334, #81, #370, #316 ) ) ;
#226 = APPROVAL_STATUS ( 'not_yet_approved' ) ;
#227 = CARTESIAN_POINT ( 'NONE',  ( 5.655146614303128380E-29, -8.074050596074775072E-15, -2.312500000000000000 ) ) ;
#228 = VERTEX_POINT ( 'NONE', #126 ) ;
#229 = CARTESIAN_POINT ( 'NONE',  ( -1.309305502066139509E-15, -0.1875000000000054123, -1.498999999999999444 ) ) ;
#230 = EDGE_LOOP ( 'NONE', ( #114, #367, #24, #101 ) ) ;
#231 = CIRCLE ( 'NONE', #74, 0.1875000000000000555 ) ;
#232 = VERTEX_POINT ( 'NONE', #247 ) ;
#233 = LINE ( 'NONE', #257, #379 ) ;
#234 = EDGE_CURVE ( 'NONE', #228, #217, #180, .T. ) ;
#235 = FACE_OUTER_BOUND ( 'NONE', #124, .T. ) ;
#236 = AXIS2_PLACEMENT_3D ( 'NONE', #284, #405, #287 ) ;
#237 = AXIS2_PLACEMENT_3D ( 'NONE', #351, #207, #100 ) ;
#238 = ORIENTED_EDGE ( 'NONE', *, *, #168, .F. ) ;
#239 = DIRECTION ( 'NONE',  ( -6.982962677686266711E-15, -1.000000000000000000, 3.490254041581994210E-15 ) ) ;
#240 = ORIENTED_EDGE ( 'NONE', *, *, #170, .T. ) ;
#241 = ORIENTED_EDGE ( 'NONE', *, *, #96, .T. ) ;
#242 = DIRECTION ( 'NONE',  ( 0.000000000000000000, 0.000000000000000000, 1.000000000000000000 ) ) ;
#243 = AXIS2_PLACEMENT_3D ( 'NONE', #333, #131, #163 ) ;
#244 = DIRECTION ( 'NONE',  ( -2.446325823282041021E-29, 3.490254041581994604E-15, 1.000000000000000000 ) ) ;
#245 = DATE_AND_TIME ( #392, #122 ) ;
#246 = DIRECTION ( 'NONE',  ( -2.445468806185136877E-29, 3.491481338843145188E-15, 1.000000000000000000 ) ) ;
#247 = CARTESIAN_POINT ( 'NONE',  ( 1.239475875289312499E-15, 0.1674999999999999545, -5.634805618057246363E-16 ) ) ;
#248 = ORIENTED_EDGE ( 'NONE', *, *, #214, .T. ) ;
#249 = EDGE_CURVE ( 'NONE', #301, #45, #384, .T. ) ;
#250 = CARTESIAN_POINT ( 'NONE',  ( 4.892651646564092307E-31, -6.980508083164003605E-17, -0.02000000000000004205 ) ) ;
#251 = AXIS2_PLACEMENT_3D ( 'NONE', #340, #57, #189 ) ;
#252 = DIRECTION ( 'NONE',  ( 6.982962677686266711E-15, 1.000000000000000000, -2.913971193241875639E-15 ) ) ;
#253 = LINE ( 'NONE', #123, #187 ) ;
#254 = ORIENTED_EDGE ( 'NONE', *, *, #214, .F. ) ;
#255 = CARTESIAN_POINT ( 'NONE',  ( -1.302322539388451720E-15, -0.1865000000000051894, -1.499999999999999778 ) ) ;
#256 = FACE_OUTER_BOUND ( 'NONE', #50, .T. ) ;
#257 = CARTESIAN_POINT ( 'NONE',  ( 1.332267629550188243E-15, 0.1875000000000000833, -6.544226327966242348E-16 ) ) ;
#258 = ORIENTED_EDGE ( 'NONE', *, *, #10, .F. ) ;
#259 = AXIS2_PLACEMENT_3D ( 'NONE', #399, #343, #285 ) ;
#260 = PERSON ( 'UNSPECIFIED', 'UNSPECIFIED', 'UNSPECIFIED', ('UNSPECIFIED'), ('UNSPECIFIED'), ('UNSPECIFIED') ) ;
#261 = AXIS2_PLACEMENT_3D ( 'NONE', #33, #31, #191 ) ;
#262 = DIRECTION ( 'NONE',  ( -2.445468806185136597E-29, 3.491481338843145583E-15, 1.000000000000000000 ) ) ;
#263 = CONICAL_SURFACE ( 'NONE', #337, 0.1864999999999999714, 0.7853981633973801113 ) ;
#264 = CARTESIAN_POINT ( 'NONE',  ( 1.309305502066175205E-15, 0.1874999999999999167, -0.02000000000000069431 ) ) ;
#265 = APPROVAL_DATE_TIME ( #386, #350 ) ;
#266 = ORIENTED_EDGE ( 'NONE', *, *, #76, .T. ) ;
#267 = DIRECTION ( 'NONE',  ( 2.438088387897960049E-29, -3.491481338843145188E-15, -1.000000000000000000 ) ) ;
#268 = ORIENTED_EDGE ( 'NONE', *, *, #86, .F. ) ;
#269 = ORIENTED_EDGE ( 'NONE', *, *, #388, .T. ) ;
#270 = APPROVAL ( #330, 'UNSPECIFIED' ) ;
#271 = CARTESIAN_POINT ( 'NONE',  ( 0.000000000000000000, 0.000000000000000000, 0.000000000000000000 ) ) ;
#272 = VERTEX_POINT ( 'NONE', #306 ) ;
#273 = DIRECTION ( 'NONE',  ( 5.024295867787719235E-15, 0.7071067811865017205, 0.7071067811865933139 ) ) ;
#274 = ORIENTED_EDGE ( 'NONE', *, *, #10, .T. ) ;
#275 = DIRECTION ( 'NONE',  ( -2.446325823282040741E-29, 3.490254041581994604E-15, 1.000000000000000000 ) ) ;
#276 = ORIENTED_EDGE ( 'NONE', *, *, #249, .F. ) ;
#277 = CC_DESIGN_DATE_AND_TIME_ASSIGNMENT ( #3, #378, ( #394 ) ) ;
#278 = DIRECTION ( 'NONE',  ( -2.446325823282041021E-29, 3.490254041581994604E-15, 1.000000000000000000 ) ) ;
#279 = ORIENTED_EDGE ( 'NONE', *, *, #162, .F. ) ;
#280 = DIRECTION ( 'NONE',  ( 1.000000000000000000, -6.982962677686270655E-15, 0.000000000000000000 ) ) ;
#281 = DIRECTION ( 'NONE',  ( -6.982962677686265922E-15, -1.000000000000000000, 2.929595703661408850E-15 ) ) ;
#282 = CARTESIAN_POINT ( 'NONE',  ( 3.669488734923062093E-29, -5.235381062372993089E-15, -1.500000000000000444 ) ) ;
#283 = MANIFOLD_SOLID_BREP ( 'Body-Move/Copy2[2]', #83 ) ;
#284 = CARTESIAN_POINT ( 'NONE',  ( 5.655146614303128380E-29, -8.074050596074775072E-15, -2.312500000000000000 ) ) ;
#285 = DIRECTION ( 'NONE',  ( 6.982962677686266711E-15, 1.000000000000000000, -2.913971193241875639E-15 ) ) ;
#286 = ADVANCED_FACE ( 'NONE', ( #27 ), #36, .T. ) ;
#287 = DIRECTION ( 'NONE',  ( 1.000000000000000000, -6.982962677686270655E-15, 0.000000000000000000 ) ) ;
#288 = DIRECTION ( 'NONE',  ( 1.000000000000000000, -6.982962677686265922E-15, 4.876176775795935793E-29 ) ) ;
#289 = AXIS2_PLACEMENT_3D ( 'NONE', #409, #396, #252 ) ;
#290 = VECTOR ( 'NONE', #23, 39.37007874015748143 ) ;
#291 = ADVANCED_FACE ( 'NONE', ( #318 ), #263, .T. ) ;
#292 = ADVANCED_BREP_SHAPE_REPRESENTATION ( '91287', ( #2, #283, #359 ), #19 ) ;
#293 = CIRCLE ( 'NONE', #46, 0.1875000000000000278 ) ;
#294 = CARTESIAN_POINT ( 'NONE',  ( 3.668203209277704895E-29, -5.237222008264718177E-15, -1.500000000000000222 ) ) ;
#295 = LINE ( 'NONE', #371, #374 ) ;
#296 = DATE_AND_TIME ( #322, #380 ) ;
#297 = ORIENTED_EDGE ( 'NONE', *, *, #381, .F. ) ;
#298 = APPLICATION_CONTEXT ( 'configuration controlled 3d designs of mechanical parts and assemblies' ) ;
#299 = AXIS2_PLACEMENT_3D ( 'NONE', #250, #90, #93 ) ;
#300 = EDGE_LOOP ( 'NONE', ( #241, #34, #61, #297 ) ) ;
#301 = VERTEX_POINT ( 'NONE', #1 ) ;
#302 = LINE ( 'NONE', #255, #13 ) ;
#303 = LOCAL_TIME ( 8, 36, 29.00000000000000000, #182 ) ;
#304 = SPHERICAL_SURFACE ( 'NONE', #259, 0.1875000000000003331 ) ;
#305 = PERSON_AND_ORGANIZATION ( #260, #196 ) ;
#306 = CARTESIAN_POINT ( 'NONE',  ( -0.1875000000000000555, -5.323368672619559170E-15, -2.312500000000000000 ) ) ;
#307 = EDGE_LOOP ( 'NONE', ( #254, #119, #365, #12 ) ) ;
#308 = UNCERTAINTY_MEASURE_WITH_UNIT (LENGTH_MEASURE( 1.000000000000000082E-05 ), #397, 'distance_accuracy_value', 'NONE');
#309 = CARTESIAN_POINT ( 'NONE',  ( 3.669488734923062093E-29, -5.235381062372993089E-15, -1.500000000000000444 ) ) ;
#310 = DIRECTION ( 'NONE',  ( -7.105427357600999492E-15, -1.000000000000000000, 0.000000000000000000 ) ) ;
#311 = ADVANCED_FACE ( 'NONE', ( #115 ), #411, .F. ) ;
#312 = DIRECTION ( 'NONE',  ( 2.446325823282041021E-29, -3.490254041581994604E-15, -1.000000000000000000 ) ) ;
#313 = CIRCLE ( 'NONE', #243, 0.1875000000000003331 ) ;
#314 = CARTESIAN_POINT ( 'NONE',  ( 3.667042409099778861E-29, -5.231890808331411425E-15, -1.499000000000000110 ) ) ;
#315 = EDGE_CURVE ( 'NONE', #406, #228, #233, .T. ) ;
#316 = ORIENTED_EDGE ( 'NONE', *, *, #202, .F. ) ;
#317 = PERSON_AND_ORGANIZATION_ROLE ( 'design_owner' ) ;
#318 = FACE_OUTER_BOUND ( 'NONE', #136, .T. ) ;
#319 = AXIS2_PLACEMENT_3D ( 'NONE', #294, #200, #167 ) ;
#320 = CALENDAR_DATE ( 2024, 10, 4 ) ;
#321 = EDGE_CURVE ( 'NONE', #42, #127, #293, .T. ) ;
#322 = CALENDAR_DATE ( 2024, 10, 4 ) ;
#323 = AXIS2_PLACEMENT_3D ( 'NONE', #407, #267, #354 ) ;
#324 = FACE_OUTER_BOUND ( 'NONE', #307, .T. ) ;
#325 = DIRECTION ( 'NONE',  ( -6.982962677686266711E-15, -1.000000000000000000, 3.490254041581994210E-15 ) ) ;
#326 = DIRECTION ( 'NONE',  ( -2.446325823282041021E-29, 3.490254041581994604E-15, 1.000000000000000000 ) ) ;
#327 = DIRECTION ( 'NONE',  ( -2.445468806185136597E-29, 3.491481338843145583E-15, 1.000000000000000000 ) ) ;
#328 = CONICAL_SURFACE ( 'NONE', #30, 0.1874999999999999722, 0.7853981633974473908 ) ;
#329 = VERTEX_POINT ( 'NONE', #179 ) ;
#330 = APPROVAL_STATUS ( 'not_yet_approved' ) ;
#331 = APPLICATION_PROTOCOL_DEFINITION ( 'international standard', 'config_control_design', 1994, #137 ) ;
#332 = ORIENTED_EDGE ( 'NONE', *, *, #71, .T. ) ;
#333 = CARTESIAN_POINT ( 'NONE',  ( 5.324026836389243254E-29, -8.548232964214825368E-15, -2.312500000000000000 ) ) ;
#334 = ORIENTED_EDGE ( 'NONE', *, *, #71, .F. ) ;
#335 = APPROVAL_ROLE ( '' ) ;
#336 = VECTOR ( 'NONE', #385, 39.37007874015748143 ) ;
#337 = AXIS2_PLACEMENT_3D ( 'NONE', #102, #349, #40 ) ;
#338 = CARTESIAN_POINT ( 'NONE',  ( 4.892651646564092307E-31, -6.980508083164003605E-17, -0.02000000000000004205 ) ) ;
#339 = ORIENTED_EDGE ( 'NONE', *, *, #357, .F. ) ;
#340 = CARTESIAN_POINT ( 'NONE',  ( 3.669488734923062093E-29, -5.235381062372993089E-15, -1.500000000000000444 ) ) ;
#341 = EDGE_LOOP ( 'NONE', ( #190, #58, #269, #266, #361 ) ) ;
#342 = LINE ( 'NONE', #159, #290 ) ;
#343 = DIRECTION ( 'NONE',  ( -1.000000000000000000, 6.982962677686266711E-15, -4.883557194083113462E-29 ) ) ;
#344 = ADVANCED_FACE ( 'NONE', ( #235 ), #177, .F. ) ;
#345 = DIRECTION ( 'NONE',  ( -6.982962677686265922E-15, -1.000000000000000000, 3.490254041581994604E-15 ) ) ;
#346 = AXIS2_PLACEMENT_3D ( 'NONE', #43, #262, #280 ) ;
#347 = ORIENTED_EDGE ( 'NONE', *, *, #315, .F. ) ;
#348 = DESIGN_CONTEXT ( 'detailed design', #298, 'design' ) ;
#349 = DIRECTION ( 'NONE',  ( -2.446325823282041021E-29, 3.490254041581994604E-15, 1.000000000000000000 ) ) ;
#350 = APPROVAL ( #226, 'UNSPECIFIED' ) ;
#351 = CARTESIAN_POINT ( 'NONE',  ( 1.169646248512449398E-15, 0.1674999999999999545, -5.740490568853542942E-16 ) ) ;
#352 = CARTESIAN_POINT ( 'NONE',  ( -1.309305502066175600E-15, -0.1875000000000000833, 6.544226327966242348E-16 ) ) ;
#353 = AXIS2_PLACEMENT_3D ( 'NONE', #309, #157, #281 ) ;
#354 = DIRECTION ( 'NONE',  ( -1.000000000000000000, 6.982962677686265922E-15, -4.876176775795935793E-29 ) ) ;
#355 = PERSON_AND_ORGANIZATION_ROLE ( 'classification_officer' ) ;
#356 = ADVANCED_FACE ( 'NONE', ( #324 ), #328, .T. ) ;
#357 = EDGE_CURVE ( 'NONE', #127, #42, #161, .T. ) ;
#358 = AXIS2_PLACEMENT_3D ( 'NONE', #21, #192, #310 ) ;
#359 = AXIS2_PLACEMENT_3D ( 'NONE', #29, #242, #215 ) ;
#360 = CARTESIAN_POINT ( 'NONE',  ( 4.892651646564092307E-31, -6.980508083164003605E-17, -0.02000000000000004205 ) ) ;
#361 = ORIENTED_EDGE ( 'NONE', *, *, #321, .F. ) ;
#362 = CIRCLE ( 'NONE', #346, 0.1875000000000000555 ) ;
#363 = DIRECTION ( 'NONE',  ( -2.446325823282041021E-29, 3.490254041581994604E-15, 1.000000000000000000 ) ) ;
#364 = DIRECTION ( 'NONE',  ( 6.982962677686266711E-15, 1.000000000000000000, -3.483106191921935949E-15 ) ) ;
#365 = ORIENTED_EDGE ( 'NONE', *, *, #382, .T. ) ;
#366 = DIRECTION ( 'NONE',  ( -6.982962677686266711E-15, -1.000000000000000000, 3.490254041581994210E-15 ) ) ;
#367 = ORIENTED_EDGE ( 'NONE', *, *, #376, .F. ) ;
#368 = CC_DESIGN_PERSON_AND_ORGANIZATION_ASSIGNMENT ( #204, #355, ( #394 ) ) ;
#369 = FACE_OUTER_BOUND ( 'NONE', #230, .T. ) ;
#370 = ORIENTED_EDGE ( 'NONE', *, *, #168, .T. ) ;
#371 = CARTESIAN_POINT ( 'NONE',  ( 0.1875000000000000555, -1.309305502066175205E-15, 9.142831454617382414E-30 ) ) ;
#372 = ORIENTED_EDGE ( 'NONE', *, *, #321, .T. ) ;
#373 = DIRECTION ( 'NONE',  ( 1.000000000000000000, -6.982962677686266711E-15, 0.000000000000000000 ) ) ;
#374 = VECTOR ( 'NONE', #197, 39.37007874015748143 ) ;
#375 = ORIENTED_EDGE ( 'NONE', *, *, #249, .T. ) ;
#376 = EDGE_CURVE ( 'NONE', #232, #329, #173, .T. ) ;
#377 = CARTESIAN_POINT ( 'NONE',  ( -5.170796485305438754E-46, 7.377346533023360071E-32, 2.113699015925929127E-17 ) ) ;
#378 = DATE_TIME_ROLE ( 'classification_date' ) ;
#379 = VECTOR ( 'NONE', #70, 39.37007874015748143 ) ;
#380 = LOCAL_TIME ( 8, 36, 29.00000000000000000, #107 ) ;
#381 = EDGE_CURVE ( 'NONE', #98, #217, #147, .T. ) ;
#382 = EDGE_CURVE ( 'NONE', #217, #228, #195, .T. ) ;
#383 = DIRECTION ( 'NONE',  ( 4.937700262164543309E-15, 0.7071067811865444641, -0.7071067811865506814 ) ) ;
#384 = CIRCLE ( 'NONE', #251, 0.1864999999999999714 ) ;
#385 = DIRECTION ( 'NONE',  ( -2.446325823282041302E-29, 3.490254041581994604E-15, 1.000000000000000000 ) ) ;
#386 = DATE_AND_TIME ( #218, #303 ) ;
#387 = VERTEX_POINT ( 'NONE', #210 ) ;
#388 = EDGE_CURVE ( 'NONE', #153, #387, #362, .T. ) ;
#389 = CYLINDRICAL_SURFACE ( 'NONE', #171, 0.1875000000000000555 ) ;
#390 = FACE_OUTER_BOUND ( 'NONE', #300, .T. ) ;
#391 = ORIENTED_EDGE ( 'NONE', *, *, #381, .T. ) ;
#392 = CALENDAR_DATE ( 2024, 10, 4 ) ;
#393 = AXIS2_PLACEMENT_3D ( 'NONE', #54, #278, #221 ) ;
#394 = SECURITY_CLASSIFICATION ( '', '', #174 ) ;
#395 = CARTESIAN_POINT ( 'NONE',  ( -1.286343374582161379E-15, -0.1875000000000000555, -0.01999999999999938979 ) ) ;
#396 = DIRECTION ( 'NONE',  ( -1.000000000000000000, 6.982962677686266711E-15, -4.883557194083113462E-29 ) ) ;
#397 =( CONVERSION_BASED_UNIT ( 'INCH', #14 ) LENGTH_UNIT ( ) NAMED_UNIT ( #64 ) );
#398 = PLANE ( 'NONE',  #143 ) ;
#399 = CARTESIAN_POINT ( 'NONE',  ( 5.324026836389243254E-29, -8.548232964214825368E-15, -2.312500000000000000 ) ) ;
#400 = CARTESIAN_POINT ( 'NONE',  ( 1.332267629550206781E-15, 0.1874999999999949485, -1.499000000000000554 ) ) ;
#401 = VECTOR ( 'NONE', #273, 39.37007874015748143 ) ;
#402 = CC_DESIGN_SECURITY_CLASSIFICATION ( #394, ( #77 ) ) ;
#403 = DIRECTION ( 'NONE',  ( -2.446325823282041021E-29, 3.490254041581994604E-15, 1.000000000000000000 ) ) ;
#404 = ORIENTED_EDGE ( 'NONE', *, *, #162, .T. ) ;
#405 = DIRECTION ( 'NONE',  ( -2.445468806185136597E-29, 3.491481338843145583E-15, 1.000000000000000000 ) ) ;
#406 = VERTEX_POINT ( 'NONE', #400 ) ;
#407 = CARTESIAN_POINT ( 'NONE',  ( 1.309305502066211690E-15, 0.1874999999999947820, -1.500000000000000666 ) ) ;
#408 = APPROVAL ( #41, 'UNSPECIFIED' ) ;
#409 = CARTESIAN_POINT ( 'NONE',  ( 5.324026836389243254E-29, -8.548232964214825368E-15, -2.312500000000000000 ) ) ;
#410 = CIRCLE ( 'NONE', #169, 0.1864999999999999714 ) ;
#411 = PLANE ( 'NONE',  #323 ) ;
#412 = AXIS2_PLACEMENT_3D ( 'NONE', #185, #20, #155 ) ;
ENDSEC;
END-ISO-10303-21;
